ISO-10303-21;
HEADER;
FILE_DESCRIPTION (( 'STEP AP203' ),
    '1' );
FILE_NAME ('114-1220E UVFS bi-cv 25.4 F-150.STEP',
    '2019-01-21T11:39:36',
    ( '' ),
    ( '' ),
    'SwSTEP 2.0',
    'SolidWorks 2017',
    '' );
FILE_SCHEMA (( 'CONFIG_CONTROL_DESIGN' ));
ENDSEC;

DATA;
#1 = ORIENTED_EDGE ( 'NONE', *, *, #20, .T. ) ;
#2 = COORDINATED_UNIVERSAL_TIME_OFFSET ( 2, 0, .AHEAD. ) ;
#3 = EDGE_CURVE ( 'NONE', #153, #11, #132, .T. ) ;
#4 = CC_DESIGN_DATE_AND_TIME_ASSIGNMENT ( #16, #50, ( #265 ) ) ;
#5 =( LENGTH_UNIT ( ) NAMED_UNIT ( * ) SI_UNIT ( .MILLI., .METRE. ) );
#6 = CARTESIAN_POINT ( 'NONE',  ( 4.996003610813200500E-016, 2.442490654175340100E-015, 4.463485060717050400 ) ) ;
#7 = FACE_OUTER_BOUND ( 'NONE', #61, .T. ) ;
#8 = ORIENTED_EDGE ( 'NONE', *, *, #3, .T. ) ;
#9 = PRODUCT_DEFINITION ( 'UNKNOWN', '', #137, #264 ) ;
#10 = PRODUCT ( '114-1220E UVFS bi-cv 25.4 F-150', '114-1220E UVFS bi-cv 25.4 F-150', '', ( #154 ) ) ;
#11 = VERTEX_POINT ( 'NONE', #215 ) ;
#12 = CARTESIAN_POINT ( 'NONE',  ( -8.492911110946799600, 12.85199307557277100, 4.666528930233290000 ) ) ;
#13 = MANIFOLD_SOLID_BREP ( 'Imported1', #225 ) ;
#14 = DIRECTION ( 'NONE',  ( 1.000000000000000000, 0.0000000000000000000, 0.0000000000000000000 ) ) ;
#15 = CARTESIAN_POINT ( 'NONE',  ( -1.006500149200543300E-014, -4.295521926404845200, 3.707122301067212100 ) ) ;
#16 = DATE_AND_TIME ( #131, #257 ) ;
#17 = CARTESIAN_POINT ( 'NONE',  ( -12.72458424431705200, -12.85199307557276200, 5.045048487602020500 ) ) ;
#18 = CARTESIAN_POINT ( 'NONE',  ( 12.72458424431705400, -12.85199307557275200, -1.145048487601978000 ) ) ;
#19 = CARTESIAN_POINT ( 'NONE',  ( 4.996003610813200500E-016, 2.442490654175340100E-015, 4.463485060717050400 ) ) ;
#20 = EDGE_CURVE ( 'NONE', #242, #229, #233, .T. ) ;
#21 = APPLICATION_PROTOCOL_DEFINITION ( 'international standard', 'config_control_design', 1994, #226 ) ;
#22 = CARTESIAN_POINT ( 'NONE',  ( 12.79318248269249600, -4.295521926404847900, -0.3781519912946709200 ) ) ;
#23 = LOCAL_TIME ( 13, 39, 36.00000000000000000, #193 ) ;
#24 = SECURITY_CLASSIFICATION_LEVEL ( 'unclassified' ) ;
#25 = AXIS2_PLACEMENT_3D ( 'NONE', #148, #269, #14 ) ;
#26 = APPROVAL_STATUS ( 'not_yet_approved' ) ;
#27 = APPLICATION_CONTEXT ( 'configuration controlled 3d designs of mechanical parts and assemblies' ) ;
#28 = DATE_AND_TIME ( #85, #144 ) ;
#29 = ORIENTED_EDGE ( 'NONE', *, *, #152, .F. ) ;
#30 = ADVANCED_FACE ( 'NONE', ( #7 ), #32, .F. ) ;
#31 = SHAPE_DEFINITION_REPRESENTATION ( #158, #213 ) ;
#32 =( BOUNDED_SURFACE ( )  B_SPLINE_SURFACE ( 3, 3, ( 
 ( #58, #267, #78, #100 ),
 ( #196, #182, #218, #105 ),
 ( #84, #202, #173, #22 ),
 ( #222, #38, #179, #18 ) ),
 .UNSPECIFIED., .F., .F., .F. ) 
 B_SPLINE_SURFACE_WITH_KNOTS ( ( 4, 4 ),
 ( 4, 4 ),
 ( 0.0000000000000000000, 1.000000000000000000 ),
 ( 0.0000000000000000000, 1.000000000000000000 ),
 .UNSPECIFIED. ) 
 GEOMETRIC_REPRESENTATION_ITEM ( )  RATIONAL_B_SPLINE_SURFACE ( (
 ( 1.000000000000000000, 0.9993368823537854800, 0.9993368823537854800, 1.000000000000000000),
 ( 0.9973171515022596400, 0.9966558129002260900, 0.9966558129002260900, 0.9973171515022596400),
 ( 0.9973171515022596400, 0.9966558129002260900, 0.9966558129002260900, 0.9973171515022596400),
 ( 1.000000000000000000, 0.9993368823537854800, 0.9993368823537854800, 1.000000000000000000) ) ) 
 REPRESENTATION_ITEM ( '' )  SURFACE ( )  );
#33 = CALENDAR_DATE ( 2019, 21, 1 ) ;
#34 = ORIENTED_EDGE ( 'NONE', *, *, #115, .F. ) ;
#35 = AXIS2_PLACEMENT_3D ( 'NONE', #248, #130, #228 ) ;
#36 = COORDINATED_UNIVERSAL_TIME_OFFSET ( 2, 0, .AHEAD. ) ;
#37 = EDGE_LOOP ( 'NONE', ( #162, #212, #75, #274, #95, #81 ) ) ;
#38 = CARTESIAN_POINT ( 'NONE',  ( 4.248568531046468700, -12.85199307557274800, -0.5770807118639095200 ) ) ;
#39 = APPROVAL ( #249, 'UNSPECIFIED' ) ;
#40 = DIRECTION ( 'NONE',  ( 1.000000000000000000, 0.0000000000000000000, 0.0000000000000000000 ) ) ;
#41 = DIRECTION ( 'NONE',  ( 2.026399999151470400E-016, 1.000000000000000000, 3.871070518218816400E-016 ) ) ;
#42 = CARTESIAN_POINT ( 'NONE',  ( -8.538696397892447700, 4.295521926404860300, 3.897591834851968300 ) ) ;
#43 = CARTESIAN_POINT ( 'NONE',  ( 12.69999999999999900, 2.442490654175340100E-015, -0.5634850607170539500 ) ) ;
#44 = PERSON_AND_ORGANIZATION ( #195, #238 ) ;
#45 = PERSON_AND_ORGANIZATION_ROLE ( 'creator' ) ;
#46 = DIRECTION ( 'NONE',  ( 0.0000000000000000000, 0.0000000000000000000, 1.000000000000000000 ) ) ;
#47 = APPROVAL_ROLE ( '' ) ;
#48 = CARTESIAN_POINT ( 'NONE',  ( 8.538696397892451300, -4.295521926404844300, 3.897591834851960700 ) ) ;
#49 = FACE_OUTER_BOUND ( 'NONE', #37, .T. ) ;
#50 = DATE_TIME_ROLE ( 'classification_date' ) ;
#51 = CARTESIAN_POINT ( 'NONE',  ( 12.79318248269249200, 4.295521926404863900, 4.278151991294700800 ) ) ;
#52 = DIRECTION ( 'NONE',  ( 1.000000000000000000, 0.0000000000000000000, 0.0000000000000000000 ) ) ;
#53 = EDGE_CURVE ( 'NONE', #279, #55, #251, .T. ) ;
#54 = CC_DESIGN_DATE_AND_TIME_ASSIGNMENT ( #28, #92, ( #9 ) ) ;
#55 = VERTEX_POINT ( 'NONE', #146 ) ;
#56 = ORIENTED_EDGE ( 'NONE', *, *, #69, .F. ) ;
#57 = EDGE_CURVE ( 'NONE', #242, #55, #113, .T. ) ;
#58 = CARTESIAN_POINT ( 'NONE',  ( 1.340493711908417100E-014, 12.85199307557275400, -0.5770807118639365000 ) ) ;
#59 = DIRECTION ( 'NONE',  ( 0.0000000000000000000, 0.0000000000000000000, 1.000000000000000000 ) ) ;
#60 = CARTESIAN_POINT ( 'NONE',  ( -8.229462144769205900E-015, -12.69999999999995800, 4.463485060717054900 ) ) ;
#61 = EDGE_LOOP ( 'NONE', ( #56, #171, #159 ) ) ;
#62 = DIRECTION ( 'NONE',  ( 0.0000000000000000000, 0.0000000000000000000, 1.000000000000000000 ) ) ;
#63 = CARTESIAN_POINT ( 'NONE',  ( -12.69999999999999900, 3.997792089092478900E-015, -0.5634850607170539500 ) ) ;
#64 = CARTESIAN_POINT ( 'NONE',  ( -12.72458424431705700, 12.85199307557277300, 5.045048487602020500 ) ) ;
#65 = CARTESIAN_POINT ( 'NONE',  ( 8.229462144769204400E-015, -12.69999999999995800, -0.5634850607170495100 ) ) ;
#66 = COORDINATED_UNIVERSAL_TIME_OFFSET ( 2, 0, .AHEAD. ) ;
#67 = DIRECTION ( 'NONE',  ( 1.000000000000000000, 0.0000000000000000000, 0.0000000000000000000 ) ) ;
#68 = CARTESIAN_POINT ( 'NONE',  ( 4.996003610813200500E-016, 2.442490654175340100E-015, 4.463485060717050400 ) ) ;
#69 = EDGE_CURVE ( 'NONE', #217, #72, #165, .T. ) ;
#70 = DIRECTION ( 'NONE',  ( 1.000000000000000000, 8.881784197001252300E-016, 0.0000000000000000000 ) ) ;
#71 = CARTESIAN_POINT ( 'NONE',  ( 4.271472565571399600, -4.295521926404845200, 3.707122301067218300 ) ) ;
#72 = VERTEX_POINT ( 'NONE', #65 ) ;
#73 = DIRECTION ( 'NONE',  ( 1.000000000000000000, 0.0000000000000000000, 0.0000000000000000000 ) ) ;
#74 = APPROVAL ( #26, 'UNSPECIFIED' ) ;
#75 = ORIENTED_EDGE ( 'NONE', *, *, #94, .T. ) ;
#76 = PERSON_AND_ORGANIZATION ( #195, #238 ) ;
#77 = CYLINDRICAL_SURFACE ( 'NONE', #245, 12.69999999999999900 ) ;
#78 = CARTESIAN_POINT ( 'NONE',  ( 8.492911110946797800, 12.85199307557275000, -0.7665289302332759500 ) ) ;
#79 = EDGE_CURVE ( 'NONE', #217, #153, #111, .T. ) ;
#80 = DATE_AND_TIME ( #167, #23 ) ;
#81 = ORIENTED_EDGE ( 'NONE', *, *, #282, .T. ) ;
#82 = CARTESIAN_POINT ( 'NONE',  ( -8.538696397892447700, 4.295521926404853200, 0.002408165148052047900 ) ) ;
#83 = CARTESIAN_POINT ( 'NONE',  ( -1.337651814261392300E-014, 12.69999999999996000, 4.463485060717054900 ) ) ;
#84 = CARTESIAN_POINT ( 'NONE',  ( 1.006500149200543600E-014, -4.295521926404845200, 0.1928776989328284400 ) ) ;
#85 = CALENDAR_DATE ( 2019, 21, 1 ) ;
#86 = CC_DESIGN_PERSON_AND_ORGANIZATION_ASSIGNMENT ( #109, #181, ( #265 ) ) ;
#87 = CARTESIAN_POINT ( 'NONE',  ( -12.79318248269249700, -4.295521926404841700, -0.3781519912946612600 ) ) ;
#88 = CIRCLE ( 'NONE', #117, 12.69999999999999900 ) ;
#89 = CARTESIAN_POINT ( 'NONE',  ( 12.72458424431705700, -12.85199307557275700, 5.045048487602010700 ) ) ;
#90 = PRODUCT_RELATED_PRODUCT_CATEGORY ( 'detail', '', ( #10 ) ) ;
#91 = APPROVAL_PERSON_ORGANIZATION ( #201, #74, #252 ) ;
#92 = DATE_TIME_ROLE ( 'creation_date' ) ;
#93 = CARTESIAN_POINT ( 'NONE',  ( 2.602085213965210600E-014, -12.85199307557276100, 4.477080711863958800 ) ) ;
#94 = EDGE_CURVE ( 'NONE', #72, #279, #234, .T. ) ;
#95 = ORIENTED_EDGE ( 'NONE', *, *, #115, .T. ) ;
#96 = DATE_AND_TIME ( #150, #102 ) ;
#97 = ORIENTED_EDGE ( 'NONE', *, *, #57, .T. ) ;
#98 = APPROVAL ( #207, 'UNSPECIFIED' ) ;
#99 = APPROVAL_DATE_TIME ( #292, #98 ) ;
#100 = CARTESIAN_POINT ( 'NONE',  ( 12.72458424431705600, 12.85199307557275200, -1.145048487602005700 ) ) ;
#101 = EDGE_LOOP ( 'NONE', ( #235, #119, #8, #210, #97, #170 ) ) ;
#102 = LOCAL_TIME ( 13, 39, 36.00000000000000000, #2 ) ;
#103 = CC_DESIGN_PERSON_AND_ORGANIZATION_ASSIGNMENT ( #273, #155, ( #10 ) ) ;
#104 = CARTESIAN_POINT ( 'NONE',  ( -4.271472565571393400, 4.295521926404861200, 3.707122301067211600 ) ) ;
#105 = CARTESIAN_POINT ( 'NONE',  ( 12.79318248269249400, 4.295521926404847900, -0.3781519912946982900 ) ) ;
#106 = CARTESIAN_POINT ( 'NONE',  ( 8.492911110946796100, 12.85199307557277700, 4.666528930233282900 ) ) ;
#107 = CARTESIAN_POINT ( 'NONE',  ( -12.79318248269249400, -4.295521926404847900, 4.278151991294712400 ) ) ;
#108 = CARTESIAN_POINT ( 'NONE',  ( -8.492911110946796100, 12.85199307557275400, -0.7665289302332676200 ) ) ;
#109 = PERSON_AND_ORGANIZATION ( #195, #238 ) ;
#110 = CARTESIAN_POINT ( 'NONE',  ( 4.996003610813200500E-016, 2.442490654175340100E-015, -0.5634850607170539500 ) ) ;
#111 = CIRCLE ( 'NONE', #127, 12.69999999999999900 ) ;
#112 =( GEOMETRIC_REPRESENTATION_CONTEXT ( 3 ) GLOBAL_UNCERTAINTY_ASSIGNED_CONTEXT ( ( #142 ) ) GLOBAL_UNIT_ASSIGNED_CONTEXT ( ( #5, #178, #272 ) ) REPRESENTATION_CONTEXT ( 'NONE', 'WORKASPACE' ) );
#113 = CIRCLE ( 'NONE', #214, 12.69999999999999900 ) ;
#114 = APPROVAL_ROLE ( '' ) ;
#115 = EDGE_CURVE ( 'NONE', #55, #229, #118, .T. ) ;
#116 = CC_DESIGN_APPROVAL ( #98, ( #265 ) ) ;
#117 = AXIS2_PLACEMENT_3D ( 'NONE', #164, #280, #261 ) ;
#118 = CIRCLE ( 'NONE', #277, 12.69999999999999900 ) ;
#119 = ORIENTED_EDGE ( 'NONE', *, *, #79, .T. ) ;
#120 = ADVANCED_FACE ( 'NONE', ( #197 ), #219, .F. ) ;
#121 = CARTESIAN_POINT ( 'NONE',  ( 1.421085471520200100E-014, 0.0000000000000000000, 147.3000000000000100 ) ) ;
#122 = AXIS2_PLACEMENT_3D ( 'NONE', #19, #175, #67 ) ;
#123 = ORIENTED_EDGE ( 'NONE', *, *, #282, .F. ) ;
#124 = CARTESIAN_POINT ( 'NONE',  ( 4.996003610813200500E-016, 2.442490654175340100E-015, -0.5634850607170539500 ) ) ;
#125 = CARTESIAN_POINT ( 'NONE',  ( -12.72458424431705000, 12.85199307557275700, -1.145048487601996200 ) ) ;
#126 = CARTESIAN_POINT ( 'NONE',  ( -4.248568531046482000, -12.85199307557274700, -0.5770807118639160700 ) ) ;
#127 = AXIS2_PLACEMENT_3D ( 'NONE', #149, #177, #224 ) ;
#128 = CC_DESIGN_APPROVAL ( #39, ( #9 ) ) ;
#129 = CARTESIAN_POINT ( 'NONE',  ( -8.538696397892451300, -4.295521926404842500, 0.002408165148079803500 ) ) ;
#130 = DIRECTION ( 'NONE',  ( 0.0000000000000000000, 0.0000000000000000000, 1.000000000000000000 ) ) ;
#131 = CALENDAR_DATE ( 2019, 21, 1 ) ;
#132 = LINE ( 'NONE', #63, #288 ) ;
#133 = AXIS2_PLACEMENT_3D ( 'NONE', #121, #143, #239 ) ;
#134 = PERSON_AND_ORGANIZATION ( #195, #238 ) ;
#135 = DIRECTION ( 'NONE',  ( 0.0000000000000000000, 0.0000000000000000000, 1.000000000000000000 ) ) ;
#136 = ORIENTED_EDGE ( 'NONE', *, *, #20, .F. ) ;
#137 = PRODUCT_DEFINITION_FORMATION_WITH_SPECIFIED_SOURCE ( 'ANY', '', #10, .NOT_KNOWN. ) ;
#138 = ADVANCED_FACE ( 'NONE', ( #49 ), #294, .T. ) ;
#139 = EDGE_LOOP ( 'NONE', ( #263, #1, #34 ) ) ;
#140 = CARTESIAN_POINT ( 'NONE',  ( -8.492911110946803200, -12.85199307557274700, -0.7665289302332396500 ) ) ;
#141 = CARTESIAN_POINT ( 'NONE',  ( -4.271472565571397000, 4.295521926404851400, 0.1928776989327933000 ) ) ;
#142 = UNCERTAINTY_MEASURE_WITH_UNIT (LENGTH_MEASURE( 1.000000000000000100E-005 ), #5, 'distance_accuracy_value', 'NONE');
#143 = DIRECTION ( 'NONE',  ( -1.000000000000000000, -2.026399999151469900E-016, 1.751222008568779900E-016 ) ) ;
#144 = LOCAL_TIME ( 13, 39, 36.00000000000000000, #66 ) ;
#145 = CARTESIAN_POINT ( 'NONE',  ( -1.180589061760981800E-014, 4.295521926404862100, 3.707122301067210700 ) ) ;
#146 = CARTESIAN_POINT ( 'NONE',  ( 12.69999999999999900, 2.442490654175340100E-015, 4.463485060717050400 ) ) ;
#147 = DIRECTION ( 'NONE',  ( 1.000000000000000000, -2.026399999151469900E-016, -1.751222008568779900E-016 ) ) ;
#148 = CARTESIAN_POINT ( 'NONE',  ( 4.996003610813200500E-016, 2.442490654175340100E-015, 4.463485060717050400 ) ) ;
#149 = CARTESIAN_POINT ( 'NONE',  ( 4.996003610813200500E-016, 2.442490654175340100E-015, -0.5634850607170539500 ) ) ;
#150 = CALENDAR_DATE ( 2019, 21, 1 ) ;
#151 = APPLICATION_PROTOCOL_DEFINITION ( 'international standard', 'config_control_design', 1994, #27 ) ;
#152 = EDGE_CURVE ( 'NONE', #153, #72, #88, .T. ) ;
#153 = VERTEX_POINT ( 'NONE', #250 ) ;
#154 = MECHANICAL_CONTEXT ( 'NONE', #27, 'mechanical' ) ;
#155 = PERSON_AND_ORGANIZATION_ROLE ( 'design_owner' ) ;
#156 = CARTESIAN_POINT ( 'NONE',  ( 8.538696397892447700, 4.295521926404863000, 3.897591834851959800 ) ) ;
#157 = APPROVAL_DATE_TIME ( #96, #39 ) ;
#158 = PRODUCT_DEFINITION_SHAPE ( 'NONE', 'NONE',  #9 ) ;
#159 = ORIENTED_EDGE ( 'NONE', *, *, #94, .F. ) ;
#160 = CARTESIAN_POINT ( 'NONE',  ( 8.492911110946803200, -12.85199307557275500, 4.666528930233282900 ) ) ;
#161 = CC_DESIGN_SECURITY_CLASSIFICATION ( #265, ( #137 ) ) ;
#162 = ORIENTED_EDGE ( 'NONE', *, *, #3, .F. ) ;
#163 = AXIS2_PLACEMENT_3D ( 'NONE', #278, #135, #52 ) ;
#164 = CARTESIAN_POINT ( 'NONE',  ( 4.996003610813200500E-016, 2.442490654175340100E-015, -0.5634850607170539500 ) ) ;
#165 = CIRCLE ( 'NONE', #166, 143.4000000000000100 ) ;
#166 = AXIS2_PLACEMENT_3D ( 'NONE', #291, #147, #41 ) ;
#167 = CALENDAR_DATE ( 2019, 21, 1 ) ;
#168 = CC_DESIGN_APPROVAL ( #74, ( #137 ) ) ;
#169 = CARTESIAN_POINT ( 'NONE',  ( -12.72458424431705900, -12.85199307557274700, -1.145048487601968400 ) ) ;
#170 = ORIENTED_EDGE ( 'NONE', *, *, #53, .F. ) ;
#171 = ORIENTED_EDGE ( 'NONE', *, *, #237, .F. ) ;
#172 = CARTESIAN_POINT ( 'NONE',  ( -8.538696397892447700, -4.295521926404847000, 3.897591834851970000 ) ) ;
#173 = CARTESIAN_POINT ( 'NONE',  ( 8.538696397892447700, -4.295521926404847000, 0.002408165148071346300 ) ) ;
#174 = CARTESIAN_POINT ( 'NONE',  ( 12.69999999999999900, 2.442490654175340100E-015, -0.5634850607170539500 ) ) ;
#175 = DIRECTION ( 'NONE',  ( -0.0000000000000000000, -0.0000000000000000000, -1.000000000000000000 ) ) ;
#176 = CIRCLE ( 'NONE', #25, 12.69999999999999900 ) ;
#177 = DIRECTION ( 'NONE',  ( 0.0000000000000000000, 0.0000000000000000000, 1.000000000000000000 ) ) ;
#178 =( NAMED_UNIT ( * ) PLANE_ANGLE_UNIT ( ) SI_UNIT ( $, .RADIAN. ) );
#179 = CARTESIAN_POINT ( 'NONE',  ( 8.492911110946796100, -12.85199307557275000, -0.7665289302332482000 ) ) ;
#180 = CC_DESIGN_PERSON_AND_ORGANIZATION_ASSIGNMENT ( #211, #253, ( #9 ) ) ;
#181 = PERSON_AND_ORGANIZATION_ROLE ( 'classification_officer' ) ;
#182 = CARTESIAN_POINT ( 'NONE',  ( 4.271472565571393400, 4.295521926404849600, 0.1928776989328001000 ) ) ;
#183 = PERSON_AND_ORGANIZATION_ROLE ( 'design_supplier' ) ;
#184 = CARTESIAN_POINT ( 'NONE',  ( -4.248568531046474900, 12.85199307557275400, -0.5770807118639439400 ) ) ;
#185 = FACE_OUTER_BOUND ( 'NONE', #258, .T. ) ;
#186 = ORIENTED_EDGE ( 'NONE', *, *, #281, .F. ) ;
#187 = CARTESIAN_POINT ( 'NONE',  ( 1.908195823574487800E-014, 4.295521926404861200, 3.707122301067218300 ) ) ;
#188 = DIRECTION ( 'NONE',  ( -0.0000000000000000000, -0.0000000000000000000, -1.000000000000000000 ) ) ;
#189 = APPROVAL_PERSON_ORGANIZATION ( #44, #98, #114 ) ;
#190 = ADVANCED_FACE ( 'NONE', ( #185 ), #198, .F. ) ;
#191 = ORIENTED_EDGE ( 'NONE', *, *, #79, .F. ) ;
#192 = CC_DESIGN_PERSON_AND_ORGANIZATION_ASSIGNMENT ( #134, #45, ( #137 ) ) ;
#193 = COORDINATED_UNIVERSAL_TIME_OFFSET ( 2, 0, .AHEAD. ) ;
#194 = ADVANCED_FACE ( 'NONE', ( #256 ), #259, .F. ) ;
#195 = PERSON ( 'UNSPECIFIED', 'UNSPECIFIED', 'UNSPECIFIED', ('UNSPECIFIED'), ('UNSPECIFIED'), ('UNSPECIFIED') ) ;
#196 = CARTESIAN_POINT ( 'NONE',  ( 1.180589061760981800E-014, 4.295521926404850500, 0.1928776989328008500 ) ) ;
#197 = FACE_OUTER_BOUND ( 'NONE', #139, .T. ) ;
#198 =( BOUNDED_SURFACE ( )  B_SPLINE_SURFACE ( 3, 3, ( 
 ( #125, #108, #184, #276 ),
 ( #243, #82, #141, #270 ),
 ( #87, #129, #286, #223 ),
 ( #169, #140, #126, #289 ) ),
 .UNSPECIFIED., .F., .F., .T. ) 
 B_SPLINE_SURFACE_WITH_KNOTS ( ( 4, 4 ),
 ( 4, 4 ),
 ( 0.0000000000000000000, 1.000000000000000000 ),
 ( 0.0000000000000000000, 1.000000000000000000 ),
 .UNSPECIFIED. ) 
 GEOMETRIC_REPRESENTATION_ITEM ( )  RATIONAL_B_SPLINE_SURFACE ( (
 ( 1.000000000000000000, 0.9993368823537854800, 0.9993368823537854800, 1.000000000000000000),
 ( 0.9973171515022596400, 0.9966558129002260900, 0.9966558129002260900, 0.9973171515022596400),
 ( 0.9973171515022596400, 0.9966558129002260900, 0.9966558129002260900, 0.9973171515022596400),
 ( 1.000000000000000000, 0.9993368823537854800, 0.9993368823537854800, 1.000000000000000000) ) ) 
 REPRESENTATION_ITEM ( '' )  SURFACE ( )  );
#199 = CARTESIAN_POINT ( 'NONE',  ( 1.337651814261392300E-014, 12.69999999999996000, -0.5634850607170495100 ) ) ;
#200 = CARTESIAN_POINT ( 'NONE',  ( 4.996003610813200500E-016, 2.442490654175340100E-015, -0.5634850607170539500 ) ) ;
#201 = PERSON_AND_ORGANIZATION ( #195, #238 ) ;
#202 = CARTESIAN_POINT ( 'NONE',  ( 4.271472565571392500, -4.295521926404846100, 0.1928776989328276600 ) ) ;
#203 = FACE_OUTER_BOUND ( 'NONE', #101, .T. ) ;
#204 = ORIENTED_EDGE ( 'NONE', *, *, #69, .T. ) ;
#205 = CC_DESIGN_PERSON_AND_ORGANIZATION_ASSIGNMENT ( #76, #183, ( #137 ) ) ;
#206 = COORDINATED_UNIVERSAL_TIME_OFFSET ( 2, 0, .AHEAD. ) ;
#207 = APPROVAL_STATUS ( 'not_yet_approved' ) ;
#208 = CARTESIAN_POINT ( 'NONE',  ( 4.271472565571396100, 4.295521926404862100, 3.707122301067217900 ) ) ;
#209 = CIRCLE ( 'NONE', #231, 12.69999999999999900 ) ;
#210 = ORIENTED_EDGE ( 'NONE', *, *, #281, .T. ) ;
#211 = PERSON_AND_ORGANIZATION ( #195, #238 ) ;
#212 = ORIENTED_EDGE ( 'NONE', *, *, #152, .T. ) ;
#213 = ADVANCED_BREP_SHAPE_REPRESENTATION ( '114-1220E UVFS bi-cv 25.4 F-150', ( #13, #35 ), #112 ) ;
#214 = AXIS2_PLACEMENT_3D ( 'NONE', #68, #295, #70 ) ;
#215 = CARTESIAN_POINT ( 'NONE',  ( -12.69999999999999900, 3.997792089092478900E-015, 4.463485060717050400 ) ) ;
#216 = CARTESIAN_POINT ( 'NONE',  ( -12.79318248269249600, 4.295521926404859400, 4.278151991294710600 ) ) ;
#217 = VERTEX_POINT ( 'NONE', #199 ) ;
#218 = CARTESIAN_POINT ( 'NONE',  ( 8.538696397892447700, 4.295521926404848800, 0.002408165148043808000 ) ) ;
#219 =( BOUNDED_SURFACE ( )  B_SPLINE_SURFACE ( 3, 3, ( 
 ( #220, #106, #230, #254 ),
 ( #51, #156, #208, #187 ),
 ( #227, #48, #71, #232 ),
 ( #89, #160, #255, #93 ) ),
 .UNSPECIFIED., .F., .F., .T. ) 
 B_SPLINE_SURFACE_WITH_KNOTS ( ( 4, 4 ),
 ( 4, 4 ),
 ( 0.0000000000000000000, 1.000000000000000000 ),
 ( 0.0000000000000000000, 1.000000000000000000 ),
 .UNSPECIFIED. ) 
 GEOMETRIC_REPRESENTATION_ITEM ( )  RATIONAL_B_SPLINE_SURFACE ( (
 ( 1.000000000000000000, 0.9993368823537854800, 0.9993368823537854800, 1.000000000000000000),
 ( 0.9973171515022596400, 0.9966558129002260900, 0.9966558129002260900, 0.9973171515022596400),
 ( 0.9973171515022596400, 0.9966558129002260900, 0.9966558129002260900, 0.9973171515022596400),
 ( 1.000000000000000000, 0.9993368823537854800, 0.9993368823537854800, 1.000000000000000000) ) ) 
 REPRESENTATION_ITEM ( '' )  SURFACE ( )  );
#220 = CARTESIAN_POINT ( 'NONE',  ( 12.72458424431705000, 12.85199307557277800, 5.045048487602010700 ) ) ;
#221 = CARTESIAN_POINT ( 'NONE',  ( -8.196281367597104100E-015, -12.85199307557275900, 4.477080711863950800 ) ) ;
#222 = CARTESIAN_POINT ( 'NONE',  ( 8.196281367597107300E-015, -12.85199307557275000, -0.5770807118639087500 ) ) ;
#223 = CARTESIAN_POINT ( 'NONE',  ( -2.255140518769849200E-014, -4.295521926404845200, 0.1928776989328214700 ) ) ;
#224 = DIRECTION ( 'NONE',  ( 1.000000000000000000, 0.0000000000000000000, 0.0000000000000000000 ) ) ;
#225 = CLOSED_SHELL ( 'NONE', ( #190, #120, #284, #30, #138, #194 ) ) ;
#226 = APPLICATION_CONTEXT ( 'configuration controlled 3d designs of mechanical parts and assemblies' ) ;
#227 = CARTESIAN_POINT ( 'NONE',  ( 12.79318248269249600, -4.295521926404843400, 4.278151991294701700 ) ) ;
#228 = DIRECTION ( 'NONE',  ( 1.000000000000000000, 0.0000000000000000000, 0.0000000000000000000 ) ) ;
#229 = VERTEX_POINT ( 'NONE', #60 ) ;
#230 = CARTESIAN_POINT ( 'NONE',  ( 4.248568531046474900, 12.85199307557277300, 4.477080711863958000 ) ) ;
#231 = AXIS2_PLACEMENT_3D ( 'NONE', #124, #290, #287 ) ;
#232 = CARTESIAN_POINT ( 'NONE',  ( 2.255140518769849200E-014, -4.295521926404846100, 3.707122301067218300 ) ) ;
#233 = CIRCLE ( 'NONE', #133, 143.4000000000000100 ) ;
#234 = CIRCLE ( 'NONE', #244, 12.69999999999999900 ) ;
#235 = ORIENTED_EDGE ( 'NONE', *, *, #237, .T. ) ;
#236 = LOCAL_TIME ( 13, 39, 36.00000000000000000, #206 ) ;
#237 = EDGE_CURVE ( 'NONE', #279, #217, #209, .T. ) ;
#238 = ORGANIZATION ( 'UNSPECIFIED', 'UNSPECIFIED', '' ) ;
#239 = DIRECTION ( 'NONE',  ( -2.026399999151469700E-016, 1.000000000000000000, 0.0000000000000000000 ) ) ;
#240 = VECTOR ( 'NONE', #46, 1000.000000000000000 ) ;
#241 = APPROVAL_PERSON_ORGANIZATION ( #283, #39, #47 ) ;
#242 = VERTEX_POINT ( 'NONE', #83 ) ;
#243 = CARTESIAN_POINT ( 'NONE',  ( -12.79318248269249200, 4.295521926404854100, -0.3781519912946889100 ) ) ;
#244 = AXIS2_PLACEMENT_3D ( 'NONE', #110, #271, #73 ) ;
#245 = AXIS2_PLACEMENT_3D ( 'NONE', #200, #62, #40 ) ;
#246 = CARTESIAN_POINT ( 'NONE',  ( -1.340493711908417100E-014, 12.85199307557277700, 4.477080711863950800 ) ) ;
#247 = CARTESIAN_POINT ( 'NONE',  ( -4.248568531046473100, 12.85199307557277500, 4.477080711863950800 ) ) ;
#248 = CARTESIAN_POINT ( 'NONE',  ( 0.0000000000000000000, 0.0000000000000000000, 0.0000000000000000000 ) ) ;
#249 = APPROVAL_STATUS ( 'not_yet_approved' ) ;
#250 = CARTESIAN_POINT ( 'NONE',  ( -12.69999999999999900, 3.997792089092478900E-015, -0.5634850607170539500 ) ) ;
#251 = LINE ( 'NONE', #43, #240 ) ;
#252 = APPROVAL_ROLE ( '' ) ;
#253 = PERSON_AND_ORGANIZATION_ROLE ( 'creator' ) ;
#254 = CARTESIAN_POINT ( 'NONE',  ( 1.908195823574487800E-014, 12.85199307557277500, 4.477080711863958800 ) ) ;
#255 = CARTESIAN_POINT ( 'NONE',  ( 4.248568531046481100, -12.85199307557275900, 4.477080711863958000 ) ) ;
#256 = FACE_OUTER_BOUND ( 'NONE', #285, .T. ) ;
#257 = LOCAL_TIME ( 13, 39, 36.00000000000000000, #36 ) ;
#258 = EDGE_LOOP ( 'NONE', ( #191, #204, #29 ) ) ;
#259 =( BOUNDED_SURFACE ( )  B_SPLINE_SURFACE ( 3, 3, ( 
 ( #246, #247, #12, #64 ),
 ( #145, #104, #42, #216 ),
 ( #15, #266, #172, #107 ),
 ( #221, #268, #293, #17 ) ),
 .UNSPECIFIED., .F., .F., .T. ) 
 B_SPLINE_SURFACE_WITH_KNOTS ( ( 4, 4 ),
 ( 4, 4 ),
 ( 0.0000000000000000000, 1.000000000000000000 ),
 ( 0.0000000000000000000, 1.000000000000000000 ),
 .UNSPECIFIED. ) 
 GEOMETRIC_REPRESENTATION_ITEM ( )  RATIONAL_B_SPLINE_SURFACE ( (
 ( 1.000000000000000000, 0.9993368823537854800, 0.9993368823537854800, 1.000000000000000000),
 ( 0.9973171515022596400, 0.9966558129002260900, 0.9966558129002260900, 0.9973171515022596400),
 ( 0.9973171515022596400, 0.9966558129002260900, 0.9966558129002260900, 0.9973171515022596400),
 ( 1.000000000000000000, 0.9993368823537854800, 0.9993368823537854800, 1.000000000000000000) ) ) 
 REPRESENTATION_ITEM ( '' )  SURFACE ( )  );
#260 = APPROVAL_DATE_TIME ( #80, #74 ) ;
#261 = DIRECTION ( 'NONE',  ( 1.000000000000000000, 0.0000000000000000000, 0.0000000000000000000 ) ) ;
#262 = CIRCLE ( 'NONE', #122, 12.69999999999999900 ) ;
#263 = ORIENTED_EDGE ( 'NONE', *, *, #57, .F. ) ;
#264 = DESIGN_CONTEXT ( 'detailed design', #226, 'design' ) ;
#265 = SECURITY_CLASSIFICATION ( '', '', #24 ) ;
#266 = CARTESIAN_POINT ( 'NONE',  ( -4.271472565571391700, -4.295521926404846100, 3.707122301067213000 ) ) ;
#267 = CARTESIAN_POINT ( 'NONE',  ( 4.248568531046473100, 12.85199307557275200, -0.5770807118639372800 ) ) ;
#268 = CARTESIAN_POINT ( 'NONE',  ( -4.248568531046467800, -12.85199307557275700, 4.477080711863950800 ) ) ;
#269 = DIRECTION ( 'NONE',  ( -0.0000000000000000000, -0.0000000000000000000, -1.000000000000000000 ) ) ;
#270 = CARTESIAN_POINT ( 'NONE',  ( -2.081668171172168500E-014, 4.295521926404850500, 0.1928776989327935200 ) ) ;
#271 = DIRECTION ( 'NONE',  ( 0.0000000000000000000, 0.0000000000000000000, 1.000000000000000000 ) ) ;
#272 =( NAMED_UNIT ( * ) SI_UNIT ( $, .STERADIAN. ) SOLID_ANGLE_UNIT ( ) );
#273 = PERSON_AND_ORGANIZATION ( #195, #238 ) ;
#274 = ORIENTED_EDGE ( 'NONE', *, *, #53, .T. ) ;
#275 = DIRECTION ( 'NONE',  ( 1.000000000000000000, 0.0000000000000000000, 0.0000000000000000000 ) ) ;
#276 = CARTESIAN_POINT ( 'NONE',  ( -1.908195823574487800E-014, 12.85199307557275500, -0.5770807118639436100 ) ) ;
#277 = AXIS2_PLACEMENT_3D ( 'NONE', #6, #188, #275 ) ;
#278 = CARTESIAN_POINT ( 'NONE',  ( 4.996003610813200500E-016, 2.442490654175340100E-015, -0.5634850607170539500 ) ) ;
#279 = VERTEX_POINT ( 'NONE', #174 ) ;
#280 = DIRECTION ( 'NONE',  ( 0.0000000000000000000, 0.0000000000000000000, 1.000000000000000000 ) ) ;
#281 = EDGE_CURVE ( 'NONE', #11, #242, #262, .T. ) ;
#282 = EDGE_CURVE ( 'NONE', #229, #11, #176, .T. ) ;
#283 = PERSON_AND_ORGANIZATION ( #195, #238 ) ;
#284 = ADVANCED_FACE ( 'NONE', ( #203 ), #77, .T. ) ;
#285 = EDGE_LOOP ( 'NONE', ( #136, #186, #123 ) ) ;
#286 = CARTESIAN_POINT ( 'NONE',  ( -4.271472565571399600, -4.295521926404844300, 0.1928776989328213100 ) ) ;
#287 = DIRECTION ( 'NONE',  ( 1.000000000000000000, 0.0000000000000000000, 0.0000000000000000000 ) ) ;
#288 = VECTOR ( 'NONE', #59, 1000.000000000000000 ) ;
#289 = CARTESIAN_POINT ( 'NONE',  ( -2.602085213965210600E-014, -12.85199307557274800, -0.5770807118639156300 ) ) ;
#290 = DIRECTION ( 'NONE',  ( 0.0000000000000000000, 0.0000000000000000000, 1.000000000000000000 ) ) ;
#291 = CARTESIAN_POINT ( 'NONE',  ( -1.421085471520200100E-014, 0.0000000000000000000, -143.4000000000000100 ) ) ;
#292 = DATE_AND_TIME ( #33, #236 ) ;
#293 = CARTESIAN_POINT ( 'NONE',  ( -8.492911110946794300, -12.85199307557276100, 4.666528930233290000 ) ) ;
#294 = CYLINDRICAL_SURFACE ( 'NONE', #163, 12.69999999999999900 ) ;
#295 = DIRECTION ( 'NONE',  ( -0.0000000000000000000, -0.0000000000000000000, -1.000000000000000000 ) ) ;
ENDSEC;
END-ISO-10303-21;
