ISO-10303-21;
HEADER;
FILE_DESCRIPTION (( 'STEP AP203' ),
    '1' );
FILE_NAME ('114-1216E UVFS bi-cv 25.4 F-100.STEP',
    '2019-01-22T07:40:22',
    ( '' ),
    ( '' ),
    'SwSTEP 2.0',
    'SolidWorks 2017',
    '' );
FILE_SCHEMA (( 'CONFIG_CONTROL_DESIGN' ));
ENDSEC;

DATA;
#1 = APPLICATION_CONTEXT ( 'configuration controlled 3d designs of mechanical parts and assemblies' ) ;
#2 =( BOUNDED_SURFACE ( )  B_SPLINE_SURFACE ( 3, 3, ( 
 ( #81, #235, #78, #113 ),
 ( #258, #137, #260, #57 ),
 ( #80, #284, #120, #214 ),
 ( #116, #99, #118, #84 ) ),
 .UNSPECIFIED., .F., .F., .F. ) 
 B_SPLINE_SURFACE_WITH_KNOTS ( ( 4, 4 ),
 ( 4, 4 ),
 ( 0.0000000000000000000, 1.000000000000000000 ),
 ( 0.0000000000000000000, 1.000000000000000000 ),
 .UNSPECIFIED. ) 
 GEOMETRIC_REPRESENTATION_ITEM ( )  RATIONAL_B_SPLINE_SURFACE ( (
 ( 1.000000000000000000, 0.9985093313393657000, 0.9985093313393657000, 1.000000000000000000),
 ( 0.9939728415087866200, 0.9924911573444278300, 0.9924911573444278300, 0.9939728415087866200),
 ( 0.9939728415087866200, 0.9924911573444278300, 0.9924911573444278300, 0.9939728415087866200),
 ( 1.000000000000000000, 0.9985093313393657000, 0.9985093313393657000, 1.000000000000000000) ) ) 
 REPRESENTATION_ITEM ( '' )  SURFACE ( )  );
#3 = EDGE_CURVE ( 'NONE', #283, #249, #5, .T. ) ;
#4 = DATE_TIME_ROLE ( 'classification_date' ) ;
#5 = CIRCLE ( 'NONE', #142, 12.69999999999999900 ) ;
#6 = AXIS2_PLACEMENT_3D ( 'NONE', #251, #253, #110 ) ;
#7 = ORIENTED_EDGE ( 'NONE', *, *, #278, .T. ) ;
#8 = ORIENTED_EDGE ( 'NONE', *, *, #34, .T. ) ;
#9 = CARTESIAN_POINT ( 'NONE',  ( -3.122502256758252800E-014, 12.85148446752514300, -0.8660122678100047300 ) ) ;
#10 = ADVANCED_FACE ( 'NONE', ( #119 ), #287, .T. ) ;
#11 = CARTESIAN_POINT ( 'NONE',  ( -4.235852890283289300, -12.85148446752515900, -0.8660122678100059500 ) ) ;
#12 = SECURITY_CLASSIFICATION ( '', '', #76 ) ;
#13 = CARTESIAN_POINT ( 'NONE',  ( 4.996003610813200500E-016, 2.442490654175340100E-015, -0.8456262857034809700 ) ) ;
#14 = CARTESIAN_POINT ( 'NONE',  ( 4.996003610813200500E-016, 2.442490654175340100E-015, -0.8456262857034809700 ) ) ;
#15 = CARTESIAN_POINT ( 'NONE',  ( 8.565327528889524100, 4.309804027783251000, 3.596133884303283100 ) ) ;
#16 = CARTESIAN_POINT ( 'NONE',  ( 12.81448048089131200, 4.309804027783252800, 4.167962517710502200 ) ) ;
#17 = SHAPE_DEFINITION_REPRESENTATION ( #21, #42 ) ;
#18 = ORIENTED_EDGE ( 'NONE', *, *, #209, .F. ) ;
#19 = AXIS2_PLACEMENT_3D ( 'NONE', #67, #281, #246 ) ;
#20 = DIRECTION ( 'NONE',  ( 1.000000000000000000, -1.776356839400250500E-015, 0.0000000000000000000 ) ) ;
#21 = PRODUCT_DEFINITION_SHAPE ( 'NONE', 'NONE',  #114 ) ;
#22 = DIRECTION ( 'NONE',  ( -0.0000000000000000000, -0.0000000000000000000, -1.000000000000000000 ) ) ;
#23 = APPROVAL_PERSON_ORGANIZATION ( #247, #125, #132 ) ;
#24 = APPROVAL_STATUS ( 'not_yet_approved' ) ;
#25 = DIRECTION ( 'NONE',  ( 0.0000000000000000000, 0.0000000000000000000, 1.000000000000000000 ) ) ;
#26 = LOCAL_TIME ( 9, 40, 22.00000000000000000, #63 ) ;
#27 = ORIENTED_EDGE ( 'NONE', *, *, #117, .F. ) ;
#28 =( GEOMETRIC_REPRESENTATION_CONTEXT ( 3 ) GLOBAL_UNCERTAINTY_ASSIGNED_CONTEXT ( ( #71 ) ) GLOBAL_UNIT_ASSIGNED_CONTEXT ( ( #273, #105, #171 ) ) REPRESENTATION_CONTEXT ( 'NONE', 'WORKASPACE' ) );
#29 = AXIS2_PLACEMENT_3D ( 'NONE', #234, #179, #136 ) ;
#30 = CARTESIAN_POINT ( 'NONE',  ( -12.69999999999999900, 3.997792089092478900E-015, 4.445626285703480300 ) ) ;
#31 = LOCAL_TIME ( 9, 40, 22.00000000000000000, #141 ) ;
#32 = CARTESIAN_POINT ( 'NONE',  ( -8.462234400834647700, 12.85148446752514300, -1.149118317534630700 ) ) ;
#33 = CARTESIAN_POINT ( 'NONE',  ( -3.295974604355932200E-014, -4.309804027783246600, 0.2904211703596079600 ) ) ;
#34 = EDGE_CURVE ( 'NONE', #227, #272, #242, .T. ) ;
#35 = VERTEX_POINT ( 'NONE', #205 ) ;
#36 = DIRECTION ( 'NONE',  ( 1.000000000000000000, 0.0000000000000000000, 0.0000000000000000000 ) ) ;
#37 = CARTESIAN_POINT ( 'NONE',  ( -7.105427357600998700E-015, 4.309804027783229700, 0.2904211703596167300 ) ) ;
#38 = APPROVAL_PERSON_ORGANIZATION ( #274, #127, #146 ) ;
#39 = ADVANCED_FACE ( 'NONE', ( #177 ), #162, .T. ) ;
#40 = PERSON_AND_ORGANIZATION ( #181, #52 ) ;
#41 = CARTESIAN_POINT ( 'NONE',  ( 12.66024412825710900, -12.85148446752519100, 5.314064365035994400 ) ) ;
#42 = ADVANCED_BREP_SHAPE_REPRESENTATION ( '114-1216E UVFS bi-cv 25.4 F-100', ( #204, #19 ), #28 ) ;
#43 = CARTESIAN_POINT ( 'NONE',  ( 12.81448048089131400, -4.309804027783251000, 4.167962517710504000 ) ) ;
#44 = DIRECTION ( 'NONE',  ( 0.0000000000000000000, 0.0000000000000000000, 1.000000000000000000 ) ) ;
#45 = PERSON_AND_ORGANIZATION_ROLE ( 'creator' ) ;
#46 = APPLICATION_PROTOCOL_DEFINITION ( 'international standard', 'config_control_design', 1994, #1 ) ;
#47 = PERSON_AND_ORGANIZATION ( #181, #52 ) ;
#48 = VECTOR ( 'NONE', #55, 1000.000000000000000 ) ;
#49 = EDGE_CURVE ( 'NONE', #227, #58, #292, .T. ) ;
#50 = EDGE_LOOP ( 'NONE', ( #165, #138, #115 ) ) ;
#51 = CARTESIAN_POINT ( 'NONE',  ( -7.105427357601000300E-015, -7.105427357601000300E-015, -95.79000000000002000 ) ) ;
#52 = ORGANIZATION ( 'UNSPECIFIED', 'UNSPECIFIED', '' ) ;
#53 = CARTESIAN_POINT ( 'NONE',  ( -12.81448048089131200, 4.309804027783229700, -0.5679625177105182000 ) ) ;
#54 = CARTESIAN_POINT ( 'NONE',  ( -12.66024412825710700, -12.85148446752515900, -1.714064365036002800 ) ) ;
#55 = DIRECTION ( 'NONE',  ( 0.0000000000000000000, 0.0000000000000000000, 1.000000000000000000 ) ) ;
#56 = ADVANCED_FACE ( 'NONE', ( #255 ), #2, .F. ) ;
#57 = CARTESIAN_POINT ( 'NONE',  ( -12.81448048089131200, 4.309804027783251900, 4.167962517710495100 ) ) ;
#58 = VERTEX_POINT ( 'NONE', #30 ) ;
#59 = CARTESIAN_POINT ( 'NONE',  ( 4.287457147947972800, -4.309804027783251000, 3.309578829640379200 ) ) ;
#60 = CARTESIAN_POINT ( 'NONE',  ( 3.122502256758252800E-014, 4.309804027783251900, 3.309578829640376100 ) ) ;
#61 = CARTESIAN_POINT ( 'NONE',  ( 12.81448048089131000, 4.309804027783229700, -0.5679625177105116500 ) ) ;
#62 = CARTESIAN_POINT ( 'NONE',  ( 12.81448048089131000, -4.309804027783245700, -0.5679625177105116500 ) ) ;
#63 = COORDINATED_UNIVERSAL_TIME_OFFSET ( 2, 0, .AHEAD. ) ;
#64 = CIRCLE ( 'NONE', #241, 95.79000000000002000 ) ;
#65 = CARTESIAN_POINT ( 'NONE',  ( -7.105427357601000300E-015, -12.69999999999999600, -0.8456262857034789700 ) ) ;
#66 = APPROVAL_ROLE ( '' ) ;
#67 = CARTESIAN_POINT ( 'NONE',  ( 0.0000000000000000000, 0.0000000000000000000, 0.0000000000000000000 ) ) ;
#68 = LINE ( 'NONE', #240, #226 ) ;
#69 = ORIENTED_EDGE ( 'NONE', *, *, #269, .F. ) ;
#70 = EDGE_CURVE ( 'NONE', #248, #35, #133, .T. ) ;
#71 = UNCERTAINTY_MEASURE_WITH_UNIT (LENGTH_MEASURE( 1.000000000000000100E-005 ), #273, 'distance_accuracy_value', 'NONE');
#72 = CARTESIAN_POINT ( 'NONE',  ( 4.996003610813200500E-016, 2.442490654175340100E-015, -0.8456262857034809700 ) ) ;
#73 = CC_DESIGN_APPROVAL ( #127, ( #252 ) ) ;
#74 = DIRECTION ( 'NONE',  ( 0.0000000000000000000, 0.0000000000000000000, 1.000000000000000000 ) ) ;
#75 = AXIS2_PLACEMENT_3D ( 'NONE', #140, #22, #145 ) ;
#76 = SECURITY_CLASSIFICATION_LEVEL ( 'unclassified' ) ;
#77 = ADVANCED_FACE ( 'NONE', ( #194 ), #237, .F. ) ;
#78 = CARTESIAN_POINT ( 'NONE',  ( -8.462234400834633500, 12.85148446752519100, 4.749118317534613000 ) ) ;
#79 = CC_DESIGN_SECURITY_CLASSIFICATION ( #12, ( #252 ) ) ;
#80 = CARTESIAN_POINT ( 'NONE',  ( 7.105427357600997100E-015, -4.309804027783252800, 3.309578829640367600 ) ) ;
#81 = CARTESIAN_POINT ( 'NONE',  ( 7.105427357600998700E-015, 12.85148446752519100, 4.466012267809987600 ) ) ;
#82 = PERSON_AND_ORGANIZATION ( #181, #52 ) ;
#83 = CIRCLE ( 'NONE', #225, 12.69999999999999900 ) ;
#84 = CARTESIAN_POINT ( 'NONE',  ( -12.66024412825710700, -12.85148446752519300, 5.314064365035988200 ) ) ;
#85 = CARTESIAN_POINT ( 'NONE',  ( -12.69999999999999900, 3.997792089092478900E-015, -0.8456262857034809700 ) ) ;
#86 = CARTESIAN_POINT ( 'NONE',  ( -7.105427357601000300E-015, 12.85148446752514300, -0.8660122678099957400 ) ) ;
#87 = CARTESIAN_POINT ( 'NONE',  ( 12.66024412825710300, -12.85148446752515900, -1.714064365035996100 ) ) ;
#88 = AXIS2_PLACEMENT_3D ( 'NONE', #14, #44, #244 ) ;
#89 = ORIENTED_EDGE ( 'NONE', *, *, #126, .F. ) ;
#90 = APPROVAL_STATUS ( 'not_yet_approved' ) ;
#91 = COORDINATED_UNIVERSAL_TIME_OFFSET ( 2, 0, .AHEAD. ) ;
#92 = APPROVAL ( #24, 'UNSPECIFIED' ) ;
#93 = ORIENTED_EDGE ( 'NONE', *, *, #3, .F. ) ;
#94 = PERSON_AND_ORGANIZATION_ROLE ( 'classification_officer' ) ;
#95 = DIRECTION ( 'NONE',  ( 0.0000000000000000000, 0.0000000000000000000, 1.000000000000000000 ) ) ;
#96 = DIRECTION ( 'NONE',  ( 0.0000000000000000000, 0.0000000000000000000, 1.000000000000000000 ) ) ;
#97 = CARTESIAN_POINT ( 'NONE',  ( -4.287457147947972800, 4.309804027783227900, 0.2904211703596063500 ) ) ;
#98 = ORIENTED_EDGE ( 'NONE', *, *, #197, .F. ) ;
#99 = CARTESIAN_POINT ( 'NONE',  ( -4.235852890283264400, -12.85148446752519300, 4.466012267809987600 ) ) ;
#100 = CARTESIAN_POINT ( 'NONE',  ( 8.565327528889509900, 4.309804027783228800, 0.003866115696709421800 ) ) ;
#101 = DIRECTION ( 'NONE',  ( -0.0000000000000000000, -0.0000000000000000000, -1.000000000000000000 ) ) ;
#102 = CARTESIAN_POINT ( 'NONE',  ( 4.287457147947971100, 4.309804027783251000, 3.309578829640377400 ) ) ;
#103 = APPROVAL_DATE_TIME ( #285, #125 ) ;
#104 = CARTESIAN_POINT ( 'NONE',  ( 8.462234400834647700, 12.85148446752519300, 4.749118317534622800 ) ) ;
#105 =( NAMED_UNIT ( * ) PLANE_ANGLE_UNIT ( ) SI_UNIT ( $, .RADIAN. ) );
#106 = APPROVAL_DATE_TIME ( #161, #127 ) ;
#107 = CIRCLE ( 'NONE', #6, 12.69999999999999900 ) ;
#108 = ORIENTED_EDGE ( 'NONE', *, *, #197, .T. ) ;
#109 = EDGE_CURVE ( 'NONE', #58, #248, #217, .T. ) ;
#110 = DIRECTION ( 'NONE',  ( 1.000000000000000000, 0.0000000000000000000, 0.0000000000000000000 ) ) ;
#111 = FACE_OUTER_BOUND ( 'NONE', #155, .T. ) ;
#112 = CC_DESIGN_DATE_AND_TIME_ASSIGNMENT ( #175, #224, ( #114 ) ) ;
#113 = CARTESIAN_POINT ( 'NONE',  ( -12.66024412825710500, 12.85148446752519100, 5.314064365035988200 ) ) ;
#114 = PRODUCT_DEFINITION ( 'UNKNOWN', '', #252, #135 ) ;
#115 = ORIENTED_EDGE ( 'NONE', *, *, #34, .F. ) ;
#116 = CARTESIAN_POINT ( 'NONE',  ( 7.105427357600998700E-015, -12.85148446752519300, 4.466012267809987600 ) ) ;
#117 = EDGE_CURVE ( 'NONE', #259, #35, #236, .T. ) ;
#118 = CARTESIAN_POINT ( 'NONE',  ( -8.462234400834633500, -12.85148446752519300, 4.749118317534613000 ) ) ;
#119 = FACE_OUTER_BOUND ( 'NONE', #266, .T. ) ;
#120 = CARTESIAN_POINT ( 'NONE',  ( -8.565327528889511700, -4.309804027783251900, 3.596133884303275100 ) ) ;
#121 = CARTESIAN_POINT ( 'NONE',  ( 7.105427357600998700E-015, 12.70000000000002400, 4.445626285703488300 ) ) ;
#122 = CARTESIAN_POINT ( 'NONE',  ( 4.235852890283263500, 12.85148446752514300, -0.8660122678099957400 ) ) ;
#123 = CIRCLE ( 'NONE', #88, 12.69999999999999900 ) ;
#124 = CARTESIAN_POINT ( 'NONE',  ( -7.105427357601000300E-015, -12.85148446752515900, -0.8660122678099957400 ) ) ;
#125 = APPROVAL ( #156, 'UNSPECIFIED' ) ;
#126 = EDGE_CURVE ( 'NONE', #272, #283, #123, .T. ) ;
#127 = APPROVAL ( #90, 'UNSPECIFIED' ) ;
#128 = LOCAL_TIME ( 9, 40, 22.00000000000000000, #91 ) ;
#129 = PERSON_AND_ORGANIZATION_ROLE ( 'design_owner' ) ;
#130 = ORIENTED_EDGE ( 'NONE', *, *, #49, .T. ) ;
#131 =( BOUNDED_SURFACE ( )  B_SPLINE_SURFACE ( 3, 3, ( 
 ( #238, #104, #168, #190 ),
 ( #16, #15, #102, #60 ),
 ( #43, #189, #59, #186 ),
 ( #41, #245, #294, #270 ) ),
 .UNSPECIFIED., .F., .F., .F. ) 
 B_SPLINE_SURFACE_WITH_KNOTS ( ( 4, 4 ),
 ( 4, 4 ),
 ( 0.0000000000000000000, 1.000000000000000000 ),
 ( 0.0000000000000000000, 1.000000000000000000 ),
 .UNSPECIFIED. ) 
 GEOMETRIC_REPRESENTATION_ITEM ( )  RATIONAL_B_SPLINE_SURFACE ( (
 ( 1.000000000000000000, 0.9985093313393657000, 0.9985093313393657000, 1.000000000000000000),
 ( 0.9939728415087866200, 0.9924911573444278300, 0.9924911573444278300, 0.9939728415087866200),
 ( 0.9939728415087866200, 0.9924911573444278300, 0.9924911573444278300, 0.9939728415087866200),
 ( 1.000000000000000000, 0.9985093313393657000, 0.9985093313393657000, 1.000000000000000000) ) ) 
 REPRESENTATION_ITEM ( '' )  SURFACE ( )  );
#132 = APPROVAL_ROLE ( '' ) ;
#133 = CIRCLE ( 'NONE', #29, 95.79000000000002000 ) ;
#134 = CC_DESIGN_PERSON_AND_ORGANIZATION_ASSIGNMENT ( #47, #192, ( #252 ) ) ;
#135 = DESIGN_CONTEXT ( 'detailed design', #148, 'design' ) ;
#136 = DIRECTION ( 'NONE',  ( 0.0000000000000000000, 1.000000000000000000, -8.692632513507330600E-016 ) ) ;
#137 = CARTESIAN_POINT ( 'NONE',  ( -4.287457147947946200, 4.309804027783250100, 3.309578829640367600 ) ) ;
#138 = ORIENTED_EDGE ( 'NONE', *, *, #269, .T. ) ;
#139 = LOCAL_TIME ( 9, 40, 22.00000000000000000, #263 ) ;
#140 = CARTESIAN_POINT ( 'NONE',  ( 4.996003610813200500E-016, 2.442490654175340100E-015, 4.445626285703480300 ) ) ;
#141 = COORDINATED_UNIVERSAL_TIME_OFFSET ( 2, 0, .AHEAD. ) ;
#142 = AXIS2_PLACEMENT_3D ( 'NONE', #72, #74, #229 ) ;
#143 = CARTESIAN_POINT ( 'NONE',  ( 12.69999999999999900, 2.442490654175340100E-015, 4.445626285703480300 ) ) ;
#144 = CARTESIAN_POINT ( 'NONE',  ( 4.996003610813200500E-016, 2.442490654175340100E-015, 4.445626285703480300 ) ) ;
#145 = DIRECTION ( 'NONE',  ( 1.000000000000000000, 0.0000000000000000000, 0.0000000000000000000 ) ) ;
#146 = APPROVAL_ROLE ( '' ) ;
#147 = AXIS2_PLACEMENT_3D ( 'NONE', #208, #95, #230 ) ;
#148 = APPLICATION_CONTEXT ( 'configuration controlled 3d designs of mechanical parts and assemblies' ) ;
#149 = AXIS2_PLACEMENT_3D ( 'NONE', #184, #96, #233 ) ;
#150 = CALENDAR_DATE ( 2019, 22, 1 ) ;
#151 = ORIENTED_EDGE ( 'NONE', *, *, #3, .T. ) ;
#152 = CLOSED_SHELL ( 'NONE', ( #77, #178, #39, #213, #10, #56 ) ) ;
#153 = CC_DESIGN_PERSON_AND_ORGANIZATION_ASSIGNMENT ( #215, #94, ( #12 ) ) ;
#154 = EDGE_LOOP ( 'NONE', ( #174, #256, #98 ) ) ;
#155 = EDGE_LOOP ( 'NONE', ( #18, #293, #27 ) ) ;
#156 = APPROVAL_STATUS ( 'not_yet_approved' ) ;
#157 = CARTESIAN_POINT ( 'NONE',  ( -8.565327528889524100, -4.309804027783244800, 0.003866115696700857000 ) ) ;
#158 = PRODUCT ( '114-1216E UVFS bi-cv 25.4 F-100', '114-1216E UVFS bi-cv 25.4 F-100', '', ( #201 ) ) ;
#159 = CARTESIAN_POINT ( 'NONE',  ( -3.122502256758252800E-014, -12.85148446752515900, -0.8660122678100047300 ) ) ;
#160 = DIRECTION ( 'NONE',  ( 0.0000000000000000000, 0.0000000000000000000, 1.000000000000000000 ) ) ;
#161 = DATE_AND_TIME ( #254, #206 ) ;
#162 = CYLINDRICAL_SURFACE ( 'NONE', #149, 12.69999999999999900 ) ;
#163 = AXIS2_PLACEMENT_3D ( 'NONE', #144, #291, #20 ) ;
#164 = CARTESIAN_POINT ( 'NONE',  ( 8.462234400834633500, 12.85148446752514300, -1.149118317534621800 ) ) ;
#165 = ORIENTED_EDGE ( 'NONE', *, *, #278, .F. ) ;
#166 = DIRECTION ( 'NONE',  ( -0.0000000000000000000, -0.0000000000000000000, -1.000000000000000000 ) ) ;
#167 = PRODUCT_RELATED_PRODUCT_CATEGORY ( 'detail', '', ( #158 ) ) ;
#168 = CARTESIAN_POINT ( 'NONE',  ( 4.235852890283287500, 12.85148446752519100, 4.466012267809997400 ) ) ;
#169 = DATE_AND_TIME ( #264, #31 ) ;
#170 = CARTESIAN_POINT ( 'NONE',  ( 12.66024412825710300, 12.85148446752514300, -1.714064365035995900 ) ) ;
#171 =( NAMED_UNIT ( * ) SI_UNIT ( $, .STERADIAN. ) SOLID_ANGLE_UNIT ( ) );
#172 = AXIS2_PLACEMENT_3D ( 'NONE', #13, #160, #36 ) ;
#173 =( BOUNDED_SURFACE ( )  B_SPLINE_SURFACE ( 3, 3, ( 
 ( #86, #122, #164, #170 ),
 ( #37, #268, #100, #61 ),
 ( #219, #185, #289, #62 ),
 ( #124, #222, #262, #87 ) ),
 .UNSPECIFIED., .F., .F., .F. ) 
 B_SPLINE_SURFACE_WITH_KNOTS ( ( 4, 4 ),
 ( 4, 4 ),
 ( 0.0000000000000000000, 1.000000000000000000 ),
 ( 0.0000000000000000000, 1.000000000000000000 ),
 .UNSPECIFIED. ) 
 GEOMETRIC_REPRESENTATION_ITEM ( )  RATIONAL_B_SPLINE_SURFACE ( (
 ( 1.000000000000000000, 0.9985093313393657000, 0.9985093313393657000, 1.000000000000000000),
 ( 0.9939728415087866200, 0.9924911573444278300, 0.9924911573444278300, 0.9939728415087866200),
 ( 0.9939728415087866200, 0.9924911573444278300, 0.9924911573444278300, 0.9939728415087866200),
 ( 1.000000000000000000, 0.9985093313393657000, 0.9985093313393657000, 1.000000000000000000) ) ) 
 REPRESENTATION_ITEM ( '' )  SURFACE ( )  );
#174 = ORIENTED_EDGE ( 'NONE', *, *, #70, .F. ) ;
#175 = DATE_AND_TIME ( #271, #128 ) ;
#176 = CIRCLE ( 'NONE', #163, 12.69999999999999900 ) ;
#177 = FACE_OUTER_BOUND ( 'NONE', #218, .T. ) ;
#178 = ADVANCED_FACE ( 'NONE', ( #111 ), #131, .F. ) ;
#179 = DIRECTION ( 'NONE',  ( -1.000000000000000000, 0.0000000000000000000, 0.0000000000000000000 ) ) ;
#180 = CARTESIAN_POINT ( 'NONE',  ( -4.235852890283289300, 12.85148446752514300, -0.8660122678100059500 ) ) ;
#181 = PERSON ( 'UNSPECIFIED', 'UNSPECIFIED', 'UNSPECIFIED', ('UNSPECIFIED'), ('UNSPECIFIED'), ('UNSPECIFIED') ) ;
#182 = CARTESIAN_POINT ( 'NONE',  ( -12.81448048089131200, -4.309804027783245700, -0.5679625177105179800 ) ) ;
#183 = CARTESIAN_POINT ( 'NONE',  ( 4.996003610813200500E-016, 2.442490654175340100E-015, 4.445626285703480300 ) ) ;
#184 = CARTESIAN_POINT ( 'NONE',  ( 4.996003610813200500E-016, 2.442490654175340100E-015, -0.8456262857034809700 ) ) ;
#185 = CARTESIAN_POINT ( 'NONE',  ( 4.287457147947944400, -4.309804027783244800, 0.2904211703596167900 ) ) ;
#186 = CARTESIAN_POINT ( 'NONE',  ( 3.295974604355932200E-014, -4.309804027783251900, 3.309578829640377400 ) ) ;
#187 = CALENDAR_DATE ( 2019, 22, 1 ) ;
#188 = FACE_OUTER_BOUND ( 'NONE', #280, .T. ) ;
#189 = CARTESIAN_POINT ( 'NONE',  ( 8.565327528889527600, -4.309804027783251000, 3.596133884303284800 ) ) ;
#190 = CARTESIAN_POINT ( 'NONE',  ( 2.949029909160572100E-014, 12.85148446752519100, 4.466012267809997400 ) ) ;
#191 = CARTESIAN_POINT ( 'NONE',  ( 4.996003610813200500E-016, 2.442490654175340100E-015, 4.445626285703480300 ) ) ;
#192 = PERSON_AND_ORGANIZATION_ROLE ( 'design_supplier' ) ;
#193 = PERSON_AND_ORGANIZATION ( #181, #52 ) ;
#194 = FACE_OUTER_BOUND ( 'NONE', #50, .T. ) ;
#195 = DIRECTION ( 'NONE',  ( 1.000000000000000000, 0.0000000000000000000, 0.0000000000000000000 ) ) ;
#196 = DIRECTION ( 'NONE',  ( 0.0000000000000000000, 1.000000000000000000, 2.897544171169110200E-016 ) ) ;
#197 = EDGE_CURVE ( 'NONE', #35, #58, #83, .T. ) ;
#198 = CARTESIAN_POINT ( 'NONE',  ( 12.69999999999999900, 2.442490654175340100E-015, -0.8456262857034809700 ) ) ;
#199 = COORDINATED_UNIVERSAL_TIME_OFFSET ( 2, 0, .AHEAD. ) ;
#200 = APPROVAL_DATE_TIME ( #169, #92 ) ;
#201 = MECHANICAL_CONTEXT ( 'NONE', #1, 'mechanical' ) ;
#202 = ORIENTED_EDGE ( 'NONE', *, *, #209, .T. ) ;
#203 = ORIENTED_EDGE ( 'NONE', *, *, #49, .F. ) ;
#204 = MANIFOLD_SOLID_BREP ( 'Imported1', #152 ) ;
#205 = CARTESIAN_POINT ( 'NONE',  ( 7.105427357600998700E-015, -12.70000000000003100, 4.445626285703481200 ) ) ;
#206 = LOCAL_TIME ( 9, 40, 22.00000000000000000, #199 ) ;
#207 = PERSON_AND_ORGANIZATION ( #181, #52 ) ;
#208 = CARTESIAN_POINT ( 'NONE',  ( 4.996003610813200500E-016, 2.442490654175340100E-015, -0.8456262857034809700 ) ) ;
#209 = EDGE_CURVE ( 'NONE', #248, #259, #176, .T. ) ;
#210 = CARTESIAN_POINT ( 'NONE',  ( -3.295974604355932200E-014, 4.309804027783228800, 0.2904211703596075200 ) ) ;
#211 = CARTESIAN_POINT ( 'NONE',  ( -8.462234400834647700, -12.85148446752515900, -1.149118317534630700 ) ) ;
#212 = CC_DESIGN_PERSON_AND_ORGANIZATION_ASSIGNMENT ( #82, #45, ( #252 ) ) ;
#213 = ADVANCED_FACE ( 'NONE', ( #188 ), #173, .F. ) ;
#214 = CARTESIAN_POINT ( 'NONE',  ( -12.81448048089131200, -4.309804027783251900, 4.167962517710496000 ) ) ;
#215 = PERSON_AND_ORGANIZATION ( #181, #52 ) ;
#216 = DIRECTION ( 'NONE',  ( 1.000000000000000000, 0.0000000000000000000, 0.0000000000000000000 ) ) ;
#217 = CIRCLE ( 'NONE', #290, 12.69999999999999900 ) ;
#218 = EDGE_LOOP ( 'NONE', ( #151, #7, #130, #243, #202, #282 ) ) ;
#219 = CARTESIAN_POINT ( 'NONE',  ( -7.105427357600998700E-015, -4.309804027783245700, 0.2904211703596167300 ) ) ;
#220 = EDGE_CURVE ( 'NONE', #283, #259, #68, .T. ) ;
#221 = ORIENTED_EDGE ( 'NONE', *, *, #220, .T. ) ;
#222 = CARTESIAN_POINT ( 'NONE',  ( 4.235852890283263500, -12.85148446752515900, -0.8660122678099957400 ) ) ;
#223 = CC_DESIGN_PERSON_AND_ORGANIZATION_ASSIGNMENT ( #193, #228, ( #114 ) ) ;
#224 = DATE_TIME_ROLE ( 'creation_date' ) ;
#225 = AXIS2_PLACEMENT_3D ( 'NONE', #191, #166, #216 ) ;
#226 = VECTOR ( 'NONE', #25, 1000.000000000000000 ) ;
#227 = VERTEX_POINT ( 'NONE', #85 ) ;
#228 = PERSON_AND_ORGANIZATION_ROLE ( 'creator' ) ;
#229 = DIRECTION ( 'NONE',  ( 1.000000000000000000, 0.0000000000000000000, 0.0000000000000000000 ) ) ;
#230 = DIRECTION ( 'NONE',  ( 1.000000000000000000, 0.0000000000000000000, 0.0000000000000000000 ) ) ;
#231 = CC_DESIGN_DATE_AND_TIME_ASSIGNMENT ( #279, #4, ( #12 ) ) ;
#232 = CARTESIAN_POINT ( 'NONE',  ( -4.287457147947972800, -4.309804027783245700, 0.2904211703596068500 ) ) ;
#233 = DIRECTION ( 'NONE',  ( 1.000000000000000000, 0.0000000000000000000, 0.0000000000000000000 ) ) ;
#234 = CARTESIAN_POINT ( 'NONE',  ( 7.105427357601000300E-015, -7.105427357601000300E-015, 99.39000000000000100 ) ) ;
#235 = CARTESIAN_POINT ( 'NONE',  ( -4.235852890283263500, 12.85148446752519100, 4.466012267809987600 ) ) ;
#236 = CIRCLE ( 'NONE', #75, 12.69999999999999900 ) ;
#237 =( BOUNDED_SURFACE ( )  B_SPLINE_SURFACE ( 3, 3, ( 
 ( #286, #32, #180, #9 ),
 ( #53, #257, #97, #210 ),
 ( #182, #157, #232, #33 ),
 ( #54, #211, #11, #159 ) ),
 .UNSPECIFIED., .F., .F., .F. ) 
 B_SPLINE_SURFACE_WITH_KNOTS ( ( 4, 4 ),
 ( 4, 4 ),
 ( 0.0000000000000000000, 1.000000000000000000 ),
 ( 0.0000000000000000000, 1.000000000000000000 ),
 .UNSPECIFIED. ) 
 GEOMETRIC_REPRESENTATION_ITEM ( )  RATIONAL_B_SPLINE_SURFACE ( (
 ( 1.000000000000000000, 0.9985093313393657000, 0.9985093313393657000, 1.000000000000000000),
 ( 0.9939728415087866200, 0.9924911573444278300, 0.9924911573444278300, 0.9939728415087866200),
 ( 0.9939728415087866200, 0.9924911573444278300, 0.9924911573444278300, 0.9939728415087866200),
 ( 1.000000000000000000, 0.9985093313393657000, 0.9985093313393657000, 1.000000000000000000) ) ) 
 REPRESENTATION_ITEM ( '' )  SURFACE ( )  );
#238 = CARTESIAN_POINT ( 'NONE',  ( 12.66024412825710500, 12.85148446752519300, 5.314064365035994400 ) ) ;
#239 = ORIENTED_EDGE ( 'NONE', *, *, #117, .T. ) ;
#240 = CARTESIAN_POINT ( 'NONE',  ( 12.69999999999999900, 2.442490654175340100E-015, -0.8456262857034809700 ) ) ;
#241 = AXIS2_PLACEMENT_3D ( 'NONE', #51, #195, #196 ) ;
#242 = CIRCLE ( 'NONE', #172, 12.69999999999999900 ) ;
#243 = ORIENTED_EDGE ( 'NONE', *, *, #109, .T. ) ;
#244 = DIRECTION ( 'NONE',  ( 1.000000000000000000, 0.0000000000000000000, 0.0000000000000000000 ) ) ;
#245 = CARTESIAN_POINT ( 'NONE',  ( 8.462234400834647700, -12.85148446752519100, 4.749118317534622800 ) ) ;
#246 = DIRECTION ( 'NONE',  ( 1.000000000000000000, 0.0000000000000000000, 0.0000000000000000000 ) ) ;
#247 = PERSON_AND_ORGANIZATION ( #181, #52 ) ;
#248 = VERTEX_POINT ( 'NONE', #121 ) ;
#249 = VERTEX_POINT ( 'NONE', #265 ) ;
#250 = APPLICATION_PROTOCOL_DEFINITION ( 'international standard', 'config_control_design', 1994, #148 ) ;
#251 = CARTESIAN_POINT ( 'NONE',  ( 4.996003610813200500E-016, 2.442490654175340100E-015, -0.8456262857034809700 ) ) ;
#252 = PRODUCT_DEFINITION_FORMATION_WITH_SPECIFIED_SOURCE ( 'ANY', '', #158, .NOT_KNOWN. ) ;
#253 = DIRECTION ( 'NONE',  ( 0.0000000000000000000, 0.0000000000000000000, 1.000000000000000000 ) ) ;
#254 = CALENDAR_DATE ( 2019, 22, 1 ) ;
#255 = FACE_OUTER_BOUND ( 'NONE', #154, .T. ) ;
#256 = ORIENTED_EDGE ( 'NONE', *, *, #109, .F. ) ;
#257 = CARTESIAN_POINT ( 'NONE',  ( -8.565327528889524100, 4.309804027783228800, 0.003866115696700640200 ) ) ;
#258 = CARTESIAN_POINT ( 'NONE',  ( 7.105427357600997100E-015, 4.309804027783251000, 3.309578829640367200 ) ) ;
#259 = VERTEX_POINT ( 'NONE', #143 ) ;
#260 = CARTESIAN_POINT ( 'NONE',  ( -8.565327528889511700, 4.309804027783250100, 3.596133884303274200 ) ) ;
#261 = CARTESIAN_POINT ( 'NONE',  ( -12.69999999999999900, 3.997792089092478900E-015, -0.8456262857034809700 ) ) ;
#262 = CARTESIAN_POINT ( 'NONE',  ( 8.462234400834633500, -12.85148446752515900, -1.149118317534622000 ) ) ;
#263 = COORDINATED_UNIVERSAL_TIME_OFFSET ( 2, 0, .AHEAD. ) ;
#264 = CALENDAR_DATE ( 2019, 22, 1 ) ;
#265 = CARTESIAN_POINT ( 'NONE',  ( -7.105427357601000300E-015, 12.69999999999999000, -0.8456262857034789700 ) ) ;
#266 = EDGE_LOOP ( 'NONE', ( #203, #8, #277, #221, #239, #108 ) ) ;
#267 = CC_DESIGN_PERSON_AND_ORGANIZATION_ASSIGNMENT ( #207, #129, ( #158 ) ) ;
#268 = CARTESIAN_POINT ( 'NONE',  ( 4.287457147947944400, 4.309804027783228800, 0.2904211703596167900 ) ) ;
#269 = EDGE_CURVE ( 'NONE', #249, #272, #64, .T. ) ;
#270 = CARTESIAN_POINT ( 'NONE',  ( 2.949029909160572100E-014, -12.85148446752519300, 4.466012267809997400 ) ) ;
#271 = CALENDAR_DATE ( 2019, 22, 1 ) ;
#272 = VERTEX_POINT ( 'NONE', #65 ) ;
#273 =( LENGTH_UNIT ( ) NAMED_UNIT ( * ) SI_UNIT ( .MILLI., .METRE. ) );
#274 = PERSON_AND_ORGANIZATION ( #181, #52 ) ;
#275 = CC_DESIGN_APPROVAL ( #125, ( #12 ) ) ;
#276 = APPROVAL_PERSON_ORGANIZATION ( #40, #92, #66 ) ;
#277 = ORIENTED_EDGE ( 'NONE', *, *, #126, .T. ) ;
#278 = EDGE_CURVE ( 'NONE', #249, #227, #107, .T. ) ;
#279 = DATE_AND_TIME ( #150, #26 ) ;
#280 = EDGE_LOOP ( 'NONE', ( #69, #93, #89 ) ) ;
#281 = DIRECTION ( 'NONE',  ( 0.0000000000000000000, 0.0000000000000000000, 1.000000000000000000 ) ) ;
#282 = ORIENTED_EDGE ( 'NONE', *, *, #220, .F. ) ;
#283 = VERTEX_POINT ( 'NONE', #198 ) ;
#284 = CARTESIAN_POINT ( 'NONE',  ( -4.287457147947946200, -4.309804027783251900, 3.309578829640368500 ) ) ;
#285 = DATE_AND_TIME ( #187, #139 ) ;
#286 = CARTESIAN_POINT ( 'NONE',  ( -12.66024412825710700, 12.85148446752514300, -1.714064365036002800 ) ) ;
#287 = CYLINDRICAL_SURFACE ( 'NONE', #147, 12.69999999999999900 ) ;
#288 = DIRECTION ( 'NONE',  ( 1.000000000000000000, 8.881784197001252300E-016, 0.0000000000000000000 ) ) ;
#289 = CARTESIAN_POINT ( 'NONE',  ( 8.565327528889509900, -4.309804027783244800, 0.003866115696709421800 ) ) ;
#290 = AXIS2_PLACEMENT_3D ( 'NONE', #183, #101, #288 ) ;
#291 = DIRECTION ( 'NONE',  ( -0.0000000000000000000, -0.0000000000000000000, -1.000000000000000000 ) ) ;
#292 = LINE ( 'NONE', #261, #48 ) ;
#293 = ORIENTED_EDGE ( 'NONE', *, *, #70, .T. ) ;
#294 = CARTESIAN_POINT ( 'NONE',  ( 4.235852890283288400, -12.85148446752519300, 4.466012267809997400 ) ) ;
#295 = CC_DESIGN_APPROVAL ( #92, ( #114 ) ) ;
ENDSEC;
END-ISO-10303-21;
