ISO-10303-21;
HEADER;
FILE_DESCRIPTION (( 'STEP AP203' ),
    '1' );
FILE_NAME ('114-1212E UVFS bi-cv 25.4 F-75.STEP',
    '2019-01-21T10:50:24',
    ( '' ),
    ( '' ),
    'SwSTEP 2.0',
    'SolidWorks 2017',
    '' );
FILE_SCHEMA (( 'CONFIG_CONTROL_DESIGN' ));
ENDSEC;

DATA;
#1 = DIRECTION ( 'NONE',  ( 0.0000000000000000000, 0.0000000000000000000, 1.000000000000000000 ) ) ;
#2 = ORIENTED_EDGE ( 'NONE', *, *, #227, .T. ) ;
#3 = CARTESIAN_POINT ( 'NONE',  ( -1.214306433183765000E-014, -12.85077148299101600, -1.155777205334824500 ) ) ;
#4 = ORIENTED_EDGE ( 'NONE', *, *, #179, .F. ) ;
#5 = ADVANCED_FACE ( 'NONE', ( #90 ), #50, .T. ) ;
#6 = DIRECTION ( 'NONE',  ( 0.0000000000000000000, 0.0000000000000000000, 1.000000000000000000 ) ) ;
#7 = AXIS2_PLACEMENT_3D ( 'NONE', #199, #30, #72 ) ;
#8 =( LENGTH_UNIT ( ) NAMED_UNIT ( * ) SI_UNIT ( .MILLI., .METRE. ) );
#9 = COORDINATED_UNIVERSAL_TIME_OFFSET ( 2, 0, .AHEAD. ) ;
#10 = FACE_OUTER_BOUND ( 'NONE', #123, .T. ) ;
#11 = DIRECTION ( 'NONE',  ( -0.0000000000000000000, -0.0000000000000000000, -1.000000000000000000 ) ) ;
#12 = APPROVAL_ROLE ( '' ) ;
#13 = APPROVAL_STATUS ( 'not_yet_approved' ) ;
#14 = CYLINDRICAL_SURFACE ( 'NONE', #195, 12.69999999999999900 ) ;
#15 = APPROVAL ( #99, 'UNSPECIFIED' ) ;
#16 = CARTESIAN_POINT ( 'NONE',  ( 12.57037341769587600, 12.85077148299099600, 6.079597187629973500 ) ) ;
#17 = VECTOR ( 'NONE', #45, 1000.000000000000000 ) ;
#18 = VERTEX_POINT ( 'NONE', #118 ) ;
#19 = CARTESIAN_POINT ( 'NONE',  ( 8.419258442828175100, -12.85077148299102000, -1.531378605149678700 ) ) ;
#20 = CARTESIAN_POINT ( 'NONE',  ( 2.656821655796371800E-015, -12.85077148299101600, -1.155777205334815400 ) ) ;
#21 = CALENDAR_DATE ( 2019, 21, 1 ) ;
#22 = AXIS2_PLACEMENT_3D ( 'NONE', #131, #130, #93 ) ;
#23 = DIRECTION ( 'NONE',  ( -2.017396277966680000E-016, 1.000000000000000000, 0.0000000000000000000 ) ) ;
#24 = CARTESIAN_POINT ( 'NONE',  ( -8.673617379884035500E-015, 12.85077148299099500, -1.155777205334824100 ) ) ;
#25 = LOCAL_TIME ( 12, 50, 24.00000000000000000, #9 ) ;
#26 = CARTESIAN_POINT ( 'NONE',  ( -12.69999999999999900, 3.997792089092478900E-015, -1.128601368007980100 ) ) ;
#27 = LINE ( 'NONE', #26, #42 ) ;
#28 = CC_DESIGN_SECURITY_CLASSIFICATION ( #68, ( #236 ) ) ;
#29 = CARTESIAN_POINT ( 'NONE',  ( -12.57037341769588000, -12.85077148299101400, -2.279597187629975400 ) ) ;
#30 = DIRECTION ( 'NONE',  ( 0.0000000000000000000, 0.0000000000000000000, 1.000000000000000000 ) ) ;
#31 = CARTESIAN_POINT ( 'NONE',  ( -4.218007418407378100, -12.85077148299101800, 4.955777205334813500 ) ) ;
#32 = CALENDAR_DATE ( 2019, 21, 1 ) ;
#33 = DIRECTION ( 'NONE',  ( 1.000000000000000000, 8.881784197001252300E-016, 0.0000000000000000000 ) ) ;
#34 = ADVANCED_FACE ( 'NONE', ( #252 ), #14, .T. ) ;
#35 = DATE_AND_TIME ( #21, #94 ) ;
#36 = ADVANCED_BREP_SHAPE_REPRESENTATION ( '114-1212E UVFS bi-cv 25.4 F-75', ( #279, #248 ), #256 ) ;
#37 = ADVANCED_FACE ( 'NONE', ( #136 ), #124, .F. ) ;
#38 =( BOUNDED_SURFACE ( )  B_SPLINE_SURFACE ( 3, 3, ( 
 ( #81, #231, #253, #102 ),
 ( #233, #119, #285, #143 ),
 ( #186, #59, #103, #286 ),
 ( #20, #187, #19, #144 ) ),
 .UNSPECIFIED., .F., .F., .F. ) 
 B_SPLINE_SURFACE_WITH_KNOTS ( ( 4, 4 ),
 ( 4, 4 ),
 ( 0.0000000000000000000, 1.000000000000000000 ),
 ( 0.0000000000000000000, 1.000000000000000000 ),
 .UNSPECIFIED. ) 
 GEOMETRIC_REPRESENTATION_ITEM ( )  RATIONAL_B_SPLINE_SURFACE ( (
 ( 1.000000000000000000, 0.9973516098441083100, 0.9973516098441083100, 1.000000000000000000),
 ( 0.9893013310623454100, 0.9866812751559493900, 0.9866812751559493900, 0.9893013310623454100),
 ( 0.9893013310623454100, 0.9866812751559493900, 0.9866812751559493900, 0.9893013310623454100),
 ( 1.000000000000000000, 0.9973516098441083100, 0.9973516098441083100, 1.000000000000000000) ) ) 
 REPRESENTATION_ITEM ( '' )  SURFACE ( )  );
#39 = ORIENTED_EDGE ( 'NONE', *, *, #54, .F. ) ;
#40 = CARTESIAN_POINT ( 'NONE',  ( 4.309981559986931100, -4.329914819512555200, 3.410574598104278100 ) ) ;
#41 = AXIS2_PLACEMENT_3D ( 'NONE', #264, #237, #23 ) ;
#42 = VECTOR ( 'NONE', #1, 1000.000000000000000 ) ;
#43 = EDGE_LOOP ( 'NONE', ( #58, #4, #213 ) ) ;
#44 = CARTESIAN_POINT ( 'NONE',  ( 4.996003610813200500E-016, 2.442490654175340100E-015, 4.928601368007980100 ) ) ;
#45 = DIRECTION ( 'NONE',  ( 0.0000000000000000000, 0.0000000000000000000, 1.000000000000000000 ) ) ;
#46 = CARTESIAN_POINT ( 'NONE',  ( -8.602841350870530600, 4.329914819512533900, 0.005633969940737648300 ) ) ;
#47 = DIRECTION ( 'NONE',  ( -0.0000000000000000000, -0.0000000000000000000, -1.000000000000000000 ) ) ;
#48 = PRODUCT_DEFINITION_SHAPE ( 'NONE', 'NONE',  #141 ) ;
#49 = CARTESIAN_POINT ( 'NONE',  ( -7.841841367553653400E-015, 12.85077148299099500, 4.955777205334813500 ) ) ;
#50 = CYLINDRICAL_SURFACE ( 'NONE', #92, 12.69999999999999900 ) ;
#51 = EDGE_LOOP ( 'NONE', ( #181, #120, #110, #162, #219, #127 ) ) ;
#52 = CARTESIAN_POINT ( 'NONE',  ( -8.419258442828175100, -12.85077148299102100, 5.331378605149677000 ) ) ;
#53 = ADVANCED_FACE ( 'NONE', ( #287 ), #38, .F. ) ;
#54 = EDGE_CURVE ( 'NONE', #165, #105, #196, .T. ) ;
#55 = APPLICATION_CONTEXT ( 'configuration controlled 3d designs of mechanical parts and assemblies' ) ;
#56 =( NAMED_UNIT ( * ) PLANE_ANGLE_UNIT ( ) SI_UNIT ( $, .RADIAN. ) );
#57 = ORIENTED_EDGE ( 'NONE', *, *, #215, .F. ) ;
#58 = ORIENTED_EDGE ( 'NONE', *, *, #62, .F. ) ;
#59 = CARTESIAN_POINT ( 'NONE',  ( 4.309981559986923100, -4.329914819512555200, 0.3894254018957289400 ) ) ;
#60 = ORIENTED_EDGE ( 'NONE', *, *, #240, .F. ) ;
#61 = CARTESIAN_POINT ( 'NONE',  ( 1.040834085586084300E-014, -12.85077148299101800, 4.955777205334821500 ) ) ;
#62 = EDGE_CURVE ( 'NONE', #166, #274, #160, .T. ) ;
#63 = APPROVAL_PERSON_ORGANIZATION ( #117, #15, #74 ) ;
#64 = DIRECTION ( 'NONE',  ( 1.000000000000000000, 0.0000000000000000000, 0.0000000000000000000 ) ) ;
#65 = CARTESIAN_POINT ( 'NONE',  ( -4.309981559986931100, -4.329914819512555200, 0.3894254018957205600 ) ) ;
#66 = ORGANIZATION ( 'UNSPECIFIED', 'UNSPECIFIED', '' ) ;
#67 = ORIENTED_EDGE ( 'NONE', *, *, #215, .T. ) ;
#68 = SECURITY_CLASSIFICATION ( '', '', #205 ) ;
#69 = CARTESIAN_POINT ( 'NONE',  ( -8.419258442828184000, -12.85077148299101600, -1.531378605149682000 ) ) ;
#70 = CARTESIAN_POINT ( 'NONE',  ( -4.309981559986923100, -4.329914819512555200, 3.410574598104268800 ) ) ;
#71 = CARTESIAN_POINT ( 'NONE',  ( -2.691976185451958800E-015, -12.69999999999999900, 4.928601368007977400 ) ) ;
#72 = DIRECTION ( 'NONE',  ( 1.000000000000000000, 0.0000000000000000000, 0.0000000000000000000 ) ) ;
#73 = CIRCLE ( 'NONE', #7, 12.69999999999999900 ) ;
#74 = APPROVAL_ROLE ( '' ) ;
#75 = EDGE_CURVE ( 'NONE', #18, #274, #126, .T. ) ;
#76 = CARTESIAN_POINT ( 'NONE',  ( 8.602841350870530600, 4.329914819512533900, 3.794366030059260100 ) ) ;
#77 = CC_DESIGN_APPROVAL ( #147, ( #141 ) ) ;
#78 = APPLICATION_CONTEXT ( 'configuration controlled 3d designs of mechanical parts and assemblies' ) ;
#79 = DATE_AND_TIME ( #266, #235 ) ;
#80 = PRODUCT ( '114-1212E UVFS bi-cv 25.4 F-75', '114-1212E UVFS bi-cv 25.4 F-75', '', ( #96 ) ) ;
#81 = CARTESIAN_POINT ( 'NONE',  ( 7.841841367553653400E-015, 12.85077148299099500, -1.155777205334815400 ) ) ;
#82 = ORIENTED_EDGE ( 'NONE', *, *, #150, .T. ) ;
#83 = CARTESIAN_POINT ( 'NONE',  ( 12.84447186981842700, -4.329914819512552500, 4.558899605618316600 ) ) ;
#84 = AXIS2_PLACEMENT_3D ( 'NONE', #44, #295, #191 ) ;
#85 = CARTESIAN_POINT ( 'NONE',  ( 4.218007418407387000, -12.85077148299102000, 4.955777205334821500 ) ) ;
#86 = LOCAL_TIME ( 12, 50, 24.00000000000000000, #122 ) ;
#87 = CARTESIAN_POINT ( 'NONE',  ( 7.816162731487323000E-015, 12.69999999999998700, -1.128601368007978900 ) ) ;
#88 = CARTESIAN_POINT ( 'NONE',  ( -12.57037341769587600, 12.85077148299099600, -2.279597187629975400 ) ) ;
#89 = PERSON_AND_ORGANIZATION ( #185, #66 ) ;
#90 = FACE_OUTER_BOUND ( 'NONE', #51, .T. ) ;
#91 = CARTESIAN_POINT ( 'NONE',  ( -1.214306433183764800E-014, -4.329914819512554300, 0.3894254018957208400 ) ) ;
#92 = AXIS2_PLACEMENT_3D ( 'NONE', #228, #249, #282 ) ;
#93 = DIRECTION ( 'NONE',  ( 1.000000000000000000, 0.0000000000000000000, 0.0000000000000000000 ) ) ;
#94 = LOCAL_TIME ( 12, 50, 24.00000000000000000, #241 ) ;
#95 = CARTESIAN_POINT ( 'NONE',  ( 4.996003610813200500E-016, 2.442490654175340100E-015, -1.128601368007980100 ) ) ;
#96 = MECHANICAL_CONTEXT ( 'NONE', #55, 'mechanical' ) ;
#97 = CARTESIAN_POINT ( 'NONE',  ( -4.309981559986925800, 4.329914819512532100, 3.410574598104267900 ) ) ;
#98 = ORIENTED_EDGE ( 'NONE', *, *, #132, .F. ) ;
#99 = APPROVAL_STATUS ( 'not_yet_approved' ) ;
#100 = AXIS2_PLACEMENT_3D ( 'NONE', #149, #169, #64 ) ;
#101 = CARTESIAN_POINT ( 'NONE',  ( 4.996003610813200500E-016, 2.442490654175340100E-015, -1.128601368007980100 ) ) ;
#102 = CARTESIAN_POINT ( 'NONE',  ( 12.57037341769587400, 12.85077148299099300, -2.279597187629972300 ) ) ;
#103 = CARTESIAN_POINT ( 'NONE',  ( 8.602841350870525300, -4.329914819512556100, 0.005633969940740035300 ) ) ;
#104 = LINE ( 'NONE', #108, #17 ) ;
#105 = VERTEX_POINT ( 'NONE', #212 ) ;
#106 = APPROVAL_DATE_TIME ( #208, #15 ) ;
#107 = CARTESIAN_POINT ( 'NONE',  ( -8.419258442828182300, 12.85077148299099800, -1.531378605149681800 ) ) ;
#108 = CARTESIAN_POINT ( 'NONE',  ( 12.69999999999999900, 2.442490654175340100E-015, -1.128601368007980100 ) ) ;
#109 =( NAMED_UNIT ( * ) SI_UNIT ( $, .STERADIAN. ) SOLID_ANGLE_UNIT ( ) );
#110 = ORIENTED_EDGE ( 'NONE', *, *, #132, .T. ) ;
#111 = DIRECTION ( 'NONE',  ( 0.0000000000000000000, 0.0000000000000000000, 1.000000000000000000 ) ) ;
#112 = EDGE_LOOP ( 'NONE', ( #98, #67, #82, #262, #226, #2 ) ) ;
#113 = ORIENTED_EDGE ( 'NONE', *, *, #240, .T. ) ;
#114 = VERTEX_POINT ( 'NONE', #239 ) ;
#115 = CC_DESIGN_PERSON_AND_ORGANIZATION_ASSIGNMENT ( #194, #116, ( #236 ) ) ;
#116 = PERSON_AND_ORGANIZATION_ROLE ( 'creator' ) ;
#117 = PERSON_AND_ORGANIZATION ( #185, #66 ) ;
#118 = CARTESIAN_POINT ( 'NONE',  ( 12.69999999999999900, 2.442490654175340100E-015, 4.928601368007980100 ) ) ;
#119 = CARTESIAN_POINT ( 'NONE',  ( 4.309981559986924900, 4.329914819512532100, 0.3894254018957297200 ) ) ;
#120 = ORIENTED_EDGE ( 'NONE', *, *, #54, .T. ) ;
#121 = ORIENTED_EDGE ( 'NONE', *, *, #150, .F. ) ;
#122 = COORDINATED_UNIVERSAL_TIME_OFFSET ( 2, 0, .AHEAD. ) ;
#123 = EDGE_LOOP ( 'NONE', ( #39, #113, #57 ) ) ;
#124 =( BOUNDED_SURFACE ( )  B_SPLINE_SURFACE ( 3, 3, ( 
 ( #16, #142, #161, #182 ),
 ( #209, #76, #288, #259 ),
 ( #83, #190, #40, #232 ),
 ( #290, #145, #85, #61 ) ),
 .UNSPECIFIED., .F., .F., .F. ) 
 B_SPLINE_SURFACE_WITH_KNOTS ( ( 4, 4 ),
 ( 4, 4 ),
 ( 0.0000000000000000000, 1.000000000000000000 ),
 ( 0.0000000000000000000, 1.000000000000000000 ),
 .UNSPECIFIED. ) 
 GEOMETRIC_REPRESENTATION_ITEM ( )  RATIONAL_B_SPLINE_SURFACE ( (
 ( 1.000000000000000000, 0.9973516098441083100, 0.9973516098441083100, 1.000000000000000000),
 ( 0.9893013310623454100, 0.9866812751559493900, 0.9866812751559493900, 0.9893013310623454100),
 ( 0.9893013310623454100, 0.9866812751559493900, 0.9866812751559493900, 0.9893013310623454100),
 ( 1.000000000000000000, 0.9973516098441083100, 0.9973516098441083100, 1.000000000000000000) ) ) 
 REPRESENTATION_ITEM ( '' )  SURFACE ( )  );
#125 = CARTESIAN_POINT ( 'NONE',  ( -8.602841350870530600, -4.329914819512554300, 0.005633969940736674300 ) ) ;
#126 = CIRCLE ( 'NONE', #84, 12.69999999999999900 ) ;
#127 = ORIENTED_EDGE ( 'NONE', *, *, #138, .F. ) ;
#128 = CARTESIAN_POINT ( 'NONE',  ( -4.218007418407388800, -12.85077148299101800, -1.155777205334824500 ) ) ;
#129 = CARTESIAN_POINT ( 'NONE',  ( -4.645213059451031500E-015, -4.329914819512552500, 3.410574598104267400 ) ) ;
#130 = DIRECTION ( 'NONE',  ( -0.0000000000000000000, -0.0000000000000000000, -1.000000000000000000 ) ) ;
#131 = CARTESIAN_POINT ( 'NONE',  ( 4.996003610813200500E-016, 2.442490654175340100E-015, 4.928601368007980100 ) ) ;
#132 = EDGE_CURVE ( 'NONE', #105, #114, #27, .T. ) ;
#133 = CARTESIAN_POINT ( 'NONE',  ( 4.996003610813200500E-016, 2.442490654175340100E-015, 4.928601368007980100 ) ) ;
#134 = EDGE_CURVE ( 'NONE', #166, #18, #218, .T. ) ;
#135 = PERSON_AND_ORGANIZATION ( #185, #66 ) ;
#136 = FACE_OUTER_BOUND ( 'NONE', #140, .T. ) ;
#137 = APPROVAL_STATUS ( 'not_yet_approved' ) ;
#138 = EDGE_CURVE ( 'NONE', #280, #18, #104, .T. ) ;
#139 = CIRCLE ( 'NONE', #22, 12.69999999999999900 ) ;
#140 = EDGE_LOOP ( 'NONE', ( #178, #284, #225 ) ) ;
#141 = PRODUCT_DEFINITION ( 'UNKNOWN', '', #236, #277 ) ;
#142 = CARTESIAN_POINT ( 'NONE',  ( 8.419258442828182300, 12.85077148299099800, 5.331378605149679700 ) ) ;
#143 = CARTESIAN_POINT ( 'NONE',  ( 12.84447186981842200, 4.329914819512531200, -0.7588996056183159300 ) ) ;
#144 = CARTESIAN_POINT ( 'NONE',  ( 12.57037341769586900, -12.85077148299101800, -2.279597187629972300 ) ) ;
#145 = CARTESIAN_POINT ( 'NONE',  ( 8.419258442828184000, -12.85077148299101600, 5.331378605149679700 ) ) ;
#146 = APPROVAL_DATE_TIME ( #79, #147 ) ;
#147 = APPROVAL ( #13, 'UNSPECIFIED' ) ;
#148 = CIRCLE ( 'NONE', #167, 12.69999999999999900 ) ;
#149 = CARTESIAN_POINT ( 'NONE',  ( 4.996003610813200500E-016, 2.442490654175340100E-015, -1.128601368007980100 ) ) ;
#150 = EDGE_CURVE ( 'NONE', #154, #280, #177, .T. ) ;
#151 = CARTESIAN_POINT ( 'NONE',  ( -4.218007418407383500, 12.85077148299099600, 4.955777205334813500 ) ) ;
#152 = CARTESIAN_POINT ( 'NONE',  ( -2.656821655796371800E-015, -12.85077148299101600, 4.955777205334813500 ) ) ;
#153 = AXIS2_PLACEMENT_3D ( 'NONE', #217, #172, #293 ) ;
#154 = VERTEX_POINT ( 'NONE', #170 ) ;
#155 = DIRECTION ( 'NONE',  ( 2.017396277966680000E-016, 1.000000000000000000, 0.0000000000000000000 ) ) ;
#156 = COORDINATED_UNIVERSAL_TIME_OFFSET ( 2, 0, .AHEAD. ) ;
#157 = APPLICATION_PROTOCOL_DEFINITION ( 'international standard', 'config_control_design', 1994, #78 ) ;
#158 = PERSON_AND_ORGANIZATION_ROLE ( 'classification_officer' ) ;
#159 = PERSON_AND_ORGANIZATION_ROLE ( 'design_owner' ) ;
#160 = CIRCLE ( 'NONE', #41, 72.01999999999999600 ) ;
#161 = CARTESIAN_POINT ( 'NONE',  ( 4.218007418407383500, 12.85077148299099500, 4.955777205334821500 ) ) ;
#162 = ORIENTED_EDGE ( 'NONE', *, *, #179, .T. ) ;
#163 = CC_DESIGN_PERSON_AND_ORGANIZATION_ASSIGNMENT ( #257, #158, ( #68 ) ) ;
#164 = PERSON_AND_ORGANIZATION ( #185, #66 ) ;
#165 = VERTEX_POINT ( 'NONE', #87 ) ;
#166 = VERTEX_POINT ( 'NONE', #192 ) ;
#167 = AXIS2_PLACEMENT_3D ( 'NONE', #133, #11, #33 ) ;
#168 = CIRCLE ( 'NONE', #234, 12.69999999999999900 ) ;
#169 = DIRECTION ( 'NONE',  ( 0.0000000000000000000, 0.0000000000000000000, 1.000000000000000000 ) ) ;
#170 = CARTESIAN_POINT ( 'NONE',  ( 2.691976185451959200E-015, -12.69999999999999900, -1.128601368007978900 ) ) ;
#171 = CC_DESIGN_APPROVAL ( #210, ( #236 ) ) ;
#172 = DIRECTION ( 'NONE',  ( 0.0000000000000000000, 0.0000000000000000000, 1.000000000000000000 ) ) ;
#173 = ADVANCED_FACE ( 'NONE', ( #10 ), #255, .F. ) ;
#174 = CARTESIAN_POINT ( 'NONE',  ( -8.419258442828178700, 12.85077148299099300, 5.331378605149677000 ) ) ;
#175 = DIRECTION ( 'NONE',  ( 1.000000000000000000, 0.0000000000000000000, 0.0000000000000000000 ) ) ;
#176 = DATE_AND_TIME ( #188, #211 ) ;
#177 = CIRCLE ( 'NONE', #100, 12.69999999999999900 ) ;
#178 = ORIENTED_EDGE ( 'NONE', *, *, #134, .F. ) ;
#179 = EDGE_CURVE ( 'NONE', #114, #166, #148, .T. ) ;
#180 = CIRCLE ( 'NONE', #223, 72.01999999999999600 ) ;
#181 = ORIENTED_EDGE ( 'NONE', *, *, #281, .T. ) ;
#182 = CARTESIAN_POINT ( 'NONE',  ( 6.938893903907228400E-015, 12.85077148299099300, 4.955777205334821500 ) ) ;
#183 = PERSON_AND_ORGANIZATION_ROLE ( 'design_supplier' ) ;
#184 = PERSON_AND_ORGANIZATION ( #185, #66 ) ;
#185 = PERSON ( 'UNSPECIFIED', 'UNSPECIFIED', 'UNSPECIFIED', ('UNSPECIFIED'), ('UNSPECIFIED'), ('UNSPECIFIED') ) ;
#186 = CARTESIAN_POINT ( 'NONE',  ( 4.645213059451031500E-015, -4.329914819512552500, 0.3894254018957296100 ) ) ;
#187 = CARTESIAN_POINT ( 'NONE',  ( 4.218007418407378100, -12.85077148299101800, -1.155777205334816300 ) ) ;
#188 = CALENDAR_DATE ( 2019, 21, 1 ) ;
#189 = CC_DESIGN_PERSON_AND_ORGANIZATION_ASSIGNMENT ( #89, #245, ( #141 ) ) ;
#190 = CARTESIAN_POINT ( 'NONE',  ( 8.602841350870530600, -4.329914819512554300, 3.794366030059261400 ) ) ;
#191 = DIRECTION ( 'NONE',  ( 1.000000000000000000, 0.0000000000000000000, 0.0000000000000000000 ) ) ;
#192 = CARTESIAN_POINT ( 'NONE',  ( -7.816162731487323000E-015, 12.69999999999998700, 4.928601368007977400 ) ) ;
#193 = CARTESIAN_POINT ( 'NONE',  ( -4.309981559986931100, 4.329914819512533000, 0.3894254018957213900 ) ) ;
#194 = PERSON_AND_ORGANIZATION ( #185, #66 ) ;
#195 = AXIS2_PLACEMENT_3D ( 'NONE', #101, #230, #229 ) ;
#196 = CIRCLE ( 'NONE', #153, 12.69999999999999900 ) ;
#197 = CARTESIAN_POINT ( 'NONE',  ( -12.84447186981842700, -4.329914819512552500, -0.7588996056183193700 ) ) ;
#198 = CARTESIAN_POINT ( 'NONE',  ( -12.84447186981842700, 4.329914819512535700, -0.7588996056183187100 ) ) ;
#199 = CARTESIAN_POINT ( 'NONE',  ( 4.996003610813200500E-016, 2.442490654175340100E-015, -1.128601368007980100 ) ) ;
#200 = CARTESIAN_POINT ( 'NONE',  ( 0.0000000000000000000, 0.0000000000000000000, 0.0000000000000000000 ) ) ;
#201 = PERSON_AND_ORGANIZATION ( #185, #66 ) ;
#202 = DIRECTION ( 'NONE',  ( 1.000000000000000000, -2.017396277966680000E-016, -1.743440961043900000E-016 ) ) ;
#203 = CARTESIAN_POINT ( 'NONE',  ( -12.57037341769587300, 12.85077148299099100, 6.079597187629970800 ) ) ;
#204 = COORDINATED_UNIVERSAL_TIME_OFFSET ( 2, 0, .AHEAD. ) ;
#205 = SECURITY_CLASSIFICATION_LEVEL ( 'unclassified' ) ;
#206 = APPROVAL_ROLE ( '' ) ;
#207 =( BOUNDED_SURFACE ( )  B_SPLINE_SURFACE ( 3, 3, ( 
 ( #49, #151, #174, #203 ),
 ( #220, #97, #265, #275 ),
 ( #129, #70, #267, #221 ),
 ( #152, #31, #52, #242 ) ),
 .UNSPECIFIED., .F., .F., .F. ) 
 B_SPLINE_SURFACE_WITH_KNOTS ( ( 4, 4 ),
 ( 4, 4 ),
 ( 0.0000000000000000000, 1.000000000000000000 ),
 ( 0.0000000000000000000, 1.000000000000000000 ),
 .UNSPECIFIED. ) 
 GEOMETRIC_REPRESENTATION_ITEM ( )  RATIONAL_B_SPLINE_SURFACE ( (
 ( 1.000000000000000000, 0.9973516098441083100, 0.9973516098441083100, 1.000000000000000000),
 ( 0.9893013310623454100, 0.9866812751559493900, 0.9866812751559493900, 0.9893013310623454100),
 ( 0.9893013310623454100, 0.9866812751559493900, 0.9866812751559493900, 0.9893013310623454100),
 ( 1.000000000000000000, 0.9973516098441083100, 0.9973516098441083100, 1.000000000000000000) ) ) 
 REPRESENTATION_ITEM ( '' )  SURFACE ( )  );
#208 = DATE_AND_TIME ( #283, #25 ) ;
#209 = CARTESIAN_POINT ( 'NONE',  ( 12.84447186981842700, 4.329914819512535700, 4.558899605618315800 ) ) ;
#210 = APPROVAL ( #137, 'UNSPECIFIED' ) ;
#211 = LOCAL_TIME ( 12, 50, 24.00000000000000000, #156 ) ;
#212 = CARTESIAN_POINT ( 'NONE',  ( -12.69999999999999900, 3.997792089092478900E-015, -1.128601368007980100 ) ) ;
#213 = ORIENTED_EDGE ( 'NONE', *, *, #227, .F. ) ;
#214 = UNCERTAINTY_MEASURE_WITH_UNIT (LENGTH_MEASURE( 1.000000000000000100E-005 ), #8, 'distance_accuracy_value', 'NONE');
#215 = EDGE_CURVE ( 'NONE', #105, #154, #73, .T. ) ;
#216 = CARTESIAN_POINT ( 'NONE',  ( 12.69999999999999900, 2.442490654175340100E-015, -1.128601368007980100 ) ) ;
#217 = CARTESIAN_POINT ( 'NONE',  ( 4.996003610813200500E-016, 2.442490654175340100E-015, -1.128601368007980100 ) ) ;
#218 = CIRCLE ( 'NONE', #258, 12.69999999999999900 ) ;
#219 = ORIENTED_EDGE ( 'NONE', *, *, #134, .T. ) ;
#220 = CARTESIAN_POINT ( 'NONE',  ( -6.392243867610506400E-015, 4.329914819512533900, 3.410574598104266600 ) ) ;
#221 = CARTESIAN_POINT ( 'NONE',  ( -12.84447186981841900, -4.329914819512555200, 4.558899605618313100 ) ) ;
#222 = APPROVAL_PERSON_ORGANIZATION ( #184, #210, #12 ) ;
#223 = AXIS2_PLACEMENT_3D ( 'NONE', #270, #202, #155 ) ;
#224 = APPLICATION_PROTOCOL_DEFINITION ( 'international standard', 'config_control_design', 1994, #55 ) ;
#225 = ORIENTED_EDGE ( 'NONE', *, *, #75, .F. ) ;
#226 = ORIENTED_EDGE ( 'NONE', *, *, #75, .T. ) ;
#227 = EDGE_CURVE ( 'NONE', #274, #114, #139, .T. ) ;
#228 = CARTESIAN_POINT ( 'NONE',  ( 4.996003610813200500E-016, 2.442490654175340100E-015, -1.128601368007980100 ) ) ;
#229 = DIRECTION ( 'NONE',  ( 1.000000000000000000, 0.0000000000000000000, 0.0000000000000000000 ) ) ;
#230 = DIRECTION ( 'NONE',  ( 0.0000000000000000000, 0.0000000000000000000, 1.000000000000000000 ) ) ;
#231 = CARTESIAN_POINT ( 'NONE',  ( 4.218007418407383500, 12.85077148299099600, -1.155777205334816300 ) ) ;
#232 = CARTESIAN_POINT ( 'NONE',  ( 1.214306433183764800E-014, -4.329914819512554300, 3.410574598104277200 ) ) ;
#233 = CARTESIAN_POINT ( 'NONE',  ( 6.392243867610506400E-015, 4.329914819512533900, 0.3894254018957304900 ) ) ;
#234 = AXIS2_PLACEMENT_3D ( 'NONE', #95, #6, #175 ) ;
#235 = LOCAL_TIME ( 12, 50, 24.00000000000000000, #204 ) ;
#236 = PRODUCT_DEFINITION_FORMATION_WITH_SPECIFIED_SOURCE ( 'ANY', '', #80, .NOT_KNOWN. ) ;
#237 = DIRECTION ( 'NONE',  ( -1.000000000000000000, -2.017396277966680000E-016, 1.743440961043900000E-016 ) ) ;
#238 = DIRECTION ( 'NONE',  ( 1.000000000000000000, -8.881784197001252300E-016, 0.0000000000000000000 ) ) ;
#239 = CARTESIAN_POINT ( 'NONE',  ( -12.69999999999999900, 3.997792089092478900E-015, 4.928601368007980100 ) ) ;
#240 = EDGE_CURVE ( 'NONE', #165, #154, #180, .T. ) ;
#241 = COORDINATED_UNIVERSAL_TIME_OFFSET ( 2, 0, .AHEAD. ) ;
#242 = CARTESIAN_POINT ( 'NONE',  ( -12.57037341769586700, -12.85077148299102000, 6.079597187629970800 ) ) ;
#243 = FACE_OUTER_BOUND ( 'NONE', #43, .T. ) ;
#244 = CC_DESIGN_APPROVAL ( #15, ( #68 ) ) ;
#245 = PERSON_AND_ORGANIZATION_ROLE ( 'creator' ) ;
#246 = DATE_AND_TIME ( #32, #86 ) ;
#247 = DATE_TIME_ROLE ( 'creation_date' ) ;
#248 = AXIS2_PLACEMENT_3D ( 'NONE', #200, #111, #271 ) ;
#249 = DIRECTION ( 'NONE',  ( 0.0000000000000000000, 0.0000000000000000000, 1.000000000000000000 ) ) ;
#250 = CC_DESIGN_DATE_AND_TIME_ASSIGNMENT ( #246, #278, ( #68 ) ) ;
#251 = APPROVAL_DATE_TIME ( #176, #210 ) ;
#252 = FACE_OUTER_BOUND ( 'NONE', #112, .T. ) ;
#253 = CARTESIAN_POINT ( 'NONE',  ( 8.419258442828182300, 12.85077148299099500, -1.531378605149678700 ) ) ;
#254 = EDGE_LOOP ( 'NONE', ( #60, #268, #121 ) ) ;
#255 =( BOUNDED_SURFACE ( )  B_SPLINE_SURFACE ( 3, 3, ( 
 ( #88, #107, #261, #24 ),
 ( #198, #46, #193, #263 ),
 ( #197, #125, #65, #91 ),
 ( #29, #69, #128, #3 ) ),
 .UNSPECIFIED., .F., .F., .F. ) 
 B_SPLINE_SURFACE_WITH_KNOTS ( ( 4, 4 ),
 ( 4, 4 ),
 ( 0.0000000000000000000, 1.000000000000000000 ),
 ( 0.0000000000000000000, 1.000000000000000000 ),
 .UNSPECIFIED. ) 
 GEOMETRIC_REPRESENTATION_ITEM ( )  RATIONAL_B_SPLINE_SURFACE ( (
 ( 1.000000000000000000, 0.9973516098441083100, 0.9973516098441083100, 1.000000000000000000),
 ( 0.9893013310623454100, 0.9866812751559493900, 0.9866812751559493900, 0.9893013310623454100),
 ( 0.9893013310623454100, 0.9866812751559493900, 0.9866812751559493900, 0.9893013310623454100),
 ( 1.000000000000000000, 0.9973516098441083100, 0.9973516098441083100, 1.000000000000000000) ) ) 
 REPRESENTATION_ITEM ( '' )  SURFACE ( )  );
#256 =( GEOMETRIC_REPRESENTATION_CONTEXT ( 3 ) GLOBAL_UNCERTAINTY_ASSIGNED_CONTEXT ( ( #214 ) ) GLOBAL_UNIT_ASSIGNED_CONTEXT ( ( #8, #56, #109 ) ) REPRESENTATION_CONTEXT ( 'NONE', 'WORKASPACE' ) );
#257 = PERSON_AND_ORGANIZATION ( #185, #66 ) ;
#258 = AXIS2_PLACEMENT_3D ( 'NONE', #260, #47, #238 ) ;
#259 = CARTESIAN_POINT ( 'NONE',  ( 1.214306433183764800E-014, 4.329914819512533000, 3.410574598104276300 ) ) ;
#260 = CARTESIAN_POINT ( 'NONE',  ( 4.996003610813200500E-016, 2.442490654175340100E-015, 4.928601368007980100 ) ) ;
#261 = CARTESIAN_POINT ( 'NONE',  ( -4.218007418407385200, 12.85077148299099600, -1.155777205334824100 ) ) ;
#262 = ORIENTED_EDGE ( 'NONE', *, *, #138, .T. ) ;
#263 = CARTESIAN_POINT ( 'NONE',  ( -1.214306433183764800E-014, 4.329914819512533000, 0.3894254018957216700 ) ) ;
#264 = CARTESIAN_POINT ( 'NONE',  ( 7.105427357601000300E-015, -1.421085471520200100E-014, 75.81999999999999300 ) ) ;
#265 = CARTESIAN_POINT ( 'NONE',  ( -8.602841350870525300, 4.329914819512530300, 3.794366030059256500 ) ) ;
#266 = CALENDAR_DATE ( 2019, 21, 1 ) ;
#267 = CARTESIAN_POINT ( 'NONE',  ( -8.602841350870523500, -4.329914819512556100, 3.794366030059257400 ) ) ;
#268 = ORIENTED_EDGE ( 'NONE', *, *, #281, .F. ) ;
#269 = CC_DESIGN_DATE_AND_TIME_ASSIGNMENT ( #35, #247, ( #141 ) ) ;
#270 = CARTESIAN_POINT ( 'NONE',  ( -7.105427357601000300E-015, -1.421085471520200100E-014, -72.01999999999999600 ) ) ;
#271 = DIRECTION ( 'NONE',  ( 1.000000000000000000, 0.0000000000000000000, 0.0000000000000000000 ) ) ;
#272 = PRODUCT_RELATED_PRODUCT_CATEGORY ( 'detail', '', ( #80 ) ) ;
#273 = SHAPE_DEFINITION_REPRESENTATION ( #48, #36 ) ;
#274 = VERTEX_POINT ( 'NONE', #71 ) ;
#275 = CARTESIAN_POINT ( 'NONE',  ( -12.84447186981842000, 4.329914819512531200, 4.558899605618312200 ) ) ;
#276 = ADVANCED_FACE ( 'NONE', ( #243 ), #207, .F. ) ;
#277 = DESIGN_CONTEXT ( 'detailed design', #78, 'design' ) ;
#278 = DATE_TIME_ROLE ( 'classification_date' ) ;
#279 = MANIFOLD_SOLID_BREP ( 'Imported1', #289 ) ;
#280 = VERTEX_POINT ( 'NONE', #216 ) ;
#281 = EDGE_CURVE ( 'NONE', #280, #165, #168, .T. ) ;
#282 = DIRECTION ( 'NONE',  ( 1.000000000000000000, 0.0000000000000000000, 0.0000000000000000000 ) ) ;
#283 = CALENDAR_DATE ( 2019, 21, 1 ) ;
#284 = ORIENTED_EDGE ( 'NONE', *, *, #62, .T. ) ;
#285 = CARTESIAN_POINT ( 'NONE',  ( 8.602841350870527000, 4.329914819512530300, 0.005633969940740795100 ) ) ;
#286 = CARTESIAN_POINT ( 'NONE',  ( 12.84447186981842000, -4.329914819512555200, -0.7588996056183167100 ) ) ;
#287 = FACE_OUTER_BOUND ( 'NONE', #254, .T. ) ;
#288 = CARTESIAN_POINT ( 'NONE',  ( 4.309981559986931100, 4.329914819512533000, 3.410574598104277200 ) ) ;
#289 = CLOSED_SHELL ( 'NONE', ( #173, #37, #5, #53, #34, #276 ) ) ;
#290 = CARTESIAN_POINT ( 'NONE',  ( 12.57037341769588000, -12.85077148299101400, 6.079597187629973500 ) ) ;
#291 = CC_DESIGN_PERSON_AND_ORGANIZATION_ASSIGNMENT ( #135, #183, ( #236 ) ) ;
#292 = APPROVAL_PERSON_ORGANIZATION ( #164, #147, #206 ) ;
#293 = DIRECTION ( 'NONE',  ( 1.000000000000000000, 0.0000000000000000000, 0.0000000000000000000 ) ) ;
#294 = CC_DESIGN_PERSON_AND_ORGANIZATION_ASSIGNMENT ( #201, #159, ( #80 ) ) ;
#295 = DIRECTION ( 'NONE',  ( -0.0000000000000000000, -0.0000000000000000000, -1.000000000000000000 ) ) ;
ENDSEC;
END-ISO-10303-21;
