ISO-10303-21;
HEADER;
FILE_DESCRIPTION (( 'STEP AP203' ),
    '1' );
FILE_NAME ('114-1208E UVFS bi-cv 25.4 F-50.STEP',
    '2019-01-21T10:40:55',
    ( '' ),
    ( '' ),
    'SwSTEP 2.0',
    'SolidWorks 2017',
    '' );
FILE_SCHEMA (( 'CONFIG_CONTROL_DESIGN' ));
ENDSEC;

DATA;
#1 = PRODUCT_DEFINITION_SHAPE ( 'NONE', 'NONE',  #27 ) ;
#2 = FACE_OUTER_BOUND ( 'NONE', #199, .T. ) ;
#3 = CALENDAR_DATE ( 2019, 21, 1 ) ;
#4 = DIRECTION ( 'NONE',  ( -0.0000000000000000000, -0.0000000000000000000, -1.000000000000000000 ) ) ;
#5 = CARTESIAN_POINT ( 'NONE',  ( -2.245930799828975400E-014, -12.70000000000001000, 5.900300559149161300 ) ) ;
#6 = PERSON_AND_ORGANIZATION ( #252, #126 ) ;
#7 = CARTESIAN_POINT ( 'NONE',  ( -12.31369789923925300, -12.84871854417373900, -3.399696126041247700 ) ) ;
#8 = EDGE_CURVE ( 'NONE', #282, #32, #207, .T. ) ;
#9 = CARTESIAN_POINT ( 'NONE',  ( 1.415474886736802700E-014, -12.84871854417373900, -1.741104098049277300 ) ) ;
#10 = PERSON_AND_ORGANIZATION ( #252, #126 ) ;
#11 = DIRECTION ( 'NONE',  ( -1.000000000000000000, -3.009380280430000000E-016, 5.642204924016100500E-016 ) ) ;
#12 = CIRCLE ( 'NONE', #216, 12.69999999999999900 ) ;
#13 =( BOUNDED_SURFACE ( )  B_SPLINE_SURFACE ( 3, 3, ( 
 ( #118, #38, #211, #141 ),
 ( #285, #61, #36, #234 ),
 ( #121, #233, #15, #123 ),
 ( #9, #122, #160, #190 ) ),
 .UNSPECIFIED., .F., .F., .F. ) 
 B_SPLINE_SURFACE_WITH_KNOTS ( ( 4, 4 ),
 ( 4, 4 ),
 ( 0.0000000000000000000, 1.000000000000000000 ),
 ( 0.0000000000000000000, 1.000000000000000000 ),
 .UNSPECIFIED. ) 
 GEOMETRIC_REPRESENTATION_ITEM ( )  RATIONAL_B_SPLINE_SURFACE ( (
 ( 1.000000000000000000, 0.9940334947932054600, 0.9940334947932054600, 1.000000000000000000),
 ( 0.9759582422252238700, 0.9701351822913730800, 0.9701351822913730800, 0.9759582422252238700),
 ( 0.9759582422252238700, 0.9701351822913730800, 0.9701351822913730800, 0.9759582422252238700),
 ( 1.000000000000000000, 0.9940334947932054600, 0.9940334947932054600, 1.000000000000000000) ) ) 
 REPRESENTATION_ITEM ( '' )  SURFACE ( )  );
#14 = MECHANICAL_CONTEXT ( 'NONE', #236, 'mechanical' ) ;
#15 = CARTESIAN_POINT ( 'NONE',  ( 8.712052516075392100, -4.388411302952928100, 0.01056776517446931200 ) ) ;
#16 = CC_DESIGN_DATE_AND_TIME_ASSIGNMENT ( #154, #87, ( #41 ) ) ;
#17 = PERSON_AND_ORGANIZATION ( #252, #126 ) ;
#18 = CARTESIAN_POINT ( 'NONE',  ( -8.712052516075404500, 4.388411302952929000, 4.189432234825523500 ) ) ;
#19 = CARTESIAN_POINT ( 'NONE',  ( 0.0000000000000000000, 0.0000000000000000000, -48.28000000000000100 ) ) ;
#20 = FACE_OUTER_BOUND ( 'NONE', #269, .T. ) ;
#21 = CALENDAR_DATE ( 2019, 21, 1 ) ;
#22 = CARTESIAN_POINT ( 'NONE',  ( 4.166491970935864800, -12.84871854417375700, 5.941104098049268400 ) ) ;
#23 = ORIENTED_EDGE ( 'NONE', *, *, #116, .F. ) ;
#24 = CARTESIAN_POINT ( 'NONE',  ( -12.31369789923922800, 12.84871854417375100, 7.599696126041242100 ) ) ;
#25 = CARTESIAN_POINT ( 'NONE',  ( -1.561251128379126400E-014, 4.388411302952932600, 3.605335179751294500 ) ) ;
#26 = CARTESIAN_POINT ( 'NONE',  ( 8.712052516075401000, -4.388411302952936100, 4.189432234825517300 ) ) ;
#27 = PRODUCT_DEFINITION ( 'UNKNOWN', '', #295, #65 ) ;
#28 = EDGE_LOOP ( 'NONE', ( #213, #55, #195, #79, #157, #261 ) ) ;
#29 = COORDINATED_UNIVERSAL_TIME_OFFSET ( 2, 0, .AHEAD. ) ;
#30 = CARTESIAN_POINT ( 'NONE',  ( -4.166491970935871000, 12.84871854417374400, -1.741104098049270500 ) ) ;
#31 = CARTESIAN_POINT ( 'NONE',  ( -12.69999999999999900, 3.997792089092478900E-015, 5.900300559149160400 ) ) ;
#32 = VERTEX_POINT ( 'NONE', #286 ) ;
#33 = APPROVAL_DATE_TIME ( #158, #34 ) ;
#34 = APPROVAL ( #218, 'UNSPECIFIED' ) ;
#35 = ORIENTED_EDGE ( 'NONE', *, *, #229, .F. ) ;
#36 = CARTESIAN_POINT ( 'NONE',  ( 8.712052516075392100, 4.388411302952933500, 0.01056776517446996600 ) ) ;
#37 = CARTESIAN_POINT ( 'NONE',  ( 12.69999999999999900, 2.442490654175340100E-015, -1.700300559149160000 ) ) ;
#38 = CARTESIAN_POINT ( 'NONE',  ( 4.166491970935871000, 12.84871854417374600, -1.741104098049278700 ) ) ;
#39 = CIRCLE ( 'NONE', #49, 12.69999999999999900 ) ;
#40 = PERSON_AND_ORGANIZATION_ROLE ( 'creator' ) ;
#41 = SECURITY_CLASSIFICATION ( '', '', #169 ) ;
#42 = CARTESIAN_POINT ( 'NONE',  ( -8.712052516075402800, -4.388411302952942300, 4.189432234825522600 ) ) ;
#43 = ORIENTED_EDGE ( 'NONE', *, *, #251, .T. ) ;
#44 = FACE_OUTER_BOUND ( 'NONE', #28, .T. ) ;
#45 = ORIENTED_EDGE ( 'NONE', *, *, #72, .F. ) ;
#46 = AXIS2_PLACEMENT_3D ( 'NONE', #69, #287, #148 ) ;
#47 = DIRECTION ( 'NONE',  ( 1.000000000000000000, 0.0000000000000000000, 0.0000000000000000000 ) ) ;
#48 = CARTESIAN_POINT ( 'NONE',  ( -4.375606567563902900, -4.388411302952940600, 3.605335179751299400 ) ) ;
#49 = AXIS2_PLACEMENT_3D ( 'NONE', #140, #257, #182 ) ;
#50 = ORIENTED_EDGE ( 'NONE', *, *, #66, .T. ) ;
#51 = CC_DESIGN_PERSON_AND_ORGANIZATION_ASSIGNMENT ( #90, #40, ( #295 ) ) ;
#52 = CARTESIAN_POINT ( 'NONE',  ( 4.375606567563885100, -4.388411302952937900, 3.605335179751292700 ) ) ;
#53 = LINE ( 'NONE', #37, #67 ) ;
#54 = AXIS2_PLACEMENT_3D ( 'NONE', #138, #11, #167 ) ;
#55 = ORIENTED_EDGE ( 'NONE', *, *, #229, .T. ) ;
#56 = CARTESIAN_POINT ( 'NONE',  ( -8.712052516075413400, -4.388411302952929000, 0.01056776517447278300 ) ) ;
#57 = CARTESIAN_POINT ( 'NONE',  ( 4.996003610813200500E-016, 2.442490654175340100E-015, -1.700300559149160000 ) ) ;
#58 = CARTESIAN_POINT ( 'NONE',  ( -8.712052516075411600, 4.388411302952932600, 0.01056776517447365100 ) ) ;
#59 = CARTESIAN_POINT ( 'NONE',  ( 1.416715921434419700E-014, -12.69999999999999200, -1.700300559149159800 ) ) ;
#60 =( BOUNDED_SURFACE ( )  B_SPLINE_SURFACE ( 3, 3, ( 
 ( #246, #180, #30, #136 ),
 ( #250, #58, #204, #101 ),
 ( #115, #56, #203, #276 ),
 ( #7, #78, #230, #277 ) ),
 .UNSPECIFIED., .F., .F., .F. ) 
 B_SPLINE_SURFACE_WITH_KNOTS ( ( 4, 4 ),
 ( 4, 4 ),
 ( 0.0000000000000000000, 1.000000000000000000 ),
 ( 0.0000000000000000000, 1.000000000000000000 ),
 .UNSPECIFIED. ) 
 GEOMETRIC_REPRESENTATION_ITEM ( )  RATIONAL_B_SPLINE_SURFACE ( (
 ( 1.000000000000000000, 0.9940334947932053500, 0.9940334947932053500, 1.000000000000000000),
 ( 0.9759582422252238700, 0.9701351822913729700, 0.9701351822913729700, 0.9759582422252238700),
 ( 0.9759582422252238700, 0.9701351822913729700, 0.9701351822913729700, 0.9759582422252238700),
 ( 1.000000000000000000, 0.9940334947932053500, 0.9940334947932053500, 1.000000000000000000) ) ) 
 REPRESENTATION_ITEM ( '' )  SURFACE ( )  );
#61 = CARTESIAN_POINT ( 'NONE',  ( 4.375606567563895800, 4.388411302952933500, 0.5946648202486910500 ) ) ;
#62 = DIRECTION ( 'NONE',  ( -0.0000000000000000000, -0.0000000000000000000, -1.000000000000000000 ) ) ;
#63 = VERTEX_POINT ( 'NONE', #144 ) ;
#64 = APPLICATION_PROTOCOL_DEFINITION ( 'international standard', 'config_control_design', 1994, #161 ) ;
#65 = DESIGN_CONTEXT ( 'detailed design', #161, 'design' ) ;
#66 = EDGE_CURVE ( 'NONE', #223, #253, #110, .T. ) ;
#67 = VECTOR ( 'NONE', #84, 1000.000000000000000 ) ;
#68 = CARTESIAN_POINT ( 'NONE',  ( -12.69999999999999900, 3.997792089092478900E-015, -1.700300559149160000 ) ) ;
#69 = CARTESIAN_POINT ( 'NONE',  ( 4.996003610813200500E-016, 2.442490654175340100E-015, 5.900300559149160400 ) ) ;
#70 = CARTESIAN_POINT ( 'NONE',  ( -12.31369789923922100, -12.84871854417376400, 7.599696126041242100 ) ) ;
#71 = ORIENTED_EDGE ( 'NONE', *, *, #268, .F. ) ;
#72 = EDGE_CURVE ( 'NONE', #131, #282, #102, .T. ) ;
#73 = CARTESIAN_POINT ( 'NONE',  ( 4.996003610813200500E-016, 2.442490654175340100E-015, -1.700300559149160000 ) ) ;
#74 = LOCAL_TIME ( 12, 40, 55.00000000000000000, #96 ) ;
#75 = CARTESIAN_POINT ( 'NONE',  ( -1.561251128379126400E-014, -4.388411302952939700, 3.605335179751293600 ) ) ;
#76 = ORIENTED_EDGE ( 'NONE', *, *, #72, .T. ) ;
#77 = DIRECTION ( 'NONE',  ( 1.000000000000000000, 0.0000000000000000000, 0.0000000000000000000 ) ) ;
#78 = CARTESIAN_POINT ( 'NONE',  ( -8.295694847813756200, -12.84871854417373900, -2.297286573012728100 ) ) ;
#79 = ORIENTED_EDGE ( 'NONE', *, *, #268, .T. ) ;
#80 = PERSON_AND_ORGANIZATION ( #252, #126 ) ;
#81 = DATE_TIME_ROLE ( 'creation_date' ) ;
#82 = APPLICATION_PROTOCOL_DEFINITION ( 'international standard', 'config_control_design', 1994, #236 ) ;
#83 = DIRECTION ( 'NONE',  ( 0.0000000000000000000, 0.0000000000000000000, 1.000000000000000000 ) ) ;
#84 = DIRECTION ( 'NONE',  ( 0.0000000000000000000, 0.0000000000000000000, 1.000000000000000000 ) ) ;
#85 = AXIS2_PLACEMENT_3D ( 'NONE', #57, #201, #77 ) ;
#86 = CARTESIAN_POINT ( 'NONE',  ( -8.295694847813754400, 12.84871854417375300, 6.497286573012731400 ) ) ;
#87 = DATE_TIME_ROLE ( 'classification_date' ) ;
#88 = DIRECTION ( 'NONE',  ( 0.0000000000000000000, 0.0000000000000000000, 1.000000000000000000 ) ) ;
#89 = ORIENTED_EDGE ( 'NONE', *, *, #205, .T. ) ;
#90 = PERSON_AND_ORGANIZATION ( #252, #126 ) ;
#91 = ORIENTED_EDGE ( 'NONE', *, *, #231, .T. ) ;
#92 = CARTESIAN_POINT ( 'NONE',  ( -12.93171756354218300, -4.388411302952943200, 5.347171290612840800 ) ) ;
#93 = DIRECTION ( 'NONE',  ( 0.0000000000000000000, 0.0000000000000000000, 1.000000000000000000 ) ) ;
#94 = SHAPE_DEFINITION_REPRESENTATION ( #1, #227 ) ;
#95 = AXIS2_PLACEMENT_3D ( 'NONE', #117, #228, #202 ) ;
#96 = COORDINATED_UNIVERSAL_TIME_OFFSET ( 2, 0, .AHEAD. ) ;
#97 = ORIENTED_EDGE ( 'NONE', *, *, #251, .F. ) ;
#98 = AXIS2_PLACEMENT_3D ( 'NONE', #289, #93, #221 ) ;
#99 = UNCERTAINTY_MEASURE_WITH_UNIT (LENGTH_MEASURE( 1.000000000000000100E-005 ), #281, 'distance_accuracy_value', 'NONE');
#100 = CYLINDRICAL_SURFACE ( 'NONE', #156, 12.69999999999999900 ) ;
#101 = CARTESIAN_POINT ( 'NONE',  ( 3.469446951953613800E-015, 4.388411302952933500, 0.5946648202486990400 ) ) ;
#102 = CIRCLE ( 'NONE', #194, 48.28000000000000100 ) ;
#103 = ADVANCED_FACE ( 'NONE', ( #20 ), #240, .F. ) ;
#104 = LINE ( 'NONE', #68, #274 ) ;
#105 = PERSON_AND_ORGANIZATION_ROLE ( 'creator' ) ;
#106 = DIRECTION ( 'NONE',  ( 1.000000000000000000, 8.881784197001252300E-016, 0.0000000000000000000 ) ) ;
#107 = CC_DESIGN_APPROVAL ( #163, ( #27 ) ) ;
#108 = CIRCLE ( 'NONE', #85, 12.69999999999999900 ) ;
#109 = APPROVAL_STATUS ( 'not_yet_approved' ) ;
#110 = CIRCLE ( 'NONE', #46, 12.69999999999999900 ) ;
#111 = COORDINATED_UNIVERSAL_TIME_OFFSET ( 2, 0, .AHEAD. ) ;
#112 = CARTESIAN_POINT ( 'NONE',  ( 12.93171756354220400, -4.388411302952935200, 5.347171290612840800 ) ) ;
#113 = CARTESIAN_POINT ( 'NONE',  ( 4.375606567563885100, 4.388411302952933500, 3.605335179751293600 ) ) ;
#114 = FACE_OUTER_BOUND ( 'NONE', #120, .T. ) ;
#115 = CARTESIAN_POINT ( 'NONE',  ( -12.93171756354221500, -4.388411302952929000, -1.147171290612852600 ) ) ;
#116 = EDGE_CURVE ( 'NONE', #253, #210, #165, .T. ) ;
#117 = CARTESIAN_POINT ( 'NONE',  ( 4.996003610813200500E-016, 2.442490654175340100E-015, -1.700300559149160000 ) ) ;
#118 = CARTESIAN_POINT ( 'NONE',  ( 1.415474886736802700E-014, 12.84871854417374400, -1.741104098049277300 ) ) ;
#119 = CC_DESIGN_APPROVAL ( #149, ( #295 ) ) ;
#120 = EDGE_LOOP ( 'NONE', ( #43, #89, #134, #91, #50, #71 ) ) ;
#121 = CARTESIAN_POINT ( 'NONE',  ( 1.486517015712891500E-014, -4.388411302952929000, 0.5946648202486914900 ) ) ;
#122 = CARTESIAN_POINT ( 'NONE',  ( 4.166491970935871000, -12.84871854417374100, -1.741104098049278700 ) ) ;
#123 = CARTESIAN_POINT ( 'NONE',  ( 12.93171756354217500, -4.388411302952929000, -1.147171290612847900 ) ) ;
#124 = APPROVAL_PERSON_ORGANIZATION ( #10, #149, #196 ) ;
#125 = PERSON_AND_ORGANIZATION_ROLE ( 'classification_officer' ) ;
#126 = ORGANIZATION ( 'UNSPECIFIED', 'UNSPECIFIED', '' ) ;
#127 = EDGE_LOOP ( 'NONE', ( #198, #139, #23 ) ) ;
#128 = DATE_AND_TIME ( #21, #74 ) ;
#129 = ORIENTED_EDGE ( 'NONE', *, *, #205, .F. ) ;
#130 = CARTESIAN_POINT ( 'NONE',  ( -1.734723475976807100E-014, 12.84871854417375500, 5.941104098049269300 ) ) ;
#131 = VERTEX_POINT ( 'NONE', #239 ) ;
#132 = DATE_AND_TIME ( #3, #208 ) ;
#133 = CC_DESIGN_PERSON_AND_ORGANIZATION_ASSIGNMENT ( #80, #125, ( #41 ) ) ;
#134 = ORIENTED_EDGE ( 'NONE', *, *, #159, .T. ) ;
#135 = DIRECTION ( 'NONE',  ( 1.000000000000000000, 0.0000000000000000000, 0.0000000000000000000 ) ) ;
#136 = CARTESIAN_POINT ( 'NONE',  ( 3.469446951953614200E-015, 12.84871854417374400, -1.741104098049270500 ) ) ;
#137 = PERSON_AND_ORGANIZATION ( #252, #126 ) ;
#138 = CARTESIAN_POINT ( 'NONE',  ( 0.0000000000000000000, 0.0000000000000000000, 52.47999999999999700 ) ) ;
#139 = ORIENTED_EDGE ( 'NONE', *, *, #258, .T. ) ;
#140 = CARTESIAN_POINT ( 'NONE',  ( 4.996003610813200500E-016, 2.442490654175340100E-015, -1.700300559149160000 ) ) ;
#141 = CARTESIAN_POINT ( 'NONE',  ( 12.31369789923921900, 12.84871854417374400, -3.399696126041244200 ) ) ;
#142 = CARTESIAN_POINT ( 'NONE',  ( 4.996003610813200500E-016, 2.442490654175340100E-015, -1.700300559149160000 ) ) ;
#143 = DIRECTION ( 'NONE',  ( 1.000000000000000000, 0.0000000000000000000, 0.0000000000000000000 ) ) ;
#144 = CARTESIAN_POINT ( 'NONE',  ( -12.69999999999999900, 3.997792089092478900E-015, -1.700300559149160000 ) ) ;
#145 = CARTESIAN_POINT ( 'NONE',  ( -8.295694847813749100, -12.84871854417376200, 6.497286573012731400 ) ) ;
#146 = ORIENTED_EDGE ( 'NONE', *, *, #8, .F. ) ;
#147 = LOCAL_TIME ( 12, 40, 55.00000000000000000, #29 ) ;
#148 = DIRECTION ( 'NONE',  ( 1.000000000000000000, -8.881784197001252300E-016, 0.0000000000000000000 ) ) ;
#149 = APPROVAL ( #109, 'UNSPECIFIED' ) ;
#150 = CARTESIAN_POINT ( 'NONE',  ( 8.295694847813749100, -12.84871854417375700, 6.497286573012724300 ) ) ;
#151 = DIRECTION ( 'NONE',  ( 1.000000000000000000, 0.0000000000000000000, -3.041487898034709800E-016 ) ) ;
#152 = CARTESIAN_POINT ( 'NONE',  ( 4.166491970935857700, 12.84871854417375500, 5.941104098049268400 ) ) ;
#153 = ORIENTED_EDGE ( 'NONE', *, *, #258, .F. ) ;
#154 = DATE_AND_TIME ( #260, #147 ) ;
#155 = MANIFOLD_SOLID_BREP ( 'Imported1', #173 ) ;
#156 = AXIS2_PLACEMENT_3D ( 'NONE', #142, #279, #143 ) ;
#157 = ORIENTED_EDGE ( 'NONE', *, *, #116, .T. ) ;
#158 = DATE_AND_TIME ( #179, #293 ) ;
#159 = EDGE_CURVE ( 'NONE', #63, #292, #104, .T. ) ;
#160 = CARTESIAN_POINT ( 'NONE',  ( 8.295694847813742000, -12.84871854417374100, -2.297286573012733000 ) ) ;
#161 = APPLICATION_CONTEXT ( 'configuration controlled 3d designs of mechanical parts and assemblies' ) ;
#162 = ADVANCED_FACE ( 'NONE', ( #44 ), #266, .T. ) ;
#163 = APPROVAL ( #212, 'UNSPECIFIED' ) ;
#164 = CARTESIAN_POINT ( 'NONE',  ( 0.0000000000000000000, 0.0000000000000000000, 0.0000000000000000000 ) ) ;
#165 = CIRCLE ( 'NONE', #200, 12.69999999999999900 ) ;
#166 = DIRECTION ( 'NONE',  ( 1.000000000000000000, 0.0000000000000000000, 0.0000000000000000000 ) ) ;
#167 = DIRECTION ( 'NONE',  ( -3.009380280430000000E-016, 1.000000000000000000, 0.0000000000000000000 ) ) ;
#168 = ADVANCED_FACE ( 'NONE', ( #271 ), #206, .F. ) ;
#169 = SECURITY_CLASSIFICATION_LEVEL ( 'unclassified' ) ;
#170 = CARTESIAN_POINT ( 'NONE',  ( -4.166491970935877200, -12.84871854417376200, 5.941104098049276400 ) ) ;
#171 = PRODUCT_RELATED_PRODUCT_CATEGORY ( 'detail', '', ( #189 ) ) ;
#172 = CARTESIAN_POINT ( 'NONE',  ( -2.625544760709209500E-014, -4.388411302952938800, 3.605335179751296700 ) ) ;
#173 = CLOSED_SHELL ( 'NONE', ( #183, #168, #284, #162, #280, #103 ) ) ;
#174 = CARTESIAN_POINT ( 'NONE',  ( -12.93171756354218400, 4.388411302952929900, 5.347171290612840800 ) ) ;
#175 = CARTESIAN_POINT ( 'NONE',  ( -1.040834085586084300E-014, -12.84871854417376000, 5.941104098049269300 ) ) ;
#176 = CARTESIAN_POINT ( 'NONE',  ( 12.31369789923923700, 12.84871854417375800, 7.599696126041243000 ) ) ;
#177 = EDGE_CURVE ( 'NONE', #210, #292, #225, .T. ) ;
#178 = CC_DESIGN_PERSON_AND_ORGANIZATION_ASSIGNMENT ( #241, #262, ( #295 ) ) ;
#179 = CALENDAR_DATE ( 2019, 21, 1 ) ;
#180 = CARTESIAN_POINT ( 'NONE',  ( -8.295694847813756200, 12.84871854417374400, -2.297286573012728100 ) ) ;
#181 = CALENDAR_DATE ( 2019, 21, 1 ) ;
#182 = DIRECTION ( 'NONE',  ( 1.000000000000000000, 0.0000000000000000000, 0.0000000000000000000 ) ) ;
#183 = ADVANCED_FACE ( 'NONE', ( #2 ), #60, .F. ) ;
#184 = APPROVAL_ROLE ( '' ) ;
#185 = APPROVAL_PERSON_ORGANIZATION ( #17, #163, #184 ) ;
#186 = EDGE_LOOP ( 'NONE', ( #45, #97, #146 ) ) ;
#187 =( NAMED_UNIT ( * ) SI_UNIT ( $, .STERADIAN. ) SOLID_ANGLE_UNIT ( ) );
#188 = PERSON_AND_ORGANIZATION_ROLE ( 'design_owner' ) ;
#189 = PRODUCT ( '114-1208E UVFS bi-cv 25.4 F-50', '114-1208E UVFS bi-cv 25.4 F-50', '', ( #14 ) ) ;
#190 = CARTESIAN_POINT ( 'NONE',  ( 12.31369789923921900, -12.84871854417373900, -3.399696126041244200 ) ) ;
#191 = COORDINATED_UNIVERSAL_TIME_OFFSET ( 2, 0, .AHEAD. ) ;
#192 = APPROVAL_ROLE ( '' ) ;
#193 = CARTESIAN_POINT ( 'NONE',  ( 4.996003610813200500E-016, 2.442490654175340100E-015, 5.900300559149160400 ) ) ;
#194 = AXIS2_PLACEMENT_3D ( 'NONE', #19, #151, #219 ) ;
#195 = ORIENTED_EDGE ( 'NONE', *, *, #8, .T. ) ;
#196 = APPROVAL_ROLE ( '' ) ;
#197 = DIRECTION ( 'NONE',  ( 1.000000000000000000, 0.0000000000000000000, 0.0000000000000000000 ) ) ;
#198 = ORIENTED_EDGE ( 'NONE', *, *, #66, .F. ) ;
#199 = EDGE_LOOP ( 'NONE', ( #129, #76, #35 ) ) ;
#200 = AXIS2_PLACEMENT_3D ( 'NONE', #193, #215, #197 ) ;
#201 = DIRECTION ( 'NONE',  ( 0.0000000000000000000, 0.0000000000000000000, 1.000000000000000000 ) ) ;
#202 = DIRECTION ( 'NONE',  ( 1.000000000000000000, 0.0000000000000000000, 0.0000000000000000000 ) ) ;
#203 = CARTESIAN_POINT ( 'NONE',  ( -4.375606567563896700, -4.388411302952929000, 0.5946648202486983800 ) ) ;
#204 = CARTESIAN_POINT ( 'NONE',  ( -4.375606567563896700, 4.388411302952932600, 0.5946648202486992700 ) ) ;
#205 = EDGE_CURVE ( 'NONE', #131, #63, #283, .T. ) ;
#206 =( BOUNDED_SURFACE ( )  B_SPLINE_SURFACE ( 3, 3, ( 
 ( #176, #244, #152, #130 ),
 ( #264, #294, #113, #25 ),
 ( #112, #26, #52, #75 ),
 ( #267, #150, #22, #175 ) ),
 .UNSPECIFIED., .F., .F., .F. ) 
 B_SPLINE_SURFACE_WITH_KNOTS ( ( 4, 4 ),
 ( 4, 4 ),
 ( 0.0000000000000000000, 1.000000000000000000 ),
 ( 0.0000000000000000000, 1.000000000000000000 ),
 .UNSPECIFIED. ) 
 GEOMETRIC_REPRESENTATION_ITEM ( )  RATIONAL_B_SPLINE_SURFACE ( (
 ( 1.000000000000000000, 0.9940334947932053500, 0.9940334947932053500, 1.000000000000000000),
 ( 0.9759582422252238700, 0.9701351822913729700, 0.9701351822913729700, 0.9759582422252238700),
 ( 0.9759582422252238700, 0.9701351822913729700, 0.9701351822913729700, 0.9759582422252238700),
 ( 1.000000000000000000, 0.9940334947932053500, 0.9940334947932053500, 1.000000000000000000) ) ) 
 REPRESENTATION_ITEM ( '' )  SURFACE ( )  );
#207 = CIRCLE ( 'NONE', #98, 12.69999999999999900 ) ;
#208 = LOCAL_TIME ( 12, 40, 55.00000000000000000, #265 ) ;
#209 =( NAMED_UNIT ( * ) PLANE_ANGLE_UNIT ( ) SI_UNIT ( $, .RADIAN. ) );
#210 = VERTEX_POINT ( 'NONE', #5 ) ;
#211 = CARTESIAN_POINT ( 'NONE',  ( 8.295694847813742000, 12.84871854417374600, -2.297286573012733000 ) ) ;
#212 = APPROVAL_STATUS ( 'not_yet_approved' ) ;
#213 = ORIENTED_EDGE ( 'NONE', *, *, #159, .F. ) ;
#214 = APPROVAL_DATE_TIME ( #248, #163 ) ;
#215 = DIRECTION ( 'NONE',  ( -0.0000000000000000000, -0.0000000000000000000, -1.000000000000000000 ) ) ;
#216 = AXIS2_PLACEMENT_3D ( 'NONE', #237, #62, #106 ) ;
#217 = CARTESIAN_POINT ( 'NONE',  ( -4.166491970935886100, 12.84871854417375300, 5.941104098049276400 ) ) ;
#218 = APPROVAL_STATUS ( 'not_yet_approved' ) ;
#219 = DIRECTION ( 'NONE',  ( 0.0000000000000000000, 1.000000000000000000, 0.0000000000000000000 ) ) ;
#220 = AXIS2_PLACEMENT_3D ( 'NONE', #272, #4, #135 ) ;
#221 = DIRECTION ( 'NONE',  ( 1.000000000000000000, 0.0000000000000000000, 0.0000000000000000000 ) ) ;
#222 = CARTESIAN_POINT ( 'NONE',  ( -3.010313391058196300E-014, 12.70000000000001400, 5.900300559149161300 ) ) ;
#223 = VERTEX_POINT ( 'NONE', #222 ) ;
#224 = CC_DESIGN_PERSON_AND_ORGANIZATION_ASSIGNMENT ( #137, #188, ( #189 ) ) ;
#225 = CIRCLE ( 'NONE', #220, 12.69999999999999900 ) ;
#226 = PERSON_AND_ORGANIZATION ( #252, #126 ) ;
#227 = ADVANCED_BREP_SHAPE_REPRESENTATION ( '114-1208E UVFS bi-cv 25.4 F-50', ( #155, #275 ), #256 ) ;
#228 = DIRECTION ( 'NONE',  ( 0.0000000000000000000, 0.0000000000000000000, 1.000000000000000000 ) ) ;
#229 = EDGE_CURVE ( 'NONE', #63, #282, #108, .T. ) ;
#230 = CARTESIAN_POINT ( 'NONE',  ( -4.166491970935871000, -12.84871854417373900, -1.741104098049270500 ) ) ;
#231 = EDGE_CURVE ( 'NONE', #292, #223, #12, .T. ) ;
#232 = CC_DESIGN_PERSON_AND_ORGANIZATION_ASSIGNMENT ( #226, #105, ( #27 ) ) ;
#233 = CARTESIAN_POINT ( 'NONE',  ( 4.375606567563895800, -4.388411302952928100, 0.5946648202486900500 ) ) ;
#234 = CARTESIAN_POINT ( 'NONE',  ( 12.93171756354217500, 4.388411302952933500, -1.147171290612847700 ) ) ;
#235 = CIRCLE ( 'NONE', #54, 48.28000000000000100 ) ;
#236 = APPLICATION_CONTEXT ( 'configuration controlled 3d designs of mechanical parts and assemblies' ) ;
#237 = CARTESIAN_POINT ( 'NONE',  ( 4.996003610813200500E-016, 2.442490654175340100E-015, 5.900300559149160400 ) ) ;
#238 = CC_DESIGN_DATE_AND_TIME_ASSIGNMENT ( #128, #81, ( #27 ) ) ;
#239 = CARTESIAN_POINT ( 'NONE',  ( 1.416715921434419700E-014, 12.69999999999999600, -1.700300559149159800 ) ) ;
#240 =( BOUNDED_SURFACE ( )  B_SPLINE_SURFACE ( 3, 3, ( 
 ( #290, #217, #86, #24 ),
 ( #288, #243, #18, #174 ),
 ( #172, #48, #42, #92 ),
 ( #263, #170, #145, #70 ) ),
 .UNSPECIFIED., .F., .F., .T. ) 
 B_SPLINE_SURFACE_WITH_KNOTS ( ( 4, 4 ),
 ( 4, 4 ),
 ( 0.0000000000000000000, 1.000000000000000000 ),
 ( 0.0000000000000000000, 1.000000000000000000 ),
 .UNSPECIFIED. ) 
 GEOMETRIC_REPRESENTATION_ITEM ( )  RATIONAL_B_SPLINE_SURFACE ( (
 ( 1.000000000000000000, 0.9940334947932054600, 0.9940334947932054600, 1.000000000000000000),
 ( 0.9759582422252238700, 0.9701351822913730800, 0.9701351822913730800, 0.9759582422252238700),
 ( 0.9759582422252238700, 0.9701351822913730800, 0.9701351822913730800, 0.9759582422252238700),
 ( 1.000000000000000000, 0.9940334947932054600, 0.9940334947932054600, 1.000000000000000000) ) ) 
 REPRESENTATION_ITEM ( '' )  SURFACE ( )  );
#241 = PERSON_AND_ORGANIZATION ( #252, #126 ) ;
#242 = FACE_OUTER_BOUND ( 'NONE', #186, .T. ) ;
#243 = CARTESIAN_POINT ( 'NONE',  ( -4.375606567563905500, 4.388411302952931700, 3.605335179751300700 ) ) ;
#244 = CARTESIAN_POINT ( 'NONE',  ( 8.295694847813742000, 12.84871854417375500, 6.497286573012724300 ) ) ;
#245 = LOCAL_TIME ( 12, 40, 55.00000000000000000, #191 ) ;
#246 = CARTESIAN_POINT ( 'NONE',  ( -12.31369789923925300, 12.84871854417374400, -3.399696126041247700 ) ) ;
#247 = ORIENTED_EDGE ( 'NONE', *, *, #231, .F. ) ;
#248 = DATE_AND_TIME ( #181, #245 ) ;
#249 = CC_DESIGN_SECURITY_CLASSIFICATION ( #41, ( #295 ) ) ;
#250 = CARTESIAN_POINT ( 'NONE',  ( -12.93171756354221500, 4.388411302952933500, -1.147171290612851700 ) ) ;
#251 = EDGE_CURVE ( 'NONE', #32, #131, #39, .T. ) ;
#252 = PERSON ( 'UNSPECIFIED', 'UNSPECIFIED', 'UNSPECIFIED', ('UNSPECIFIED'), ('UNSPECIFIED'), ('UNSPECIFIED') ) ;
#253 = VERTEX_POINT ( 'NONE', #278 ) ;
#254 = APPROVAL_DATE_TIME ( #132, #149 ) ;
#255 = ORIENTED_EDGE ( 'NONE', *, *, #177, .F. ) ;
#256 =( GEOMETRIC_REPRESENTATION_CONTEXT ( 3 ) GLOBAL_UNCERTAINTY_ASSIGNED_CONTEXT ( ( #99 ) ) GLOBAL_UNIT_ASSIGNED_CONTEXT ( ( #281, #209, #187 ) ) REPRESENTATION_CONTEXT ( 'NONE', 'WORKASPACE' ) );
#257 = DIRECTION ( 'NONE',  ( 0.0000000000000000000, 0.0000000000000000000, 1.000000000000000000 ) ) ;
#258 = EDGE_CURVE ( 'NONE', #223, #210, #235, .T. ) ;
#259 = DIRECTION ( 'NONE',  ( 0.0000000000000000000, 0.0000000000000000000, 1.000000000000000000 ) ) ;
#260 = CALENDAR_DATE ( 2019, 21, 1 ) ;
#261 = ORIENTED_EDGE ( 'NONE', *, *, #177, .T. ) ;
#262 = PERSON_AND_ORGANIZATION_ROLE ( 'design_supplier' ) ;
#263 = CARTESIAN_POINT ( 'NONE',  ( -2.239153074006273200E-014, -12.84871854417376000, 5.941104098049272900 ) ) ;
#264 = CARTESIAN_POINT ( 'NONE',  ( 12.93171756354220200, 4.388411302952937000, 5.347171290612841700 ) ) ;
#265 = COORDINATED_UNIVERSAL_TIME_OFFSET ( 2, 0, .AHEAD. ) ;
#266 = CYLINDRICAL_SURFACE ( 'NONE', #273, 12.69999999999999900 ) ;
#267 = CARTESIAN_POINT ( 'NONE',  ( 12.31369789923924400, -12.84871854417375700, 7.599696126041243000 ) ) ;
#268 = EDGE_CURVE ( 'NONE', #32, #253, #53, .T. ) ;
#269 = EDGE_LOOP ( 'NONE', ( #153, #247, #255 ) ) ;
#270 = APPROVAL_PERSON_ORGANIZATION ( #6, #34, #192 ) ;
#271 = FACE_OUTER_BOUND ( 'NONE', #127, .T. ) ;
#272 = CARTESIAN_POINT ( 'NONE',  ( 4.996003610813200500E-016, 2.442490654175340100E-015, 5.900300559149160400 ) ) ;
#273 = AXIS2_PLACEMENT_3D ( 'NONE', #73, #259, #47 ) ;
#274 = VECTOR ( 'NONE', #88, 1000.000000000000000 ) ;
#275 = AXIS2_PLACEMENT_3D ( 'NONE', #164, #83, #166 ) ;
#276 = CARTESIAN_POINT ( 'NONE',  ( 3.469446951953613800E-015, -4.388411302952929000, 0.5946648202486980500 ) ) ;
#277 = CARTESIAN_POINT ( 'NONE',  ( 3.469446951953614200E-015, -12.84871854417373900, -1.741104098049270500 ) ) ;
#278 = CARTESIAN_POINT ( 'NONE',  ( 12.69999999999999900, 2.442490654175340100E-015, 5.900300559149160400 ) ) ;
#279 = DIRECTION ( 'NONE',  ( 0.0000000000000000000, 0.0000000000000000000, 1.000000000000000000 ) ) ;
#280 = ADVANCED_FACE ( 'NONE', ( #242 ), #13, .F. ) ;
#281 =( LENGTH_UNIT ( ) NAMED_UNIT ( * ) SI_UNIT ( .MILLI., .METRE. ) );
#282 = VERTEX_POINT ( 'NONE', #59 ) ;
#283 = CIRCLE ( 'NONE', #95, 12.69999999999999900 ) ;
#284 = ADVANCED_FACE ( 'NONE', ( #114 ), #100, .T. ) ;
#285 = CARTESIAN_POINT ( 'NONE',  ( 1.486517015712891500E-014, 4.388411302952933500, 0.5946648202486921600 ) ) ;
#286 = CARTESIAN_POINT ( 'NONE',  ( 12.69999999999999900, 2.442490654175340100E-015, -1.700300559149160000 ) ) ;
#287 = DIRECTION ( 'NONE',  ( -0.0000000000000000000, -0.0000000000000000000, -1.000000000000000000 ) ) ;
#288 = CARTESIAN_POINT ( 'NONE',  ( -2.889672729459663800E-014, 4.388411302952933500, 3.605335179751298500 ) ) ;
#289 = CARTESIAN_POINT ( 'NONE',  ( 4.996003610813200500E-016, 2.442490654175340100E-015, -1.700300559149160000 ) ) ;
#290 = CARTESIAN_POINT ( 'NONE',  ( -3.012486678318908700E-014, 12.84871854417375500, 5.941104098049272900 ) ) ;
#291 = CC_DESIGN_APPROVAL ( #34, ( #41 ) ) ;
#292 = VERTEX_POINT ( 'NONE', #31 ) ;
#293 = LOCAL_TIME ( 12, 40, 55.00000000000000000, #111 ) ;
#294 = CARTESIAN_POINT ( 'NONE',  ( 8.712052516075399200, 4.388411302952936100, 4.189432234825518200 ) ) ;
#295 = PRODUCT_DEFINITION_FORMATION_WITH_SPECIFIED_SOURCE ( 'ANY', '', #189, .NOT_KNOWN. ) ;
ENDSEC;
END-ISO-10303-21;
