ISO-10303-21;
HEADER;
FILE_DESCRIPTION (( 'STEP AP203' ),
    '1' );
FILE_NAME ('114-1205E UVFS bi-cv 25.4 F-30.STEP',
    '2019-01-22T07:28:55',
    ( '' ),
    ( '' ),
    'SwSTEP 2.0',
    'SolidWorks 2017',
    '' );
FILE_SCHEMA (( 'CONFIG_CONTROL_DESIGN' ));
ENDSEC;

DATA;
#1 = CARTESIAN_POINT ( 'NONE',  ( 3.987866410902527000, -12.84165962432855500, 5.993630231971104100 ) ) ;
#2 = CARTESIAN_POINT ( 'NONE',  ( 0.0000000000000000000, -12.69999999999999600, 5.924265279337820500 ) ) ;
#3 = FACE_OUTER_BOUND ( 'NONE', #243, .T. ) ;
#4 = CC_DESIGN_PERSON_AND_ORGANIZATION_ASSIGNMENT ( #115, #289, ( #194 ) ) ;
#5 = CARTESIAN_POINT ( 'NONE',  ( -4.610266381948164800, -4.596440322648829700, 1.928484081351597100 ) ) ;
#6 = COORDINATED_UNIVERSAL_TIME_OFFSET ( 2, 0, .AHEAD. ) ;
#7 = CIRCLE ( 'NONE', #53, 12.69999999999999900 ) ;
#8 = ORIENTED_EDGE ( 'NONE', *, *, #225, .F. ) ;
#9 = DIRECTION ( 'NONE',  ( -0.0000000000000000000, -0.0000000000000000000, -1.000000000000000000 ) ) ;
#10 = DIRECTION ( 'NONE',  ( 0.0000000000000000000, 0.0000000000000000000, 1.000000000000000000 ) ) ;
#11 = ORIENTED_EDGE ( 'NONE', *, *, #221, .F. ) ;
#12 = DIRECTION ( 'NONE',  ( 0.0000000000000000000, 1.000000000000000000, 0.0000000000000000000 ) ) ;
#13 = CARTESIAN_POINT ( 'NONE',  ( 9.101564101092934700, -4.596440322648826200, 0.03093871799178527600 ) ) ;
#14 = EDGE_CURVE ( 'NONE', #180, #28, #18, .T. ) ;
#15 = CARTESIAN_POINT ( 'NONE',  ( -13.24209584264542100, 4.596440322648835100, -1.996511160480624500 ) ) ;
#16 = PERSON_AND_ORGANIZATION ( #23, #111 ) ;
#17 = CARTESIAN_POINT ( 'NONE',  ( 0.0000000000000000000, -12.84165962432854800, -2.993630231971102800 ) ) ;
#18 = LINE ( 'NONE', #170, #62 ) ;
#19 = ORIENTED_EDGE ( 'NONE', *, *, #221, .T. ) ;
#20 = APPROVAL_STATUS ( 'not_yet_approved' ) ;
#21 = APPROVAL_STATUS ( 'not_yet_approved' ) ;
#22 = CC_DESIGN_PERSON_AND_ORGANIZATION_ASSIGNMENT ( #167, #46, ( #295 ) ) ;
#23 = PERSON ( 'UNSPECIFIED', 'UNSPECIFIED', 'UNSPECIFIED', ('UNSPECIFIED'), ('UNSPECIFIED'), ('UNSPECIFIED') ) ;
#24 = ORIENTED_EDGE ( 'NONE', *, *, #63, .F. ) ;
#25 = APPROVAL_ROLE ( '' ) ;
#26 = COORDINATED_UNIVERSAL_TIME_OFFSET ( 2, 0, .AHEAD. ) ;
#27 = PERSON_AND_ORGANIZATION ( #23, #111 ) ;
#28 = VERTEX_POINT ( 'NONE', #72 ) ;
#29 =( GEOMETRIC_REPRESENTATION_CONTEXT ( 3 ) GLOBAL_UNCERTAINTY_ASSIGNED_CONTEXT ( ( #182 ) ) GLOBAL_UNIT_ASSIGNED_CONTEXT ( ( #148, #165, #287 ) ) REPRESENTATION_CONTEXT ( 'NONE', 'WORKASPACE' ) );
#30 = CARTESIAN_POINT ( 'NONE',  ( 4.996003610813200500E-016, 2.442490654175340100E-015, 5.924265279337819700 ) ) ;
#31 = EDGE_CURVE ( 'NONE', #28, #192, #212, .T. ) ;
#32 = DIRECTION ( 'NONE',  ( 1.000000000000000000, 0.0000000000000000000, 0.0000000000000000000 ) ) ;
#33 = APPROVAL_DATE_TIME ( #83, #61 ) ;
#34 = CIRCLE ( 'NONE', #40, 12.69999999999999900 ) ;
#35 = CARTESIAN_POINT ( 'NONE',  ( -7.872825289997063400, 12.84165962432855500, -3.893726348477059700 ) ) ;
#36 = DIRECTION ( 'NONE',  ( -0.0000000000000000000, -0.0000000000000000000, -1.000000000000000000 ) ) ;
#37 = DATE_AND_TIME ( #174, #293 ) ;
#38 = DIRECTION ( 'NONE',  ( 1.000000000000000000, 0.0000000000000000000, 0.0000000000000000000 ) ) ;
#39 = EDGE_LOOP ( 'NONE', ( #24, #19, #160 ) ) ;
#40 = AXIS2_PLACEMENT_3D ( 'NONE', #97, #102, #173 ) ;
#41 = CARTESIAN_POINT ( 'NONE',  ( 4.996003610813200500E-016, 2.442490654175340100E-015, 5.924265279337819700 ) ) ;
#42 = CIRCLE ( 'NONE', #222, 12.69999999999999900 ) ;
#43 = ADVANCED_FACE ( 'NONE', ( #236 ), #294, .T. ) ;
#44 = ADVANCED_FACE ( 'NONE', ( #261 ), #270, .F. ) ;
#45 = ORIENTED_EDGE ( 'NONE', *, *, #84, .F. ) ;
#46 = PERSON_AND_ORGANIZATION_ROLE ( 'design_supplier' ) ;
#47 = ORIENTED_EDGE ( 'NONE', *, *, #153, .T. ) ;
#48 = CARTESIAN_POINT ( 'NONE',  ( 11.45437266436709000, 12.84165962432856000, 8.647464332426688200 ) ) ;
#49 = EDGE_LOOP ( 'NONE', ( #262, #169, #250, #189, #239, #57 ) ) ;
#50 = AXIS2_PLACEMENT_3D ( 'NONE', #136, #205, #227 ) ;
#51 = DATE_AND_TIME ( #265, #269 ) ;
#52 = CIRCLE ( 'NONE', #166, 29.03999999999999600 ) ;
#53 = AXIS2_PLACEMENT_3D ( 'NONE', #113, #36, #32 ) ;
#54 = CARTESIAN_POINT ( 'NONE',  ( -3.987866410902524400, -12.84165962432855500, 5.993630231971105000 ) ) ;
#55 = EDGE_CURVE ( 'NONE', #215, #69, #151, .T. ) ;
#56 = CARTESIAN_POINT ( 'NONE',  ( -9.101564101092940000, -4.596440322648829700, 2.969061282008215800 ) ) ;
#57 = ORIENTED_EDGE ( 'NONE', *, *, #284, .F. ) ;
#58 = DIRECTION ( 'NONE',  ( 0.0000000000000000000, 0.0000000000000000000, 1.000000000000000000 ) ) ;
#59 = DIRECTION ( 'NONE',  ( 0.0000000000000000000, 1.000000000000000000, -2.389426275450147800E-016 ) ) ;
#60 = CARTESIAN_POINT ( 'NONE',  ( 9.101564101092934700, 4.596440322648836800, 0.03093871799178353500 ) ) ;
#61 = APPROVAL ( #21, 'UNSPECIFIED' ) ;
#62 = VECTOR ( 'NONE', #132, 1000.000000000000000 ) ;
#63 = EDGE_CURVE ( 'NONE', #192, #103, #220, .T. ) ;
#64 = CARTESIAN_POINT ( 'NONE',  ( 7.872825289997058100, 12.84165962432855700, -3.893726348477059700 ) ) ;
#65 = PERSON_AND_ORGANIZATION_ROLE ( 'creator' ) ;
#66 = PERSON_AND_ORGANIZATION_ROLE ( 'creator' ) ;
#67 = SECURITY_CLASSIFICATION_LEVEL ( 'unclassified' ) ;
#68 = CC_DESIGN_DATE_AND_TIME_ASSIGNMENT ( #37, #264, ( #272 ) ) ;
#69 = VERTEX_POINT ( 'NONE', #80 ) ;
#70 = EDGE_CURVE ( 'NONE', #69, #74, #52, .T. ) ;
#71 = CARTESIAN_POINT ( 'NONE',  ( 9.101564101092940000, 4.596440322648836800, 2.969061282008212300 ) ) ;
#72 = CARTESIAN_POINT ( 'NONE',  ( -12.69999999999999900, 3.997792089092478900E-015, 5.924265279337819700 ) ) ;
#73 = COORDINATED_UNIVERSAL_TIME_OFFSET ( 2, 0, .AHEAD. ) ;
#74 = VERTEX_POINT ( 'NONE', #171 ) ;
#75 = AXIS2_PLACEMENT_3D ( 'NONE', #99, #203, #77 ) ;
#76 = CARTESIAN_POINT ( 'NONE',  ( 13.24209584264541700, -4.596440322648828800, 4.996511160480620700 ) ) ;
#77 = DIRECTION ( 'NONE',  ( 1.000000000000000000, 0.0000000000000000000, 0.0000000000000000000 ) ) ;
#78 = VERTEX_POINT ( 'NONE', #2 ) ;
#79 = CARTESIAN_POINT ( 'NONE',  ( -11.45437266436709200, -12.84165962432855500, 8.647464332426690000 ) ) ;
#80 = CARTESIAN_POINT ( 'NONE',  ( 0.0000000000000000000, 12.69999999999999600, -2.924265279337820100 ) ) ;
#81 = AXIS2_PLACEMENT_3D ( 'NONE', #41, #119, #181 ) ;
#82 = CARTESIAN_POINT ( 'NONE',  ( -9.101564101092940000, 4.596440322648836800, 2.969061282008213200 ) ) ;
#83 = DATE_AND_TIME ( #168, #240 ) ;
#84 = EDGE_CURVE ( 'NONE', #69, #180, #34, .T. ) ;
#85 = DIRECTION ( 'NONE',  ( -1.000000000000000000, 0.0000000000000000000, 0.0000000000000000000 ) ) ;
#86 = DIRECTION ( 'NONE',  ( 0.0000000000000000000, 0.0000000000000000000, 1.000000000000000000 ) ) ;
#87 = SECURITY_CLASSIFICATION ( '', '', #67 ) ;
#88 = CARTESIAN_POINT ( 'NONE',  ( 11.45437266436709000, 12.84165962432855700, -5.647464332426689100 ) ) ;
#89 = ORIENTED_EDGE ( 'NONE', *, *, #70, .F. ) ;
#90 = DATE_TIME_ROLE ( 'classification_date' ) ;
#91 = PERSON_AND_ORGANIZATION ( #23, #111 ) ;
#92 = ORIENTED_EDGE ( 'NONE', *, *, #14, .F. ) ;
#93 = CC_DESIGN_SECURITY_CLASSIFICATION ( #87, ( #295 ) ) ;
#94 = DATE_AND_TIME ( #213, #150 ) ;
#95 = CARTESIAN_POINT ( 'NONE',  ( 8.673617379884033900E-015, 4.596440322648836800, 1.928484081351593300 ) ) ;
#96 = DIRECTION ( 'NONE',  ( 1.000000000000000000, 0.0000000000000000000, 0.0000000000000000000 ) ) ;
#97 = CARTESIAN_POINT ( 'NONE',  ( 4.996003610813200500E-016, 2.442490654175340100E-015, -2.924265279337820500 ) ) ;
#98 = CIRCLE ( 'NONE', #81, 12.69999999999999900 ) ;
#99 = CARTESIAN_POINT ( 'NONE',  ( 4.996003610813200500E-016, 2.442490654175340100E-015, -2.924265279337820500 ) ) ;
#100 =( BOUNDED_SURFACE ( )  B_SPLINE_SURFACE ( 3, 3, ( 
 ( #204, #117, #274, #277 ),
 ( #161, #251, #82, #252 ),
 ( #114, #5, #56, #157 ),
 ( #172, #54, #201, #79 ) ),
 .UNSPECIFIED., .F., .F., .F. ) 
 B_SPLINE_SURFACE_WITH_KNOTS ( ( 4, 4 ),
 ( 4, 4 ),
 ( 0.0000000000000000000, 1.000000000000000000 ),
 ( 0.0000000000000000000, 1.000000000000000000 ),
 .UNSPECIFIED. ) 
 GEOMETRIC_REPRESENTATION_ITEM ( )  RATIONAL_B_SPLINE_SURFACE ( (
 ( 1.000000000000000000, 0.9827965598301476900, 0.9827965598301476900, 1.000000000000000000),
 ( 0.9312757063367513900, 0.9152545604411501700, 0.9152545604411501700, 0.9312757063367513900),
 ( 0.9312757063367513900, 0.9152545604411501700, 0.9152545604411501700, 0.9312757063367513900),
 ( 1.000000000000000000, 0.9827965598301476900, 0.9827965598301476900, 1.000000000000000000) ) ) 
 REPRESENTATION_ITEM ( '' )  SURFACE ( )  );
#101 = VECTOR ( 'NONE', #86, 1000.000000000000000 ) ;
#102 = DIRECTION ( 'NONE',  ( 0.0000000000000000000, 0.0000000000000000000, 1.000000000000000000 ) ) ;
#103 = VERTEX_POINT ( 'NONE', #275 ) ;
#104 = AXIS2_PLACEMENT_3D ( 'NONE', #176, #58, #158 ) ;
#105 = DIRECTION ( 'NONE',  ( 0.0000000000000000000, 0.0000000000000000000, 1.000000000000000000 ) ) ;
#106 = CARTESIAN_POINT ( 'NONE',  ( 0.0000000000000000000, 12.69999999999999900, 5.924265279337820500 ) ) ;
#107 = CC_DESIGN_DATE_AND_TIME_ASSIGNMENT ( #51, #90, ( #87 ) ) ;
#108 = EDGE_CURVE ( 'NONE', #103, #78, #7, .T. ) ;
#109 = DIRECTION ( 'NONE',  ( 0.0000000000000000000, 0.0000000000000000000, 1.000000000000000000 ) ) ;
#110 = CARTESIAN_POINT ( 'NONE',  ( 5.204170427930421300E-015, 12.84165962432856000, 5.993630231971103200 ) ) ;
#111 = ORGANIZATION ( 'UNSPECIFIED', 'UNSPECIFIED', '' ) ;
#112 = CARTESIAN_POINT ( 'NONE',  ( 3.987866410902527000, 12.84165962432856200, 5.993630231971104100 ) ) ;
#113 = CARTESIAN_POINT ( 'NONE',  ( 4.996003610813200500E-016, 2.442490654175340100E-015, 5.924265279337819700 ) ) ;
#114 = CARTESIAN_POINT ( 'NONE',  ( 0.0000000000000000000, -4.596440322648828800, 1.928484081351596900 ) ) ;
#115 = PERSON_AND_ORGANIZATION ( #23, #111 ) ;
#116 = CARTESIAN_POINT ( 'NONE',  ( 12.69999999999999900, 2.442490654175340100E-015, -2.924265279337820500 ) ) ;
#117 = CARTESIAN_POINT ( 'NONE',  ( -3.987866410902524400, 12.84165962432856200, 5.993630231971105000 ) ) ;
#118 = CARTESIAN_POINT ( 'NONE',  ( 13.24209584264541700, -4.596440322648827100, -1.996511160480623600 ) ) ;
#119 = DIRECTION ( 'NONE',  ( -0.0000000000000000000, -0.0000000000000000000, -1.000000000000000000 ) ) ;
#120 = SHAPE_DEFINITION_REPRESENTATION ( #122, #137 ) ;
#121 = CARTESIAN_POINT ( 'NONE',  ( 0.0000000000000000000, 12.84165962432855700, -2.993630231971105900 ) ) ;
#122 = PRODUCT_DEFINITION_SHAPE ( 'NONE', 'NONE',  #272 ) ;
#123 = CARTESIAN_POINT ( 'NONE',  ( 0.0000000000000000000, 4.596440322648836800, 1.071515918648399800 ) ) ;
#124 = COORDINATED_UNIVERSAL_TIME_OFFSET ( 2, 0, .AHEAD. ) ;
#125 = LINE ( 'NONE', #279, #101 ) ;
#126 = MANIFOLD_SOLID_BREP ( 'Imported1', #175 ) ;
#127 = ADVANCED_FACE ( 'NONE', ( #3 ), #241, .T. ) ;
#128 = APPLICATION_PROTOCOL_DEFINITION ( 'international standard', 'config_control_design', 1994, #146 ) ;
#129 = FACE_OUTER_BOUND ( 'NONE', #247, .T. ) ;
#130 = EDGE_LOOP ( 'NONE', ( #45, #133, #224 ) ) ;
#131 = CARTESIAN_POINT ( 'NONE',  ( 11.45437266436709000, -12.84165962432855500, 8.647464332426688200 ) ) ;
#132 = DIRECTION ( 'NONE',  ( 0.0000000000000000000, 0.0000000000000000000, 1.000000000000000000 ) ) ;
#133 = ORIENTED_EDGE ( 'NONE', *, *, #70, .T. ) ;
#134 = CARTESIAN_POINT ( 'NONE',  ( -11.45437266436709200, 12.84165962432855500, -5.647464332426688200 ) ) ;
#135 = FACE_OUTER_BOUND ( 'NONE', #255, .T. ) ;
#136 = CARTESIAN_POINT ( 'NONE',  ( 4.996003610813200500E-016, 2.442490654175340100E-015, -2.924265279337820500 ) ) ;
#137 = ADVANCED_BREP_SHAPE_REPRESENTATION ( '114-1205E UVFS bi-cv 25.4 F-30', ( #126, #206 ), #29 ) ;
#138 = ORIENTED_EDGE ( 'NONE', *, *, #195, .T. ) ;
#139 = CARTESIAN_POINT ( 'NONE',  ( -5.204170427930421300E-015, 12.84165962432855700, -2.993630231971103700 ) ) ;
#140 = CARTESIAN_POINT ( 'NONE',  ( -9.101564101092938200, -4.596440322648827100, 0.03093871799178483600 ) ) ;
#141 = CARTESIAN_POINT ( 'NONE',  ( 4.610266381948164800, -4.596440322648826200, 1.071515918648401600 ) ) ;
#142 = APPROVAL_PERSON_ORGANIZATION ( #234, #61, #288 ) ;
#143 = CARTESIAN_POINT ( 'NONE',  ( -11.45437266436709000, -12.84165962432855000, -5.647464332426684700 ) ) ;
#144 = CARTESIAN_POINT ( 'NONE',  ( 0.0000000000000000000, -4.596440322648827100, 1.071515918648401600 ) ) ;
#145 = ADVANCED_FACE ( 'NONE', ( #129 ), #100, .F. ) ;
#146 = APPLICATION_CONTEXT ( 'configuration controlled 3d designs of mechanical parts and assemblies' ) ;
#147 = APPROVAL ( #20, 'UNSPECIFIED' ) ;
#148 =( LENGTH_UNIT ( ) NAMED_UNIT ( * ) SI_UNIT ( .MILLI., .METRE. ) );
#149 = APPROVAL_ROLE ( '' ) ;
#150 = LOCAL_TIME ( 9, 28, 55.00000000000000000, #164 ) ;
#151 = CIRCLE ( 'NONE', #50, 12.69999999999999900 ) ;
#152 = CC_DESIGN_APPROVAL ( #147, ( #87 ) ) ;
#153 = EDGE_CURVE ( 'NONE', #180, #74, #230, .T. ) ;
#154 = AXIS2_PLACEMENT_3D ( 'NONE', #30, #271, #96 ) ;
#155 = AXIS2_PLACEMENT_3D ( 'NONE', #163, #85, #12 ) ;
#156 = CARTESIAN_POINT ( 'NONE',  ( 8.673617379884033900E-015, -4.596440322648828800, 1.928484081351594200 ) ) ;
#157 = CARTESIAN_POINT ( 'NONE',  ( -13.24209584264541900, -4.596440322648828800, 4.996511160480626000 ) ) ;
#158 = DIRECTION ( 'NONE',  ( 1.000000000000000000, 0.0000000000000000000, 0.0000000000000000000 ) ) ;
#159 = CARTESIAN_POINT ( 'NONE',  ( 4.996003610813200500E-016, 2.442490654175340100E-015, 5.924265279337819700 ) ) ;
#160 = ORIENTED_EDGE ( 'NONE', *, *, #108, .F. ) ;
#161 = CARTESIAN_POINT ( 'NONE',  ( 0.0000000000000000000, 4.596440322648836800, 1.928484081351594700 ) ) ;
#162 = CARTESIAN_POINT ( 'NONE',  ( 11.45437266436708900, -12.84165962432854800, -5.647464332426684700 ) ) ;
#163 = CARTESIAN_POINT ( 'NONE',  ( 0.0000000000000000000, 1.776356839400250100E-015, 32.03999999999999900 ) ) ;
#164 = COORDINATED_UNIVERSAL_TIME_OFFSET ( 2, 0, .AHEAD. ) ;
#165 =( NAMED_UNIT ( * ) PLANE_ANGLE_UNIT ( ) SI_UNIT ( $, .RADIAN. ) );
#166 = AXIS2_PLACEMENT_3D ( 'NONE', #177, #38, #59 ) ;
#167 = PERSON_AND_ORGANIZATION ( #23, #111 ) ;
#168 = CALENDAR_DATE ( 2019, 22, 1 ) ;
#169 = ORIENTED_EDGE ( 'NONE', *, *, #84, .T. ) ;
#170 = CARTESIAN_POINT ( 'NONE',  ( -12.69999999999999900, 3.997792089092478900E-015, -2.924265279337820500 ) ) ;
#171 = CARTESIAN_POINT ( 'NONE',  ( 0.0000000000000000000, -12.69999999999999000, -2.924265279337820100 ) ) ;
#172 = CARTESIAN_POINT ( 'NONE',  ( 0.0000000000000000000, -12.84165962432855500, 5.993630231971105000 ) ) ;
#173 = DIRECTION ( 'NONE',  ( 1.000000000000000000, 0.0000000000000000000, 0.0000000000000000000 ) ) ;
#174 = CALENDAR_DATE ( 2019, 22, 1 ) ;
#175 = CLOSED_SHELL ( 'NONE', ( #186, #44, #43, #127, #235, #145 ) ) ;
#176 = CARTESIAN_POINT ( 'NONE',  ( 4.996003610813200500E-016, 2.442490654175340100E-015, -2.924265279337820500 ) ) ;
#177 = CARTESIAN_POINT ( 'NONE',  ( 0.0000000000000000000, 1.776356839400250100E-015, -29.03999999999999900 ) ) ;
#178 = AXIS2_PLACEMENT_3D ( 'NONE', #196, #109, #217 ) ;
#179 = CARTESIAN_POINT ( 'NONE',  ( -7.872825289997061700, -12.84165962432855000, -3.893726348477056600 ) ) ;
#180 = VERTEX_POINT ( 'NONE', #223 ) ;
#181 = DIRECTION ( 'NONE',  ( 1.000000000000000000, 0.0000000000000000000, 0.0000000000000000000 ) ) ;
#182 = UNCERTAINTY_MEASURE_WITH_UNIT (LENGTH_MEASURE( 1.000000000000000100E-005 ), #148, 'distance_accuracy_value', 'NONE');
#183 = CARTESIAN_POINT ( 'NONE',  ( 4.610266381948164800, 4.596440322648836800, 1.071515918648400200 ) ) ;
#184 = ORIENTED_EDGE ( 'NONE', *, *, #108, .T. ) ;
#185 = DIRECTION ( 'NONE',  ( 1.000000000000000000, 0.0000000000000000000, 0.0000000000000000000 ) ) ;
#186 = ADVANCED_FACE ( 'NONE', ( #209 ), #290, .F. ) ;
#187 = MECHANICAL_CONTEXT ( 'NONE', #263, 'mechanical' ) ;
#188 = APPROVAL_DATE_TIME ( #198, #147 ) ;
#189 = ORIENTED_EDGE ( 'NONE', *, *, #31, .T. ) ;
#190 = APPLICATION_PROTOCOL_DEFINITION ( 'international standard', 'config_control_design', 1994, #263 ) ;
#191 = CALENDAR_DATE ( 2019, 22, 1 ) ;
#192 = VERTEX_POINT ( 'NONE', #106 ) ;
#193 = CC_DESIGN_APPROVAL ( #242, ( #295 ) ) ;
#194 = PRODUCT ( '114-1205E UVFS bi-cv 25.4 F-30', '114-1205E UVFS bi-cv 25.4 F-30', '', ( #187 ) ) ;
#195 = EDGE_CURVE ( 'NONE', #74, #215, #42, .T. ) ;
#196 = CARTESIAN_POINT ( 'NONE',  ( 4.996003610813200500E-016, 2.442490654175340100E-015, -2.924265279337820500 ) ) ;
#197 = CARTESIAN_POINT ( 'NONE',  ( 13.24209584264541700, 4.596440322648836800, 4.996511160480619800 ) ) ;
#198 = DATE_AND_TIME ( #191, #280 ) ;
#199 = PERSON_AND_ORGANIZATION ( #23, #111 ) ;
#200 = CIRCLE ( 'NONE', #155, 29.03999999999999600 ) ;
#201 = CARTESIAN_POINT ( 'NONE',  ( -7.872825289997061700, -12.84165962432855500, 6.893726348477060600 ) ) ;
#202 = ORIENTED_EDGE ( 'NONE', *, *, #31, .F. ) ;
#203 = DIRECTION ( 'NONE',  ( 0.0000000000000000000, 0.0000000000000000000, 1.000000000000000000 ) ) ;
#204 = CARTESIAN_POINT ( 'NONE',  ( 0.0000000000000000000, 12.84165962432856000, 5.993630231971105000 ) ) ;
#205 = DIRECTION ( 'NONE',  ( 0.0000000000000000000, 0.0000000000000000000, 1.000000000000000000 ) ) ;
#206 = AXIS2_PLACEMENT_3D ( 'NONE', #232, #105, #285 ) ;
#207 = CARTESIAN_POINT ( 'NONE',  ( 3.987866410902523000, -12.84165962432854800, -2.993630231971102800 ) ) ;
#208 = CARTESIAN_POINT ( 'NONE',  ( -5.204170427930421300E-015, -12.84165962432854800, -2.993630231971101000 ) ) ;
#209 = FACE_OUTER_BOUND ( 'NONE', #130, .T. ) ;
#210 = CC_DESIGN_PERSON_AND_ORGANIZATION_ASSIGNMENT ( #199, #267, ( #87 ) ) ;
#211 = CARTESIAN_POINT ( 'NONE',  ( -6.938893903907228400E-015, -4.596440322648827100, 1.071515918648403300 ) ) ;
#212 = CIRCLE ( 'NONE', #154, 12.69999999999999900 ) ;
#213 = CALENDAR_DATE ( 2019, 22, 1 ) ;
#214 = ORIENTED_EDGE ( 'NONE', *, *, #225, .T. ) ;
#215 = VERTEX_POINT ( 'NONE', #116 ) ;
#216 = CARTESIAN_POINT ( 'NONE',  ( 4.610266381948170200, 4.596440322648836800, 1.928484081351594400 ) ) ;
#217 = DIRECTION ( 'NONE',  ( 1.000000000000000000, 0.0000000000000000000, 0.0000000000000000000 ) ) ;
#218 = CARTESIAN_POINT ( 'NONE',  ( 7.872825289997061700, -12.84165962432855500, 6.893726348477058800 ) ) ;
#219 = APPROVAL_PERSON_ORGANIZATION ( #27, #242, #149 ) ;
#220 = CIRCLE ( 'NONE', #268, 12.69999999999999900 ) ;
#221 = EDGE_CURVE ( 'NONE', #192, #78, #200, .T. ) ;
#222 = AXIS2_PLACEMENT_3D ( 'NONE', #278, #10, #185 ) ;
#223 = CARTESIAN_POINT ( 'NONE',  ( -12.69999999999999900, 3.997792089092478900E-015, -2.924265279337820500 ) ) ;
#224 = ORIENTED_EDGE ( 'NONE', *, *, #153, .F. ) ;
#225 = EDGE_CURVE ( 'NONE', #78, #28, #98, .T. ) ;
#226 = DESIGN_CONTEXT ( 'detailed design', #146, 'design' ) ;
#227 = DIRECTION ( 'NONE',  ( 1.000000000000000000, 0.0000000000000000000, 0.0000000000000000000 ) ) ;
#228 = CARTESIAN_POINT ( 'NONE',  ( -4.610266381948169300, 4.596440322648836000, 1.071515918648401100 ) ) ;
#229 = CARTESIAN_POINT ( 'NONE',  ( 7.872825289997058100, -12.84165962432854800, -3.893726348477056600 ) ) ;
#230 = CIRCLE ( 'NONE', #75, 12.69999999999999900 ) ;
#231 = CARTESIAN_POINT ( 'NONE',  ( -9.101564101092940000, 4.596440322648836000, 0.03093871799178353500 ) ) ;
#232 = CARTESIAN_POINT ( 'NONE',  ( 0.0000000000000000000, 0.0000000000000000000, 0.0000000000000000000 ) ) ;
#233 = CARTESIAN_POINT ( 'NONE',  ( -8.673617379884035500E-015, 4.596440322648836000, 1.071515918648402500 ) ) ;
#234 = PERSON_AND_ORGANIZATION ( #23, #111 ) ;
#235 = ADVANCED_FACE ( 'NONE', ( #135 ), #244, .F. ) ;
#236 = FACE_OUTER_BOUND ( 'NONE', #49, .T. ) ;
#237 = ORIENTED_EDGE ( 'NONE', *, *, #195, .F. ) ;
#238 = CC_DESIGN_APPROVAL ( #61, ( #272 ) ) ;
#239 = ORIENTED_EDGE ( 'NONE', *, *, #63, .T. ) ;
#240 = LOCAL_TIME ( 9, 28, 55.00000000000000000, #73 ) ;
#241 = CYLINDRICAL_SURFACE ( 'NONE', #104, 12.69999999999999900 ) ;
#242 = APPROVAL ( #292, 'UNSPECIFIED' ) ;
#243 = EDGE_LOOP ( 'NONE', ( #92, #47, #138, #286, #184, #214 ) ) ;
#244 =( BOUNDED_SURFACE ( )  B_SPLINE_SURFACE ( 3, 3, ( 
 ( #121, #281, #64, #88 ),
 ( #123, #183, #60, #283 ),
 ( #144, #141, #13, #118 ),
 ( #17, #207, #229, #162 ) ),
 .UNSPECIFIED., .F., .F., .T. ) 
 B_SPLINE_SURFACE_WITH_KNOTS ( ( 4, 4 ),
 ( 4, 4 ),
 ( 0.0000000000000000000, 1.000000000000000000 ),
 ( 0.0000000000000000000, 1.000000000000000000 ),
 .UNSPECIFIED. ) 
 GEOMETRIC_REPRESENTATION_ITEM ( )  RATIONAL_B_SPLINE_SURFACE ( (
 ( 1.000000000000000000, 0.9827965598301476900, 0.9827965598301476900, 1.000000000000000000),
 ( 0.9312757063367516100, 0.9152545604411503900, 0.9152545604411503900, 0.9312757063367516100),
 ( 0.9312757063367516100, 0.9152545604411503900, 0.9152545604411503900, 0.9312757063367516100),
 ( 1.000000000000000000, 0.9827965598301476900, 0.9827965598301476900, 1.000000000000000000) ) ) 
 REPRESENTATION_ITEM ( '' )  SURFACE ( )  );
#245 = CARTESIAN_POINT ( 'NONE',  ( 4.610266381948170200, -4.596440322648829700, 1.928484081351595500 ) ) ;
#246 = APPROVAL_DATE_TIME ( #94, #242 ) ;
#247 = EDGE_LOOP ( 'NONE', ( #11, #202, #8 ) ) ;
#248 = CARTESIAN_POINT ( 'NONE',  ( 7.872825289997061700, 12.84165962432856200, 6.893726348477058800 ) ) ;
#249 = CARTESIAN_POINT ( 'NONE',  ( 5.204170427930421300E-015, -12.84165962432855500, 5.993630231971103200 ) ) ;
#250 = ORIENTED_EDGE ( 'NONE', *, *, #14, .T. ) ;
#251 = CARTESIAN_POINT ( 'NONE',  ( -4.610266381948165700, 4.596440322648836800, 1.928484081351594900 ) ) ;
#252 = CARTESIAN_POINT ( 'NONE',  ( -13.24209584264542300, 4.596440322648836800, 4.996511160480624300 ) ) ;
#253 = DIRECTION ( 'NONE',  ( 1.000000000000000000, 0.0000000000000000000, 0.0000000000000000000 ) ) ;
#254 = PERSON_AND_ORGANIZATION ( #23, #111 ) ;
#255 = EDGE_LOOP ( 'NONE', ( #89, #266, #237 ) ) ;
#256 = CC_DESIGN_PERSON_AND_ORGANIZATION_ASSIGNMENT ( #254, #65, ( #295 ) ) ;
#257 = CARTESIAN_POINT ( 'NONE',  ( -3.987866410902527000, 12.84165962432855700, -2.993630231971104100 ) ) ;
#258 = CARTESIAN_POINT ( 'NONE',  ( -13.24209584264541700, -4.596440322648827100, -1.996511160480622900 ) ) ;
#259 = CARTESIAN_POINT ( 'NONE',  ( -4.610266381948167500, -4.596440322648827100, 1.071515918648402500 ) ) ;
#260 = APPROVAL_PERSON_ORGANIZATION ( #91, #147, #25 ) ;
#261 = FACE_OUTER_BOUND ( 'NONE', #39, .T. ) ;
#262 = ORIENTED_EDGE ( 'NONE', *, *, #55, .T. ) ;
#263 = APPLICATION_CONTEXT ( 'configuration controlled 3d designs of mechanical parts and assemblies' ) ;
#264 = DATE_TIME_ROLE ( 'creation_date' ) ;
#265 = CALENDAR_DATE ( 2019, 22, 1 ) ;
#266 = ORIENTED_EDGE ( 'NONE', *, *, #55, .F. ) ;
#267 = PERSON_AND_ORGANIZATION_ROLE ( 'classification_officer' ) ;
#268 = AXIS2_PLACEMENT_3D ( 'NONE', #159, #9, #253 ) ;
#269 = LOCAL_TIME ( 9, 28, 55.00000000000000000, #124 ) ;
#270 =( BOUNDED_SURFACE ( )  B_SPLINE_SURFACE ( 3, 3, ( 
 ( #48, #248, #112, #110 ),
 ( #197, #71, #216, #95 ),
 ( #76, #273, #245, #156 ),
 ( #131, #218, #1, #249 ) ),
 .UNSPECIFIED., .F., .F., .F. ) 
 B_SPLINE_SURFACE_WITH_KNOTS ( ( 4, 4 ),
 ( 4, 4 ),
 ( 0.0000000000000000000, 1.000000000000000000 ),
 ( 0.0000000000000000000, 1.000000000000000000 ),
 .UNSPECIFIED. ) 
 GEOMETRIC_REPRESENTATION_ITEM ( )  RATIONAL_B_SPLINE_SURFACE ( (
 ( 1.000000000000000000, 0.9827965598301476900, 0.9827965598301476900, 1.000000000000000000),
 ( 0.9312757063367513900, 0.9152545604411501700, 0.9152545604411501700, 0.9312757063367513900),
 ( 0.9312757063367513900, 0.9152545604411501700, 0.9152545604411501700, 0.9312757063367513900),
 ( 1.000000000000000000, 0.9827965598301476900, 0.9827965598301476900, 1.000000000000000000) ) ) 
 REPRESENTATION_ITEM ( '' )  SURFACE ( )  );
#271 = DIRECTION ( 'NONE',  ( -0.0000000000000000000, -0.0000000000000000000, -1.000000000000000000 ) ) ;
#272 = PRODUCT_DEFINITION ( 'UNKNOWN', '', #295, #226 ) ;
#273 = CARTESIAN_POINT ( 'NONE',  ( 9.101564101092940000, -4.596440322648829700, 2.969061282008213200 ) ) ;
#274 = CARTESIAN_POINT ( 'NONE',  ( -7.872825289997061700, 12.84165962432856200, 6.893726348477060600 ) ) ;
#275 = CARTESIAN_POINT ( 'NONE',  ( 12.69999999999999900, 2.442490654175340100E-015, 5.924265279337819700 ) ) ;
#276 = CC_DESIGN_PERSON_AND_ORGANIZATION_ASSIGNMENT ( #16, #66, ( #272 ) ) ;
#277 = CARTESIAN_POINT ( 'NONE',  ( -11.45437266436709200, 12.84165962432856000, 8.647464332426690000 ) ) ;
#278 = CARTESIAN_POINT ( 'NONE',  ( 4.996003610813200500E-016, 2.442490654175340100E-015, -2.924265279337820500 ) ) ;
#279 = CARTESIAN_POINT ( 'NONE',  ( 12.69999999999999900, 2.442490654175340100E-015, -2.924265279337820500 ) ) ;
#280 = LOCAL_TIME ( 9, 28, 55.00000000000000000, #6 ) ;
#281 = CARTESIAN_POINT ( 'NONE',  ( 3.987866410902523900, 12.84165962432855700, -2.993630231971105900 ) ) ;
#282 = CARTESIAN_POINT ( 'NONE',  ( -3.987866410902527000, -12.84165962432854800, -2.993630231971101900 ) ) ;
#283 = CARTESIAN_POINT ( 'NONE',  ( 13.24209584264541700, 4.596440322648836000, -1.996511160480625200 ) ) ;
#284 = EDGE_CURVE ( 'NONE', #215, #103, #125, .T. ) ;
#285 = DIRECTION ( 'NONE',  ( 1.000000000000000000, 0.0000000000000000000, 0.0000000000000000000 ) ) ;
#286 = ORIENTED_EDGE ( 'NONE', *, *, #284, .T. ) ;
#287 =( NAMED_UNIT ( * ) SI_UNIT ( $, .STERADIAN. ) SOLID_ANGLE_UNIT ( ) );
#288 = APPROVAL_ROLE ( '' ) ;
#289 = PERSON_AND_ORGANIZATION_ROLE ( 'design_owner' ) ;
#290 =( BOUNDED_SURFACE ( )  B_SPLINE_SURFACE ( 3, 3, ( 
 ( #134, #35, #257, #139 ),
 ( #15, #231, #228, #233 ),
 ( #258, #140, #259, #211 ),
 ( #143, #179, #282, #208 ) ),
 .UNSPECIFIED., .F., .F., .F. ) 
 B_SPLINE_SURFACE_WITH_KNOTS ( ( 4, 4 ),
 ( 4, 4 ),
 ( 0.0000000000000000000, 1.000000000000000000 ),
 ( 0.0000000000000000000, 1.000000000000000000 ),
 .UNSPECIFIED. ) 
 GEOMETRIC_REPRESENTATION_ITEM ( )  RATIONAL_B_SPLINE_SURFACE ( (
 ( 1.000000000000000000, 0.9827965598301476900, 0.9827965598301476900, 1.000000000000000000),
 ( 0.9312757063367516100, 0.9152545604411503900, 0.9152545604411503900, 0.9312757063367516100),
 ( 0.9312757063367516100, 0.9152545604411503900, 0.9152545604411503900, 0.9312757063367516100),
 ( 1.000000000000000000, 0.9827965598301476900, 0.9827965598301476900, 1.000000000000000000) ) ) 
 REPRESENTATION_ITEM ( '' )  SURFACE ( )  );
#291 = PRODUCT_RELATED_PRODUCT_CATEGORY ( 'detail', '', ( #194 ) ) ;
#292 = APPROVAL_STATUS ( 'not_yet_approved' ) ;
#293 = LOCAL_TIME ( 9, 28, 55.00000000000000000, #26 ) ;
#294 = CYLINDRICAL_SURFACE ( 'NONE', #178, 12.69999999999999900 ) ;
#295 = PRODUCT_DEFINITION_FORMATION_WITH_SPECIFIED_SOURCE ( 'ANY', '', #194, .NOT_KNOWN. ) ;
ENDSEC;
END-ISO-10303-21;
