ISO-10303-21;
HEADER;
FILE_DESCRIPTION(('STEP AP214'),'1');
FILE_NAME('114-1204E.stp','2021-09-28T13:17:23',(' '),('ZEMAX'),'Spatial InterOp 3D',' ',' ');
FILE_SCHEMA(('AUTOMOTIVE_DESIGN { 1 0 10303 214 1 1 1 1 }'));
ENDSEC;
DATA;
#1=PRODUCT_DEFINITION_CONTEXT('',#15,'design');
#2=APPLICATION_PROTOCOL_DEFINITION('INTERNATIONAL STANDARD','automotive_design',1994,#15);
#3=PRODUCT_CATEGORY_RELATIONSHIP('NONE','NONE',#16,#17);
#4=SHAPE_DEFINITION_REPRESENTATION(#18,#19);
#5=PRODUCT_DEFINITION_CONTEXT('',#20,'design');
#6=APPLICATION_PROTOCOL_DEFINITION('INTERNATIONAL STANDARD','automotive_design',1994,#20);
#7=PRODUCT_CATEGORY_RELATIONSHIP('NONE','NONE',#21,#22);
#8=CONTEXT_DEPENDENT_SHAPE_REPRESENTATION(#23,#24);
#9=SHAPE_DEFINITION_REPRESENTATION(#25,#26);
#10=SHAPE_REPRESENTATION_RELATIONSHIP('NONE','NONE',#26,#27);
#11= (GEOMETRIC_REPRESENTATION_CONTEXT(3)GLOBAL_UNCERTAINTY_ASSIGNED_CONTEXT((#30))GLOBAL_UNIT_ASSIGNED_CONTEXT((#32,#33,#34))REPRESENTATION_CONTEXT('NONE','WORKSPACE'));
#15=APPLICATION_CONTEXT(' ');
#16=PRODUCT_CATEGORY('part','NONE');
#17=PRODUCT_RELATED_PRODUCT_CATEGORY('detail',' ',(#36));
#18=PRODUCT_DEFINITION_SHAPE('NONE','NONE',#37);
#19=SHAPE_REPRESENTATION('114-1204E.zmx',(#38,#39),#40);
#20=APPLICATION_CONTEXT(' ');
#21=PRODUCT_CATEGORY('part','NONE');
#22=PRODUCT_RELATED_PRODUCT_CATEGORY('detail',' ',(#41));
#23=(REPRESENTATION_RELATIONSHIP('','',#26,#19)REPRESENTATION_RELATIONSHIP_WITH_TRANSFORMATION(#44)SHAPE_REPRESENTATION_RELATIONSHIP());
#24=PRODUCT_DEFINITION_SHAPE('NAUO-PROD-DEF','NAUO-PROD-DEF',#46);
#25=PRODUCT_DEFINITION_SHAPE('NONE','NONE',#47);
#26=SHAPE_REPRESENTATION('surfaces 1,2',(#38),#40);
#27=ADVANCED_BREP_SHAPE_REPRESENTATION('',(#48),#11);
#30=UNCERTAINTY_MEASURE_WITH_UNIT(LENGTH_MEASURE(1.0E-06),#32,'','');
#32= (CONVERSION_BASED_UNIT('MILLIMETRE',#51)LENGTH_UNIT()NAMED_UNIT(#54));
#33= (NAMED_UNIT(#56)PLANE_ANGLE_UNIT()SI_UNIT($,.RADIAN.));
#34= (NAMED_UNIT(#56)SOLID_ANGLE_UNIT()SI_UNIT($,.STERADIAN.));
#36=PRODUCT('114-1204E.zmx','114-1204E.zmx','PART--DESC',(#62));
#37=PRODUCT_DEFINITION('114-1204E.zmx','114-1204E.zmx',#63,#1);
#38=AXIS2_PLACEMENT_3D('',#64,#65,#66);
#39=AXIS2_PLACEMENT_3D('',#67,#68,#69);
#40= (GEOMETRIC_REPRESENTATION_CONTEXT(3)GLOBAL_UNCERTAINTY_ASSIGNED_CONTEXT((#72))GLOBAL_UNIT_ASSIGNED_CONTEXT((#74,#75,#76))REPRESENTATION_CONTEXT('NONE','WORKSPACE'));
#41=PRODUCT('surfaces 1,2','surfaces 1,2','PART-surfaces 1,2-DESC',(#78));
#44=ITEM_DEFINED_TRANSFORMATION('','',#38,#39);
#46=NEXT_ASSEMBLY_USAGE_OCCURRENCE('','','',#37,#47,$);
#47=PRODUCT_DEFINITION('surfaces 1,2','surfaces 1,2',#79,#5);
#48=MANIFOLD_SOLID_BREP('',#80);
#51=LENGTH_MEASURE_WITH_UNIT(LENGTH_MEASURE(1.0),#81);
#54=DIMENSIONAL_EXPONENTS(1.0,0.0,0.0,0.0,0.0,0.0,0.0);
#56=DIMENSIONAL_EXPONENTS(0.0,0.0,0.0,0.0,0.0,0.0,0.0);
#62=PRODUCT_CONTEXT('',#15,'mechanical');
#63=PRODUCT_DEFINITION_FORMATION_WITH_SPECIFIED_SOURCE(' ','NONE',#36,.NOT_KNOWN.);
#64=CARTESIAN_POINT('',(0.0,0.0,0.0));
#65=DIRECTION('',(0.0,0.0,1.0));
#66=DIRECTION('',(1.0,0.0,0.0));
#67=CARTESIAN_POINT('',(0.0,0.0,0.0));
#68=DIRECTION('',(0.0,0.0,1.0));
#69=DIRECTION('',(1.0,0.0,0.0));
#72=UNCERTAINTY_MEASURE_WITH_UNIT(LENGTH_MEASURE(1.0E-06),#74,'','');
#74= (CONVERSION_BASED_UNIT('MILLIMETRE',#84)LENGTH_UNIT()NAMED_UNIT(#87));
#75= (NAMED_UNIT(#89)PLANE_ANGLE_UNIT()SI_UNIT($,.RADIAN.));
#76= (NAMED_UNIT(#89)SOLID_ANGLE_UNIT()SI_UNIT($,.STERADIAN.));
#78=PRODUCT_CONTEXT('',#20,'mechanical');
#79=PRODUCT_DEFINITION_FORMATION_WITH_SPECIFIED_SOURCE(' ','NONE',#41,.NOT_KNOWN.);
#80=CLOSED_SHELL('',(#95,#96,#97,#98,#99));
#81= (NAMED_UNIT(#54)LENGTH_UNIT()SI_UNIT(.MILLI.,.METRE.));
#84=LENGTH_MEASURE_WITH_UNIT(LENGTH_MEASURE(1.0),#101);
#87=DIMENSIONAL_EXPONENTS(1.0,0.0,0.0,0.0,0.0,0.0,0.0);
#89=DIMENSIONAL_EXPONENTS(0.0,0.0,0.0,0.0,0.0,0.0,0.0);
#95=ADVANCED_FACE('',(#102,#103),#104,.F.);
#96=ADVANCED_FACE('',(#105),#106,.F.);
#97=ADVANCED_FACE('',(#107,#108),#109,.F.);
#98=ADVANCED_FACE('',(#110),#111,.F.);
#99=ADVANCED_FACE('',(#112,#113),#114,.T.);
#101= (NAMED_UNIT(#87)LENGTH_UNIT()SI_UNIT(.MILLI.,.METRE.));
#102=FACE_BOUND('',#116,.T.);
#103=FACE_OUTER_BOUND('',#117,.T.);
#104=PLANE('',#118);
#105=FACE_OUTER_BOUND('',#119,.T.);
#106=SPHERICAL_SURFACE('',#120,24.28);
#107=FACE_BOUND('',#121,.T.);
#108=FACE_OUTER_BOUND('',#122,.T.);
#109=PLANE('',#123);
#110=FACE_OUTER_BOUND('',#124,.T.);
#111=SPHERICAL_SURFACE('',#125,24.28);
#112=FACE_BOUND('',#126,.T.);
#113=FACE_BOUND('',#127,.T.);
#114=CYLINDRICAL_SURFACE('',#128,12.7);
#116=EDGE_LOOP('',(#129));
#117=EDGE_LOOP('',(#130,#131));
#118=AXIS2_PLACEMENT_3D('',#132,#133,#134);
#119=EDGE_LOOP('',(#135));
#120=AXIS2_PLACEMENT_3D('',#136,#137,#138);
#121=EDGE_LOOP('',(#139));
#122=EDGE_LOOP('',(#140,#141));
#123=AXIS2_PLACEMENT_3D('',#142,#143,#144);
#124=EDGE_LOOP('',(#145));
#125=AXIS2_PLACEMENT_3D('',#146,#147,#148);
#126=EDGE_LOOP('',(#149,#150));
#127=EDGE_LOOP('',(#151,#152));
#128=AXIS2_PLACEMENT_3D('',#153,#154,#155);
#129=ORIENTED_EDGE('',*,*,#156,.F.);
#130=ORIENTED_EDGE('',*,*,#157,.T.);
#131=ORIENTED_EDGE('',*,*,#158,.T.);
#132=CARTESIAN_POINT('',(1.12730030551386E-05,18.5747130538933,-3.03250838334087));
#133=DIRECTION('',(0.0,0.0,1.0));
#134=DIRECTION('',(1.0,0.0,0.0));
#135=ORIENTED_EDGE('',*,*,#156,.T.);
#136=CARTESIAN_POINT('',(0.0,0.0,-24.28));
#137=DIRECTION('',(0.0,0.0,1.0));
#138=DIRECTION('',(0.0,1.0,0.0));
#139=ORIENTED_EDGE('',*,*,#159,.F.);
#140=ORIENTED_EDGE('',*,*,#160,.T.);
#141=ORIENTED_EDGE('',*,*,#161,.T.);
#142=CARTESIAN_POINT('',(-1.1273003065998E-05,18.5747130538933,6.03250838334087));
#143=DIRECTION('',(0.0,0.0,-1.0));
#144=DIRECTION('',(-1.0,0.0,0.0));
#145=ORIENTED_EDGE('',*,*,#159,.T.);
#146=CARTESIAN_POINT('',(0.0,0.0,27.28));
#147=DIRECTION('',(0.0,0.0,1.0));
#148=DIRECTION('',(0.0,1.0,0.0));
#149=ORIENTED_EDGE('',*,*,#157,.F.);
#150=ORIENTED_EDGE('',*,*,#158,.F.);
#151=ORIENTED_EDGE('',*,*,#161,.F.);
#152=ORIENTED_EDGE('',*,*,#160,.F.);
#153=CARTESIAN_POINT('',(0.0,0.0,1.5));
#154=DIRECTION('',(0.0,-0.0,1.0));
#155=DIRECTION('',(0.0,1.0,0.0));
#156=EDGE_CURVE('',#162,#162,#163,.T.);
#157=EDGE_CURVE('',#164,#165,#166,.T.);
#158=EDGE_CURVE('',#165,#164,#167,.T.);
#159=EDGE_CURVE('',#168,#168,#169,.T.);
#160=EDGE_CURVE('',#170,#171,#172,.T.);
#161=EDGE_CURVE('',#171,#170,#173,.T.);
#162=VERTEX_POINT('',#174);
#163=CIRCLE('',#175,11.75);
#164=VERTEX_POINT('',#176);
#165=VERTEX_POINT('',#177);
#166=CIRCLE('',#178,12.7);
#167=CIRCLE('',#179,12.7);
#168=VERTEX_POINT('',#180);
#169=CIRCLE('',#181,11.75);
#170=VERTEX_POINT('',#182);
#171=VERTEX_POINT('',#183);
#172=CIRCLE('',#184,12.7);
#173=CIRCLE('',#185,12.7);
#174=CARTESIAN_POINT('',(8.99713644247833E-15,-11.75,-3.03250838334087));
#175=AXIS2_PLACEMENT_3D('',#186,#187,#188);
#176=CARTESIAN_POINT('',(-1.55530143491714E-15,-12.7,-3.03250838334087));
#177=CARTESIAN_POINT('',(0.0,12.7,-3.03250838334087));
#178=AXIS2_PLACEMENT_3D('',#189,#190,#191);
#179=AXIS2_PLACEMENT_3D('',#192,#193,#194);
#180=CARTESIAN_POINT('',(1.43895998899814E-15,-11.75,6.03250838334087));
#181=AXIS2_PLACEMENT_3D('',#195,#196,#197);
#182=CARTESIAN_POINT('',(1.55530143491714E-15,-12.7,6.03250838334087));
#183=CARTESIAN_POINT('',(0.0,12.7,6.03250838334087));
#184=AXIS2_PLACEMENT_3D('',#198,#199,#200);
#185=AXIS2_PLACEMENT_3D('',#201,#202,#203);
#186=CARTESIAN_POINT('',(0.0,0.0,-3.03250838334087));
#187=DIRECTION('',(0.0,0.0,-1.0));
#188=DIRECTION('',(0.0,1.0,0.0));
#189=CARTESIAN_POINT('',(0.0,0.0,-3.03250838334087));
#190=DIRECTION('',(0.0,0.0,-1.0));
#191=DIRECTION('',(0.0,1.0,0.0));
#192=CARTESIAN_POINT('',(0.0,0.0,-3.03250838334087));
#193=DIRECTION('',(0.0,0.0,-1.0));
#194=DIRECTION('',(0.0,1.0,0.0));
#195=CARTESIAN_POINT('',(0.0,0.0,6.03250838334087));
#196=DIRECTION('',(0.0,-0.0,1.0));
#197=DIRECTION('',(0.0,1.0,0.0));
#198=CARTESIAN_POINT('',(0.0,0.0,6.03250838334087));
#199=DIRECTION('',(0.0,-0.0,1.0));
#200=DIRECTION('',(0.0,1.0,0.0));
#201=CARTESIAN_POINT('',(0.0,0.0,6.03250838334087));
#202=DIRECTION('',(0.0,-0.0,1.0));
#203=DIRECTION('',(0.0,1.0,0.0));
#204=PRESENTATION_LAYER_ASSIGNMENT('0','Level 0',(#95,#96,#97,#98));
ENDSEC;
END-ISO-10303-21;
