ISO-10303-21;
HEADER;
FILE_DESCRIPTION (( 'STEP AP203' ),
    '1' );
FILE_NAME ('114-1122E UVFS bi-cv 12.7 F-100.STEP',
    '2019-01-21T10:06:22',
    ( '' ),
    ( '' ),
    'SwSTEP 2.0',
    'SolidWorks 2017',
    '' );
FILE_SCHEMA (( 'CONFIG_CONTROL_DESIGN' ));
ENDSEC;

DATA;
#1 = PRODUCT_DEFINITION ( 'UNKNOWN', '', #172, #60 ) ;
#2 =( BOUNDED_SURFACE ( )  B_SPLINE_SURFACE ( 3, 3, ( 
 ( #63, #260, #83, #289 ),
 ( #233, #147, #119, #286 ),
 ( #21, #66, #20, #42 ),
 ( #243, #67, #154, #175 ) ),
 .UNSPECIFIED., .F., .F., .T. ) 
 B_SPLINE_SURFACE_WITH_KNOTS ( ( 4, 4 ),
 ( 4, 4 ),
 ( 0.0000000000000000000, 1.000000000000000000 ),
 ( 0.0000000000000000000, 1.000000000000000000 ),
 .UNSPECIFIED. ) 
 GEOMETRIC_REPRESENTATION_ITEM ( )  RATIONAL_B_SPLINE_SURFACE ( (
 ( 1.000000000000000000, 0.9996278655007652100, 0.9996278655007652100, 1.000000000000000000),
 ( 0.9984940802611107500, 0.9981225061665638400, 0.9981225061665638400, 0.9984940802611107500),
 ( 0.9984940802611107500, 0.9981225061665638400, 0.9981225061665638400, 0.9984940802611107500),
 ( 1.000000000000000000, 0.9996278655007652100, 0.9996278655007652100, 1.000000000000000000) ) ) 
 REPRESENTATION_ITEM ( '' )  SURFACE ( )  );
#3 = CARTESIAN_POINT ( 'NONE',  ( -7.105427357601000300E-015, -3.552713678800500300E-014, -95.65999999999999700 ) ) ;
#4 = ORIENTED_EDGE ( 'NONE', *, *, #187, .F. ) ;
#5 = CARTESIAN_POINT ( 'NONE',  ( 6.349999999999999600, 1.221245327087670000E-015, -0.2109921476393759900 ) ) ;
#6 = EDGE_CURVE ( 'NONE', #102, #294, #96, .T. ) ;
#7 = CARTESIAN_POINT ( 'NONE',  ( 6.071532165918824800E-015, -6.426085853309446700, 3.016084423333218000 ) ) ;
#8 = SECURITY_CLASSIFICATION ( '', '', #182 ) ;
#9 = AXIS2_PLACEMENT_3D ( 'NONE', #204, #36, #288 ) ;
#10 = ORIENTED_EDGE ( 'NONE', *, *, #194, .T. ) ;
#11 = CIRCLE ( 'NONE', #167, 95.65999999999998200 ) ;
#12 = APPROVAL_PERSON_ORGANIZATION ( #277, #276, #139 ) ;
#13 = DIRECTION ( 'NONE',  ( 1.000000000000000000, 0.0000000000000000000, 0.0000000000000000000 ) ) ;
#14 = ORIENTED_EDGE ( 'NONE', *, *, #205, .T. ) ;
#15 = CARTESIAN_POINT ( 'NONE',  ( -2.602085213965210600E-015, 6.426085853309425400, -0.2160844233332345500 ) ) ;
#16 = CC_DESIGN_APPROVAL ( #283, ( #172 ) ) ;
#17 = AXIS2_PLACEMENT_3D ( 'NONE', #50, #107, #26 ) ;
#18 = CYLINDRICAL_SURFACE ( 'NONE', #94, 6.349999999999999600 ) ;
#19 = CARTESIAN_POINT ( 'NONE',  ( -6.349999999999999600, 1.998896044546239400E-015, -0.2109921476393759900 ) ) ;
#20 = CARTESIAN_POINT ( 'NONE',  ( -4.264684288320369300, -2.145259205953102800, 2.799120319412112600 ) ) ;
#21 = CARTESIAN_POINT ( 'NONE',  ( -1.737436949190292500E-014, -2.145259205953102800, 2.727863226698115100 ) ) ;
#22 = CARTESIAN_POINT ( 'NONE',  ( 2.126515804009217400, -6.426085853309449400, -0.2160844233332215300 ) ) ;
#23 = ORIENTED_EDGE ( 'NONE', *, *, #6, .T. ) ;
#24 = CALENDAR_DATE ( 2019, 21, 1 ) ;
#25 = CARTESIAN_POINT ( 'NONE',  ( 2.132937448867258100, -2.145259205953100600, 2.727863226698115100 ) ) ;
#26 = DIRECTION ( 'NONE',  ( 1.000000000000000000, 0.0000000000000000000, 0.0000000000000000000 ) ) ;
#27 = DIRECTION ( 'NONE',  ( 0.0000000000000000000, 0.0000000000000000000, 1.000000000000000000 ) ) ;
#28 = LOCAL_TIME ( 12, 6, 22.00000000000000000, #250 ) ;
#29 = APPLICATION_CONTEXT ( 'configuration controlled 3d designs of mechanical parts and assemblies' ) ;
#30 = ORIENTED_EDGE ( 'NONE', *, *, #230, .T. ) ;
#31 = DATE_AND_TIME ( #90, #130 ) ;
#32 = ORIENTED_EDGE ( 'NONE', *, *, #278, .T. ) ;
#33 = AXIS2_PLACEMENT_3D ( 'NONE', #272, #156, #91 ) ;
#34 = PERSON_AND_ORGANIZATION ( #58, #93 ) ;
#35 = CC_DESIGN_PERSON_AND_ORGANIZATION_ASSIGNMENT ( #267, #282, ( #8 ) ) ;
#36 = DIRECTION ( 'NONE',  ( 0.0000000000000000000, 0.0000000000000000000, 1.000000000000000000 ) ) ;
#37 = VERTEX_POINT ( 'NONE', #237 ) ;
#38 = CARTESIAN_POINT ( 'NONE',  ( 7.105427357601000300E-015, -3.552713678800500300E-014, 98.45999999999999400 ) ) ;
#39 = CARTESIAN_POINT ( 'NONE',  ( -5.204170427930421300E-015, -6.426085853309446700, -0.2160844233332206700 ) ) ;
#40 = CARTESIAN_POINT ( 'NONE',  ( -4.251844583177656600, -6.426085853309446700, -0.2871269819814061300 ) ) ;
#41 = DIRECTION ( 'NONE',  ( 0.0000000000000000000, 0.0000000000000000000, 1.000000000000000000 ) ) ;
#42 = CARTESIAN_POINT ( 'NONE',  ( -6.392860628731535000, -2.145259205953104200, 2.941554953172562700 ) ) ;
#43 = CARTESIAN_POINT ( 'NONE',  ( 2.602085213965210600E-015, 6.426085853309425400, 3.016084423333231800 ) ) ;
#44 = EDGE_CURVE ( 'NONE', #174, #223, #121, .T. ) ;
#45 = LINE ( 'NONE', #104, #281 ) ;
#46 = CARTESIAN_POINT ( 'NONE',  ( 4.251844583177660100, -6.426085853309449400, -0.2871269819814067900 ) ) ;
#47 = CARTESIAN_POINT ( 'NONE',  ( 4.264684288320363900, -2.145259205953099700, 2.799120319412111300 ) ) ;
#48 = CIRCLE ( 'NONE', #59, 6.349999999999999600 ) ;
#49 = COORDINATED_UNIVERSAL_TIME_OFFSET ( 2, 0, .AHEAD. ) ;
#50 = CARTESIAN_POINT ( 'NONE',  ( 2.498001805406600200E-016, 1.221245327087670000E-015, -0.2109921476393759900 ) ) ;
#51 = CARTESIAN_POINT ( 'NONE',  ( -1.602277152428069400E-014, -6.349999999999963200, 3.010992147639385500 ) ) ;
#52 = DIRECTION ( 'NONE',  ( 3.037693496532732200E-016, 1.000000000000000000, 5.802963749870148000E-016 ) ) ;
#53 = APPROVAL_ROLE ( '' ) ;
#54 = EDGE_CURVE ( 'NONE', #294, #290, #48, .T. ) ;
#55 = DATE_TIME_ROLE ( 'creation_date' ) ;
#56 = EDGE_LOOP ( 'NONE', ( #79, #23, #177 ) ) ;
#57 = DATE_AND_TIME ( #153, #178 ) ;
#58 = PERSON ( 'UNSPECIFIED', 'UNSPECIFIED', 'UNSPECIFIED', ('UNSPECIFIED'), ('UNSPECIFIED'), ('UNSPECIFIED') ) ;
#59 = AXIS2_PLACEMENT_3D ( 'NONE', #100, #262, #150 ) ;
#60 = DESIGN_CONTEXT ( 'detailed design', #29, 'design' ) ;
#61 = ORIENTED_EDGE ( 'NONE', *, *, #44, .T. ) ;
#62 = APPROVAL_DATE_TIME ( #74, #283 ) ;
#63 = CARTESIAN_POINT ( 'NONE',  ( -1.990241799827090400E-014, 6.426085853309424500, 3.016084423333231800 ) ) ;
#64 = AXIS2_PLACEMENT_3D ( 'NONE', #38, #188, #190 ) ;
#65 = CARTESIAN_POINT ( 'NONE',  ( 2.126515804009220500, 6.426085853309424500, -0.2160844233332354400 ) ) ;
#66 = CARTESIAN_POINT ( 'NONE',  ( -2.132937448867268300, -2.145259205953101900, 2.727863226698115500 ) ) ;
#67 = CARTESIAN_POINT ( 'NONE',  ( -2.126515804009217400, -6.426085853309449400, 3.016084423333218900 ) ) ;
#68 = CARTESIAN_POINT ( 'NONE',  ( 4.264684288320369300, 2.145259205953077100, 0.0008796805878725880500 ) ) ;
#69 = EDGE_CURVE ( 'NONE', #102, #92, #113, .T. ) ;
#70 = DIRECTION ( 'NONE',  ( -0.0000000000000000000, -0.0000000000000000000, -1.000000000000000000 ) ) ;
#71 = ORIENTED_EDGE ( 'NONE', *, *, #141, .F. ) ;
#72 = PERSON_AND_ORGANIZATION ( #58, #93 ) ;
#73 = CARTESIAN_POINT ( 'NONE',  ( -6.349999999999999600, 1.998896044546239400E-015, 3.010992147639380600 ) ) ;
#74 = DATE_AND_TIME ( #24, #261 ) ;
#75 = PRODUCT ( '114-1122E UVFS bi-cv 12.7 F-100', '114-1122E UVFS bi-cv 12.7 F-100', '', ( #200 ) ) ;
#76 = ADVANCED_FACE ( 'NONE', ( #165 ), #161, .T. ) ;
#77 = AXIS2_PLACEMENT_3D ( 'NONE', #122, #209, #13 ) ;
#78 = DIRECTION ( 'NONE',  ( 1.000000000000000000, 0.0000000000000000000, 0.0000000000000000000 ) ) ;
#79 = ORIENTED_EDGE ( 'NONE', *, *, #69, .F. ) ;
#80 = APPLICATION_CONTEXT ( 'configuration controlled 3d designs of mechanical parts and assemblies' ) ;
#81 = CALENDAR_DATE ( 2019, 21, 1 ) ;
#82 = CARTESIAN_POINT ( 'NONE',  ( -4.251844583177653000, 6.426085853309427200, -0.2871269819814200600 ) ) ;
#83 = CARTESIAN_POINT ( 'NONE',  ( -4.251844583177661900, 6.426085853309424500, 3.087126981981417600 ) ) ;
#84 = CARTESIAN_POINT ( 'NONE',  ( -3.469446951953614200E-015, 2.145259205953080200, 0.07213677330186993300 ) ) ;
#85 = CIRCLE ( 'NONE', #17, 6.349999999999999600 ) ;
#86 = CARTESIAN_POINT ( 'NONE',  ( 2.132937448867257700, 2.145259205953079300, 2.727863226698127100 ) ) ;
#87 = CARTESIAN_POINT ( 'NONE',  ( 1.599832215731899700E-014, -6.426085853309447600, -0.2160844233332209800 ) ) ;
#88 = CARTESIAN_POINT ( 'NONE',  ( 4.264684288320369300, -2.145259205953102800, 0.0008796805878843247500 ) ) ;
#89 = ORIENTED_EDGE ( 'NONE', *, *, #187, .T. ) ;
#90 = CALENDAR_DATE ( 2019, 21, 1 ) ;
#91 = DIRECTION ( 'NONE',  ( 1.000000000000000000, 0.0000000000000000000, 0.0000000000000000000 ) ) ;
#92 = VERTEX_POINT ( 'NONE', #206 ) ;
#93 = ORGANIZATION ( 'UNSPECIFIED', 'UNSPECIFIED', '' ) ;
#94 = AXIS2_PLACEMENT_3D ( 'NONE', #218, #158, #197 ) ;
#95 = ORIENTED_EDGE ( 'NONE', *, *, #44, .F. ) ;
#96 = CIRCLE ( 'NONE', #64, 95.65999999999998200 ) ;
#97 = CARTESIAN_POINT ( 'NONE',  ( -2.132937448867257700, 2.145259205953079300, 0.07213677330187000200 ) ) ;
#98 = CARTESIAN_POINT ( 'NONE',  ( -4.264684288320363100, 2.145259205953080200, 0.0008796805878733198800 ) ) ;
#99 = CARTESIAN_POINT ( 'NONE',  ( -1.988064226487722800E-014, 6.349999999999927700, 3.010992147639385500 ) ) ;
#100 = CARTESIAN_POINT ( 'NONE',  ( 2.498001805406600200E-016, 1.221245327087670000E-015, 3.010992147639380600 ) ) ;
#101 = DIRECTION ( 'NONE',  ( 1.000000000000000000, 0.0000000000000000000, 0.0000000000000000000 ) ) ;
#102 = VERTEX_POINT ( 'NONE', #99 ) ;
#103 = CARTESIAN_POINT ( 'NONE',  ( 6.392860628731535000, 2.145259205953078000, -0.1415549531725771900 ) ) ;
#104 = CARTESIAN_POINT ( 'NONE',  ( 6.349999999999999600, 1.221245327087670000E-015, -0.2109921476393759900 ) ) ;
#105 = CC_DESIGN_APPROVAL ( #276, ( #8 ) ) ;
#106 = FACE_OUTER_BOUND ( 'NONE', #163, .T. ) ;
#107 = DIRECTION ( 'NONE',  ( 0.0000000000000000000, 0.0000000000000000000, 1.000000000000000000 ) ) ;
#108 = CARTESIAN_POINT ( 'NONE',  ( 6.392860628731533300, -2.145259205953100200, 2.941554953172561300 ) ) ;
#109 = PERSON_AND_ORGANIZATION ( #58, #93 ) ;
#110 = CARTESIAN_POINT ( 'NONE',  ( 2.498001805406600200E-016, 1.221245327087670000E-015, -0.2109921476393759900 ) ) ;
#111 = CARTESIAN_POINT ( 'NONE',  ( 0.0000000000000000000, 0.0000000000000000000, 0.0000000000000000000 ) ) ;
#112 = PERSON_AND_ORGANIZATION_ROLE ( 'design_supplier' ) ;
#113 = CIRCLE ( 'NONE', #77, 6.349999999999999600 ) ;
#114 = ADVANCED_FACE ( 'NONE', ( #106 ), #258, .F. ) ;
#115 = APPLICATION_PROTOCOL_DEFINITION ( 'international standard', 'config_control_design', 1994, #80 ) ;
#116 = ORIENTED_EDGE ( 'NONE', *, *, #69, .T. ) ;
#117 = APPROVAL_STATUS ( 'not_yet_approved' ) ;
#118 = COORDINATED_UNIVERSAL_TIME_OFFSET ( 2, 0, .AHEAD. ) ;
#119 = CARTESIAN_POINT ( 'NONE',  ( -4.264684288320371100, 2.145259205953077100, 2.799120319412123700 ) ) ;
#120 = CARTESIAN_POINT ( 'NONE',  ( 2.498001805406600200E-016, 1.221245327087670000E-015, -0.2109921476393759900 ) ) ;
#121 = CIRCLE ( 'NONE', #9, 6.349999999999999600 ) ;
#122 = CARTESIAN_POINT ( 'NONE',  ( 2.498001805406600200E-016, 1.221245327087670000E-015, 3.010992147639380600 ) ) ;
#123 = PERSON_AND_ORGANIZATION ( #58, #93 ) ;
#124 = CARTESIAN_POINT ( 'NONE',  ( -6.392860628731533300, -2.145259205953100200, -0.1415549531725647000 ) ) ;
#125 = FACE_OUTER_BOUND ( 'NONE', #56, .T. ) ;
#126 = CARTESIAN_POINT ( 'NONE',  ( 6.373613613022509800, 6.426085853309422700, -0.4291327871168295600 ) ) ;
#127 = ADVANCED_BREP_SHAPE_REPRESENTATION ( '114-1122E UVFS bi-cv 12.7 F-100', ( #155, #195 ), #132 ) ;
#128 = CARTESIAN_POINT ( 'NONE',  ( 3.469446951953614200E-015, 2.145259205953080200, 2.727863226698127500 ) ) ;
#129 = ORIENTED_EDGE ( 'NONE', *, *, #146, .T. ) ;
#130 = LOCAL_TIME ( 12, 6, 22.00000000000000000, #49 ) ;
#131 = DIRECTION ( 'NONE',  ( 1.000000000000000000, 0.0000000000000000000, 0.0000000000000000000 ) ) ;
#132 =( GEOMETRIC_REPRESENTATION_CONTEXT ( 3 ) GLOBAL_UNCERTAINTY_ASSIGNED_CONTEXT ( ( #284 ) ) GLOBAL_UNIT_ASSIGNED_CONTEXT ( ( #179, #202, #252 ) ) REPRESENTATION_CONTEXT ( 'NONE', 'WORKASPACE' ) );
#133 = DIRECTION ( 'NONE',  ( 1.000000000000000000, 0.0000000000000000000, 0.0000000000000000000 ) ) ;
#134 = CARTESIAN_POINT ( 'NONE',  ( 2.126515804009211100, -6.426085853309446700, 3.016084423333218500 ) ) ;
#135 = FACE_OUTER_BOUND ( 'NONE', #217, .T. ) ;
#136 = CALENDAR_DATE ( 2019, 21, 1 ) ;
#137 = DIRECTION ( 'NONE',  ( 0.0000000000000000000, 0.0000000000000000000, 1.000000000000000000 ) ) ;
#138 = ADVANCED_FACE ( 'NONE', ( #275 ), #2, .F. ) ;
#139 = APPROVAL_ROLE ( '' ) ;
#140 = ORIENTED_EDGE ( 'NONE', *, *, #205, .F. ) ;
#141 = EDGE_CURVE ( 'NONE', #245, #92, #45, .T. ) ;
#142 = APPROVAL_DATE_TIME ( #221, #210 ) ;
#143 = AXIS2_PLACEMENT_3D ( 'NONE', #198, #137, #222 ) ;
#144 = FACE_OUTER_BOUND ( 'NONE', #169, .T. ) ;
#145 = CC_DESIGN_PERSON_AND_ORGANIZATION_ASSIGNMENT ( #109, #226, ( #1 ) ) ;
#146 = EDGE_CURVE ( 'NONE', #174, #290, #208, .T. ) ;
#147 = CARTESIAN_POINT ( 'NONE',  ( -2.132937448867269200, 2.145259205953078000, 2.727863226698127500 ) ) ;
#148 = ORIENTED_EDGE ( 'NONE', *, *, #194, .F. ) ;
#149 = APPROVAL_PERSON_ORGANIZATION ( #34, #283, #279 ) ;
#150 = DIRECTION ( 'NONE',  ( 1.000000000000000000, 8.881784197001252300E-016, 0.0000000000000000000 ) ) ;
#151 = CARTESIAN_POINT ( 'NONE',  ( -2.126515804009210300, -6.426085853309446700, -0.2160844233332205900 ) ) ;
#152 = CARTESIAN_POINT ( 'NONE',  ( 6.392860628731532400, 2.145259205953082400, 2.941554953172572900 ) ) ;
#153 = CALENDAR_DATE ( 2019, 21, 1 ) ;
#154 = CARTESIAN_POINT ( 'NONE',  ( -4.251844583177660100, -6.426085853309449400, 3.087126981981403300 ) ) ;
#155 = MANIFOLD_SOLID_BREP ( 'Imported1', #287 ) ;
#156 = DIRECTION ( 'NONE',  ( -0.0000000000000000000, -0.0000000000000000000, -1.000000000000000000 ) ) ;
#157 = CARTESIAN_POINT ( 'NONE',  ( 6.373613613022508100, -6.426085853309444900, 3.229132787116811600 ) ) ;
#158 = DIRECTION ( 'NONE',  ( 0.0000000000000000000, 0.0000000000000000000, 1.000000000000000000 ) ) ;
#159 = ORIENTED_EDGE ( 'NONE', *, *, #54, .T. ) ;
#160 = ADVANCED_FACE ( 'NONE', ( #135 ), #235, .F. ) ;
#161 = CYLINDRICAL_SURFACE ( 'NONE', #248, 6.349999999999999600 ) ;
#162 = APPLICATION_PROTOCOL_DEFINITION ( 'international standard', 'config_control_design', 1994, #29 ) ;
#163 = EDGE_LOOP ( 'NONE', ( #148, #89, #95 ) ) ;
#164 = PERSON_AND_ORGANIZATION ( #58, #93 ) ;
#165 = FACE_OUTER_BOUND ( 'NONE', #220, .T. ) ;
#166 = CARTESIAN_POINT ( 'NONE',  ( -2.132937448867258100, -2.145259205953100600, 0.07213677330188166000 ) ) ;
#167 = AXIS2_PLACEMENT_3D ( 'NONE', #3, #273, #52 ) ;
#168 = CARTESIAN_POINT ( 'NONE',  ( -6.373613613022508100, -6.426085853309444900, -0.4291327871168149100 ) ) ;
#169 = EDGE_LOOP ( 'NONE', ( #232, #61, #196, #271, #30, #159 ) ) ;
#170 = CARTESIAN_POINT ( 'NONE',  ( 6.373613613022507200, -6.426085853309448500, -0.4291327871168157400 ) ) ;
#171 = CARTESIAN_POINT ( 'NONE',  ( -6.349999999999999600, 1.998896044546239400E-015, -0.2109921476393759900 ) ) ;
#172 = PRODUCT_DEFINITION_FORMATION_WITH_SPECIFIED_SOURCE ( 'ANY', '', #75, .NOT_KNOWN. ) ;
#173 = DIRECTION ( 'NONE',  ( 0.0000000000000000000, 0.0000000000000000000, 1.000000000000000000 ) ) ;
#174 = VERTEX_POINT ( 'NONE', #19 ) ;
#175 = CARTESIAN_POINT ( 'NONE',  ( -6.373613613022507200, -6.426085853309448500, 3.229132787116812500 ) ) ;
#176 = CARTESIAN_POINT ( 'NONE',  ( 4.251844583177656600, -6.426085853309446700, 3.087126981981402500 ) ) ;
#177 = ORIENTED_EDGE ( 'NONE', *, *, #230, .F. ) ;
#178 = LOCAL_TIME ( 12, 6, 22.00000000000000000, #201 ) ;
#179 =( LENGTH_UNIT ( ) NAMED_UNIT ( * ) SI_UNIT ( .MILLI., .METRE. ) );
#180 = VECTOR ( 'NONE', #173, 1000.000000000000000 ) ;
#181 = ADVANCED_FACE ( 'NONE', ( #125 ), #219, .F. ) ;
#182 = SECURITY_CLASSIFICATION_LEVEL ( 'unclassified' ) ;
#183 = PERSON_AND_ORGANIZATION_ROLE ( 'creator' ) ;
#184 = APPROVAL_PERSON_ORGANIZATION ( #239, #210, #53 ) ;
#185 = CC_DESIGN_DATE_AND_TIME_ASSIGNMENT ( #57, #55, ( #1 ) ) ;
#186 = COORDINATED_UNIVERSAL_TIME_OFFSET ( 2, 0, .AHEAD. ) ;
#187 = EDGE_CURVE ( 'NONE', #37, #223, #11, .T. ) ;
#188 = DIRECTION ( 'NONE',  ( -1.000000000000000000, -3.037693496532730200E-016, 2.625185406949229900E-016 ) ) ;
#189 = CARTESIAN_POINT ( 'NONE',  ( 1.990241799827081000E-014, 6.426085853309424500, -0.2160844233332348500 ) ) ;
#190 = DIRECTION ( 'NONE',  ( -3.037693496532732200E-016, 1.000000000000000000, -5.802963749870148000E-016 ) ) ;
#191 = CC_DESIGN_APPROVAL ( #210, ( #1 ) ) ;
#192 = CARTESIAN_POINT ( 'NONE',  ( 4.264684288320363100, 2.145259205953080200, 2.799120319412122800 ) ) ;
#193 = DATE_AND_TIME ( #136, #256 ) ;
#194 = EDGE_CURVE ( 'NONE', #37, #174, #249, .T. ) ;
#195 = AXIS2_PLACEMENT_3D ( 'NONE', #111, #244, #78 ) ;
#196 = ORIENTED_EDGE ( 'NONE', *, *, #257, .T. ) ;
#197 = DIRECTION ( 'NONE',  ( 1.000000000000000000, 0.0000000000000000000, 0.0000000000000000000 ) ) ;
#198 = CARTESIAN_POINT ( 'NONE',  ( 2.498001805406600200E-016, 1.221245327087670000E-015, -0.2109921476393759900 ) ) ;
#199 = SHAPE_DEFINITION_REPRESENTATION ( #236, #127 ) ;
#200 = MECHANICAL_CONTEXT ( 'NONE', #80, 'mechanical' ) ;
#201 = COORDINATED_UNIVERSAL_TIME_OFFSET ( 2, 0, .AHEAD. ) ;
#202 =( NAMED_UNIT ( * ) PLANE_ANGLE_UNIT ( ) SI_UNIT ( $, .RADIAN. ) );
#203 = ORIENTED_EDGE ( 'NONE', *, *, #54, .F. ) ;
#204 = CARTESIAN_POINT ( 'NONE',  ( 2.498001805406600200E-016, 1.221245327087670000E-015, -0.2109921476393759900 ) ) ;
#205 = EDGE_CURVE ( 'NONE', #245, #37, #266, .T. ) ;
#206 = CARTESIAN_POINT ( 'NONE',  ( 6.349999999999999600, 1.221245327087670000E-015, 3.010992147639380600 ) ) ;
#207 = CC_DESIGN_SECURITY_CLASSIFICATION ( #8, ( #172 ) ) ;
#208 = LINE ( 'NONE', #171, #180 ) ;
#209 = DIRECTION ( 'NONE',  ( -0.0000000000000000000, -0.0000000000000000000, -1.000000000000000000 ) ) ;
#210 = APPROVAL ( #117, 'UNSPECIFIED' ) ;
#211 = CARTESIAN_POINT ( 'NONE',  ( -6.373613613022503600, 6.426085853309427200, -0.4291327871168287800 ) ) ;
#212 = ORIENTED_EDGE ( 'NONE', *, *, #257, .F. ) ;
#213 = AXIS2_PLACEMENT_3D ( 'NONE', #110, #27, #131 ) ;
#214 = CARTESIAN_POINT ( 'NONE',  ( 6.392860628731535000, -2.145259205953104200, -0.1415549531725655000 ) ) ;
#215 = CARTESIAN_POINT ( 'NONE',  ( 6.373613613022503600, 6.426085853309427200, 3.229132787116825800 ) ) ;
#216 = CARTESIAN_POINT ( 'NONE',  ( 2.132937448867268300, -2.145259205953101900, 0.07213677330188066100 ) ) ;
#217 = EDGE_LOOP ( 'NONE', ( #4, #140, #212 ) ) ;
#218 = CARTESIAN_POINT ( 'NONE',  ( 2.498001805406600200E-016, 1.221245327087670000E-015, -0.2109921476393759900 ) ) ;
#219 =( BOUNDED_SURFACE ( )  B_SPLINE_SURFACE ( 3, 3, ( 
 ( #215, #241, #265, #43 ),
 ( #152, #192, #86, #128 ),
 ( #108, #47, #25, #274 ),
 ( #157, #176, #134, #7 ) ),
 .UNSPECIFIED., .F., .F., .F. ) 
 B_SPLINE_SURFACE_WITH_KNOTS ( ( 4, 4 ),
 ( 4, 4 ),
 ( 0.0000000000000000000, 1.000000000000000000 ),
 ( 0.0000000000000000000, 1.000000000000000000 ),
 .UNSPECIFIED. ) 
 GEOMETRIC_REPRESENTATION_ITEM ( )  RATIONAL_B_SPLINE_SURFACE ( (
 ( 1.000000000000000000, 0.9996278655007652100, 0.9996278655007652100, 1.000000000000000000),
 ( 0.9984940802611107500, 0.9981225061665638400, 0.9981225061665638400, 0.9984940802611107500),
 ( 0.9984940802611107500, 0.9981225061665638400, 0.9981225061665638400, 0.9984940802611107500),
 ( 1.000000000000000000, 0.9996278655007652100, 0.9996278655007652100, 1.000000000000000000) ) ) 
 REPRESENTATION_ITEM ( '' )  SURFACE ( )  );
#220 = EDGE_LOOP ( 'NONE', ( #14, #10, #129, #32, #116, #71 ) ) ;
#221 = DATE_AND_TIME ( #81, #28 ) ;
#222 = DIRECTION ( 'NONE',  ( 1.000000000000000000, 0.0000000000000000000, 0.0000000000000000000 ) ) ;
#223 = VERTEX_POINT ( 'NONE', #246 ) ;
#224 = CC_DESIGN_PERSON_AND_ORGANIZATION_ASSIGNMENT ( #164, #112, ( #172 ) ) ;
#225 = PERSON_AND_ORGANIZATION_ROLE ( 'design_owner' ) ;
#226 = PERSON_AND_ORGANIZATION_ROLE ( 'creator' ) ;
#227 = CC_DESIGN_DATE_AND_TIME_ASSIGNMENT ( #193, #254, ( #8 ) ) ;
#228 = APPROVAL_STATUS ( 'not_yet_approved' ) ;
#229 = EDGE_LOOP ( 'NONE', ( #253, #238, #203 ) ) ;
#230 = EDGE_CURVE ( 'NONE', #92, #294, #255, .T. ) ;
#231 = PRODUCT_RELATED_PRODUCT_CATEGORY ( 'detail', '', ( #75 ) ) ;
#232 = ORIENTED_EDGE ( 'NONE', *, *, #146, .F. ) ;
#233 = CARTESIAN_POINT ( 'NONE',  ( -1.867769747956305600E-014, 2.145259205953079700, 2.727863226698127500 ) ) ;
#234 = CARTESIAN_POINT ( 'NONE',  ( -2.126515804009207100, 6.426085853309427200, -0.2160844233332345200 ) ) ;
#235 =( BOUNDED_SURFACE ( )  B_SPLINE_SURFACE ( 3, 3, ( 
 ( #189, #65, #293, #126 ),
 ( #295, #270, #68, #103 ),
 ( #292, #216, #88, #214 ),
 ( #87, #22, #46, #170 ) ),
 .UNSPECIFIED., .F., .F., .F. ) 
 B_SPLINE_SURFACE_WITH_KNOTS ( ( 4, 4 ),
 ( 4, 4 ),
 ( 0.0000000000000000000, 1.000000000000000000 ),
 ( 0.0000000000000000000, 1.000000000000000000 ),
 .UNSPECIFIED. ) 
 GEOMETRIC_REPRESENTATION_ITEM ( )  RATIONAL_B_SPLINE_SURFACE ( (
 ( 1.000000000000000000, 0.9996278655007652100, 0.9996278655007652100, 1.000000000000000000),
 ( 0.9984940802611107500, 0.9981225061665638400, 0.9981225061665638400, 0.9984940802611107500),
 ( 0.9984940802611107500, 0.9981225061665638400, 0.9981225061665638400, 0.9984940802611107500),
 ( 1.000000000000000000, 0.9996278655007652100, 0.9996278655007652100, 1.000000000000000000) ) ) 
 REPRESENTATION_ITEM ( '' )  SURFACE ( )  );
#236 = PRODUCT_DEFINITION_SHAPE ( 'NONE', 'NONE',  #1 ) ;
#237 = CARTESIAN_POINT ( 'NONE',  ( 1.988064226487713600E-014, 6.349999999999927700, -0.2109921476393849500 ) ) ;
#238 = ORIENTED_EDGE ( 'NONE', *, *, #278, .F. ) ;
#239 = PERSON_AND_ORGANIZATION ( #58, #93 ) ;
#240 = CARTESIAN_POINT ( 'NONE',  ( -6.392860628731532400, 2.145259205953082400, -0.1415549531725764600 ) ) ;
#241 = CARTESIAN_POINT ( 'NONE',  ( 4.251844583177653000, 6.426085853309427200, 3.087126981981416700 ) ) ;
#242 = CIRCLE ( 'NONE', #33, 6.349999999999999600 ) ;
#243 = CARTESIAN_POINT ( 'NONE',  ( -1.599832215731909400E-014, -6.426085853309447600, 3.016084423333218000 ) ) ;
#244 = DIRECTION ( 'NONE',  ( 0.0000000000000000000, 0.0000000000000000000, 1.000000000000000000 ) ) ;
#245 = VERTEX_POINT ( 'NONE', #5 ) ;
#246 = CARTESIAN_POINT ( 'NONE',  ( 1.602277152428059900E-014, -6.349999999999963200, -0.2109921476393849500 ) ) ;
#247 = CARTESIAN_POINT ( 'NONE',  ( 2.498001805406600200E-016, 1.221245327087670000E-015, 3.010992147639380600 ) ) ;
#248 = AXIS2_PLACEMENT_3D ( 'NONE', #120, #41, #101 ) ;
#249 = CIRCLE ( 'NONE', #143, 6.349999999999999600 ) ;
#250 = COORDINATED_UNIVERSAL_TIME_OFFSET ( 2, 0, .AHEAD. ) ;
#251 = ADVANCED_FACE ( 'NONE', ( #144 ), #18, .T. ) ;
#252 =( NAMED_UNIT ( * ) SI_UNIT ( $, .STERADIAN. ) SOLID_ANGLE_UNIT ( ) );
#253 = ORIENTED_EDGE ( 'NONE', *, *, #6, .F. ) ;
#254 = DATE_TIME_ROLE ( 'classification_date' ) ;
#255 = CIRCLE ( 'NONE', #264, 6.349999999999999600 ) ;
#256 = LOCAL_TIME ( 12, 6, 22.00000000000000000, #118 ) ;
#257 = EDGE_CURVE ( 'NONE', #223, #245, #85, .T. ) ;
#258 =( BOUNDED_SURFACE ( )  B_SPLINE_SURFACE ( 3, 3, ( 
 ( #211, #82, #234, #15 ),
 ( #240, #98, #97, #84 ),
 ( #124, #259, #166, #263 ),
 ( #168, #40, #151, #39 ) ),
 .UNSPECIFIED., .F., .F., .F. ) 
 B_SPLINE_SURFACE_WITH_KNOTS ( ( 4, 4 ),
 ( 4, 4 ),
 ( 0.0000000000000000000, 1.000000000000000000 ),
 ( 0.0000000000000000000, 1.000000000000000000 ),
 .UNSPECIFIED. ) 
 GEOMETRIC_REPRESENTATION_ITEM ( )  RATIONAL_B_SPLINE_SURFACE ( (
 ( 1.000000000000000000, 0.9996278655007652100, 0.9996278655007652100, 1.000000000000000000),
 ( 0.9984940802611107500, 0.9981225061665638400, 0.9981225061665638400, 0.9984940802611107500),
 ( 0.9984940802611107500, 0.9981225061665638400, 0.9981225061665638400, 0.9984940802611107500),
 ( 1.000000000000000000, 0.9996278655007652100, 0.9996278655007652100, 1.000000000000000000) ) ) 
 REPRESENTATION_ITEM ( '' )  SURFACE ( )  );
#259 = CARTESIAN_POINT ( 'NONE',  ( -4.264684288320363900, -2.145259205953099700, 0.0008796805878850022700 ) ) ;
#260 = CARTESIAN_POINT ( 'NONE',  ( -2.126515804009220500, 6.426085853309424500, 3.016084423333232700 ) ) ;
#261 = LOCAL_TIME ( 12, 6, 22.00000000000000000, #186 ) ;
#262 = DIRECTION ( 'NONE',  ( -0.0000000000000000000, -0.0000000000000000000, -1.000000000000000000 ) ) ;
#263 = CARTESIAN_POINT ( 'NONE',  ( -3.469446951953614200E-015, -2.145259205953102400, 0.07213677330188157700 ) ) ;
#264 = AXIS2_PLACEMENT_3D ( 'NONE', #247, #70, #133 ) ;
#265 = CARTESIAN_POINT ( 'NONE',  ( 2.126515804009207100, 6.426085853309427200, 3.016084423333232200 ) ) ;
#266 = CIRCLE ( 'NONE', #213, 6.349999999999999600 ) ;
#267 = PERSON_AND_ORGANIZATION ( #58, #93 ) ;
#268 = DIRECTION ( 'NONE',  ( 0.0000000000000000000, 0.0000000000000000000, 1.000000000000000000 ) ) ;
#269 = CC_DESIGN_PERSON_AND_ORGANIZATION_ASSIGNMENT ( #123, #225, ( #75 ) ) ;
#270 = CARTESIAN_POINT ( 'NONE',  ( 2.132937448867269200, 2.145259205953078000, 0.07213677330186897600 ) ) ;
#271 = ORIENTED_EDGE ( 'NONE', *, *, #141, .T. ) ;
#272 = CARTESIAN_POINT ( 'NONE',  ( 2.498001805406600200E-016, 1.221245327087670000E-015, 3.010992147639380600 ) ) ;
#273 = DIRECTION ( 'NONE',  ( 1.000000000000000000, -3.037693496532730200E-016, -2.625185406949220100E-016 ) ) ;
#274 = CARTESIAN_POINT ( 'NONE',  ( 3.469446951953614200E-015, -2.145259205953102400, 2.727863226698115100 ) ) ;
#275 = FACE_OUTER_BOUND ( 'NONE', #229, .T. ) ;
#276 = APPROVAL ( #228, 'UNSPECIFIED' ) ;
#277 = PERSON_AND_ORGANIZATION ( #58, #93 ) ;
#278 = EDGE_CURVE ( 'NONE', #290, #102, #242, .T. ) ;
#279 = APPROVAL_ROLE ( '' ) ;
#280 = APPROVAL_STATUS ( 'not_yet_approved' ) ;
#281 = VECTOR ( 'NONE', #268, 1000.000000000000000 ) ;
#282 = PERSON_AND_ORGANIZATION_ROLE ( 'classification_officer' ) ;
#283 = APPROVAL ( #280, 'UNSPECIFIED' ) ;
#284 = UNCERTAINTY_MEASURE_WITH_UNIT (LENGTH_MEASURE( 1.000000000000000100E-005 ), #179, 'distance_accuracy_value', 'NONE');
#285 = APPROVAL_DATE_TIME ( #31, #276 ) ;
#286 = CARTESIAN_POINT ( 'NONE',  ( -6.392860628731535900, 2.145259205953078000, 2.941554953172573800 ) ) ;
#287 = CLOSED_SHELL ( 'NONE', ( #114, #181, #76, #251, #160, #138 ) ) ;
#288 = DIRECTION ( 'NONE',  ( 1.000000000000000000, 0.0000000000000000000, 0.0000000000000000000 ) ) ;
#289 = CARTESIAN_POINT ( 'NONE',  ( -6.373613613022509800, 6.426085853309422700, 3.229132787116826700 ) ) ;
#290 = VERTEX_POINT ( 'NONE', #73 ) ;
#291 = CC_DESIGN_PERSON_AND_ORGANIZATION_ASSIGNMENT ( #72, #183, ( #172 ) ) ;
#292 = CARTESIAN_POINT ( 'NONE',  ( 1.737436949190282400E-014, -2.145259205953102800, 0.07213677330188123000 ) ) ;
#293 = CARTESIAN_POINT ( 'NONE',  ( 4.251844583177661900, 6.426085853309424500, -0.2871269819814206700 ) ) ;
#294 = VERTEX_POINT ( 'NONE', #51 ) ;
#295 = CARTESIAN_POINT ( 'NONE',  ( 1.867769747956296500E-014, 2.145259205953079700, 0.07213677330186954500 ) ) ;
ENDSEC;
END-ISO-10303-21;
