ISO-10303-21;
HEADER;
FILE_DESCRIPTION (( 'STEP AP203' ),
    '1' );
FILE_NAME ('114-1118E UVFS bi-cv 12.7 F-75.STEP',
    '2019-01-21T09:57:41',
    ( '' ),
    ( '' ),
    'SwSTEP 2.0',
    'SolidWorks 2017',
    '' );
FILE_SCHEMA (( 'CONFIG_CONTROL_DESIGN' ));
ENDSEC;

DATA;
#1 = APPROVAL_PERSON_ORGANIZATION ( #18, #229, #114 ) ;
#2 = CARTESIAN_POINT ( 'NONE',  ( 2.135711360514076500, -2.147738688595533900, 2.603750831562896600 ) ) ;
#3 = CARTESIAN_POINT ( 'NONE',  ( 2.498001805406600200E-016, 1.221245327087670000E-015, -0.2811913179097140200 ) ) ;
#4 = CARTESIAN_POINT ( 'NONE',  ( -6.362392806383516200, 6.425997332500691600, -0.5714086286253694500 ) ) ;
#5 = DATE_AND_TIME ( #38, #53 ) ;
#6 = CIRCLE ( 'NONE', #292, 6.349999999999999600 ) ;
#7 = LOCAL_TIME ( 11, 57, 41.00000000000000000, #47 ) ;
#8 = CARTESIAN_POINT ( 'NONE',  ( 2.089679866568445300E-014, 6.349999999999984500, -0.2811913179097133000 ) ) ;
#9 = CARTESIAN_POINT ( 'NONE',  ( 1.831172999694985400E-014, -6.425997332500683600, -0.2879758617361366500 ) ) ;
#10 = VERTEX_POINT ( 'NONE', #25 ) ;
#11 = DIRECTION ( 'NONE',  ( 1.000000000000000000, 0.0000000000000000000, 0.0000000000000000000 ) ) ;
#12 = CARTESIAN_POINT ( 'NONE',  ( 6.362392806383450500, 6.425997332500689800, -0.5714086286253651200 ) ) ;
#13 = CARTESIAN_POINT ( 'NONE',  ( -1.832828589393149700E-014, -6.349999999999908200, 2.981191317909715400 ) ) ;
#14 = APPROVAL_STATUS ( 'not_yet_approved' ) ;
#15 = CIRCLE ( 'NONE', #226, 6.349999999999999600 ) ;
#16 = DATE_TIME_ROLE ( 'creation_date' ) ;
#17 = APPROVAL_ROLE ( '' ) ;
#18 = PERSON_AND_ORGANIZATION ( #186, #24 ) ;
#19 = ORIENTED_EDGE ( 'NONE', *, *, #139, .T. ) ;
#20 = CC_DESIGN_APPROVAL ( #229, ( #286 ) ) ;
#21 = CARTESIAN_POINT ( 'NONE',  ( -2.135711360514067200, 2.147738688595533000, 2.603750831562891700 ) ) ;
#22 = ADVANCED_FACE ( 'NONE', ( #243 ), #190, .F. ) ;
#23 = CARTESIAN_POINT ( 'NONE',  ( -6.396558025291622800, 2.147738688595532500, 2.888705595414773300 ) ) ;
#24 = ORGANIZATION ( 'UNSPECIFIED', 'UNSPECIFIED', '' ) ;
#25 = CARTESIAN_POINT ( 'NONE',  ( 6.349999999999999600, 1.221245327087670000E-015, 2.981191317909710000 ) ) ;
#26 = PRODUCT_RELATED_PRODUCT_CATEGORY ( 'detail', '', ( #165 ) ) ;
#27 = DIRECTION ( 'NONE',  ( 1.000000000000000000, -2.022451001380300000E-016, -1.747809270801519900E-016 ) ) ;
#28 = CALENDAR_DATE ( 2019, 21, 1 ) ;
#29 = ORIENTED_EDGE ( 'NONE', *, *, #103, .T. ) ;
#30 = CARTESIAN_POINT ( 'NONE',  ( -6.396558025291691200, -2.147738688595550700, -0.1887055954147604800 ) ) ;
#31 = CARTESIAN_POINT ( 'NONE',  ( -4.269306671150285800, -2.147738688595550700, 0.001201465360893474000 ) ) ;
#32 = CLOSED_SHELL ( 'NONE', ( #119, #55, #263, #98, #216, #22 ) ) ;
#33 = FACE_OUTER_BOUND ( 'NONE', #54, .T. ) ;
#34 = DIRECTION ( 'NONE',  ( 0.0000000000000000000, 0.0000000000000000000, 1.000000000000000000 ) ) ;
#35 = CARTESIAN_POINT ( 'NONE',  ( 2.498001805406600200E-016, 1.221245327087670000E-015, 2.981191317909710000 ) ) ;
#36 = CALENDAR_DATE ( 2019, 21, 1 ) ;
#37 = CARTESIAN_POINT ( 'NONE',  ( 2.498001805406600200E-016, 1.221245327087670000E-015, 2.981191317909710000 ) ) ;
#38 = CALENDAR_DATE ( 2019, 21, 1 ) ;
#39 = FACE_OUTER_BOUND ( 'NONE', #127, .T. ) ;
#40 = APPROVAL_STATUS ( 'not_yet_approved' ) ;
#41 = CIRCLE ( 'NONE', #268, 6.349999999999999600 ) ;
#42 = CARTESIAN_POINT ( 'NONE',  ( -4.269306671150248500, 2.147738688595532500, 2.698798534639123700 ) ) ;
#43 = ORIENTED_EDGE ( 'NONE', *, *, #212, .F. ) ;
#44 = PERSON_AND_ORGANIZATION ( #186, #24 ) ;
#45 = ORIENTED_EDGE ( 'NONE', *, *, #212, .T. ) ;
#46 = CARTESIAN_POINT ( 'NONE',  ( 6.396558025291691200, 2.147738688595534700, 2.888705595414790200 ) ) ;
#47 = COORDINATED_UNIVERSAL_TIME_OFFSET ( 2, 0, .AHEAD. ) ;
#48 = DIRECTION ( 'NONE',  ( 1.000000000000000000, 0.0000000000000000000, 0.0000000000000000000 ) ) ;
#49 = CARTESIAN_POINT ( 'NONE',  ( 6.362392806383447800, -6.425997332500684500, -0.5714086286253651200 ) ) ;
#50 = DIRECTION ( 'NONE',  ( 1.000000000000000000, 0.0000000000000000000, 0.0000000000000000000 ) ) ;
#51 = DIRECTION ( 'NONE',  ( -0.0000000000000000000, -0.0000000000000000000, -1.000000000000000000 ) ) ;
#52 = CARTESIAN_POINT ( 'NONE',  ( 4.246503501628567700, -6.425997332500684500, -0.3825158971621299100 ) ) ;
#53 = LOCAL_TIME ( 11, 57, 41.00000000000000000, #101 ) ;
#54 = EDGE_LOOP ( 'NONE', ( #61, #19, #279, #221, #73, #56 ) ) ;
#55 = ADVANCED_FACE ( 'NONE', ( #39 ), #66, .F. ) ;
#56 = ORIENTED_EDGE ( 'NONE', *, *, #179, .T. ) ;
#57 = CARTESIAN_POINT ( 'NONE',  ( 6.362392806383516200, 6.425997332500623200, 3.271408628625391400 ) ) ;
#58 = CARTESIAN_POINT ( 'NONE',  ( -4.269306671150246800, -2.147738688595535200, 2.698798534639122800 ) ) ;
#59 = CARTESIAN_POINT ( 'NONE',  ( -2.124304124643137100, 6.425997332500689800, -0.2879758617361298800 ) ) ;
#60 = CARTESIAN_POINT ( 'NONE',  ( -4.246503501628607700, -6.425997332500682700, -0.3825158971621291400 ) ) ;
#61 = ORIENTED_EDGE ( 'NONE', *, *, #207, .F. ) ;
#62 = CARTESIAN_POINT ( 'NONE',  ( -4.246503501628605900, 6.425997332500690700, -0.3825158971621291400 ) ) ;
#63 = CC_DESIGN_PERSON_AND_ORGANIZATION_ASSIGNMENT ( #44, #185, ( #149 ) ) ;
#64 = ORIENTED_EDGE ( 'NONE', *, *, #188, .F. ) ;
#65 = CARTESIAN_POINT ( 'NONE',  ( 2.498001805406600200E-016, 1.221245327087670000E-015, -0.2811913179097140200 ) ) ;
#66 =( BOUNDED_SURFACE ( )  B_SPLINE_SURFACE ( 3, 3, ( 
 ( #57, #239, #123, #122 ),
 ( #46, #245, #272, #100 ),
 ( #241, #280, #2, #147 ),
 ( #242, #80, #247, #104 ) ),
 .UNSPECIFIED., .F., .F., .F. ) 
 B_SPLINE_SURFACE_WITH_KNOTS ( ( 4, 4 ),
 ( 4, 4 ),
 ( 0.0000000000000000000, 1.000000000000000000 ),
 ( 0.0000000000000000000, 1.000000000000000000 ),
 .UNSPECIFIED. ) 
 GEOMETRIC_REPRESENTATION_ITEM ( )  RATIONAL_B_SPLINE_SURFACE ( (
 ( 1.000000000000000000, 0.9993394707053302500, 0.9993394707053302500, 1.000000000000000000),
 ( 0.9973276182095756100, 0.9966688541013649600, 0.9966688541013649600, 0.9973276182095756100),
 ( 0.9973276182095756100, 0.9966688541013649600, 0.9966688541013649600, 0.9973276182095756100),
 ( 1.000000000000000000, 0.9993394707053302500, 0.9993394707053302500, 1.000000000000000000) ) ) 
 REPRESENTATION_ITEM ( '' )  SURFACE ( )  );
#67 = CARTESIAN_POINT ( 'NONE',  ( 0.0000000000000000000, 0.0000000000000000000, 0.0000000000000000000 ) ) ;
#68 = CARTESIAN_POINT ( 'NONE',  ( -2.089679866568444300E-014, 6.349999999999916200, 2.981191317909715400 ) ) ;
#69 = DATE_AND_TIME ( #36, #128 ) ;
#70 = DATE_TIME_ROLE ( 'classification_date' ) ;
#71 = EDGE_LOOP ( 'NONE', ( #154, #29, #74, #259, #141, #83 ) ) ;
#72 = COORDINATED_UNIVERSAL_TIME_OFFSET ( 2, 0, .AHEAD. ) ;
#73 = ORIENTED_EDGE ( 'NONE', *, *, #188, .T. ) ;
#74 = ORIENTED_EDGE ( 'NONE', *, *, #207, .T. ) ;
#75 = CALENDAR_DATE ( 2019, 21, 1 ) ;
#76 = CC_DESIGN_SECURITY_CLASSIFICATION ( #177, ( #149 ) ) ;
#77 = CARTESIAN_POINT ( 'NONE',  ( -1.831172999694986700E-014, -6.425997332500623200, 2.987975861736144700 ) ) ;
#78 = DATE_AND_TIME ( #28, #230 ) ;
#79 = DIRECTION ( 'NONE',  ( 2.022451001380299500E-016, 1.000000000000000000, 0.0000000000000000000 ) ) ;
#80 = CARTESIAN_POINT ( 'NONE',  ( 4.246503501628608600, -6.425997332500624100, 3.082515897162150700 ) ) ;
#81 =( BOUNDED_SURFACE ( )  B_SPLINE_SURFACE ( 3, 3, ( 
 ( #4, #62, #59, #275 ),
 ( #222, #150, #218, #148 ),
 ( #30, #31, #82, #249 ),
 ( #201, #60, #84, #174 ) ),
 .UNSPECIFIED., .F., .F., .F. ) 
 B_SPLINE_SURFACE_WITH_KNOTS ( ( 4, 4 ),
 ( 4, 4 ),
 ( 0.0000000000000000000, 1.000000000000000000 ),
 ( 0.0000000000000000000, 1.000000000000000000 ),
 .UNSPECIFIED. ) 
 GEOMETRIC_REPRESENTATION_ITEM ( )  RATIONAL_B_SPLINE_SURFACE ( (
 ( 1.000000000000000000, 0.9993394707053302500, 0.9993394707053302500, 1.000000000000000000),
 ( 0.9973276182095754900, 0.9966688541013648500, 0.9966688541013648500, 0.9973276182095754900),
 ( 0.9973276182095754900, 0.9966688541013648500, 0.9966688541013648500, 0.9973276182095754900),
 ( 1.000000000000000000, 0.9993394707053302500, 0.9993394707053302500, 1.000000000000000000) ) ) 
 REPRESENTATION_ITEM ( '' )  SURFACE ( )  );
#82 = CARTESIAN_POINT ( 'NONE',  ( -2.135711360514074700, -2.147738688595551200, 0.09624916843713202100 ) ) ;
#83 = ORIENTED_EDGE ( 'NONE', *, *, #219, .F. ) ;
#84 = CARTESIAN_POINT ( 'NONE',  ( -2.124304124643138900, -6.425997332500683600, -0.2879758617361299300 ) ) ;
#85 = EDGE_LOOP ( 'NONE', ( #213, #180, #96 ) ) ;
#86 = PRODUCT_DEFINITION_SHAPE ( 'NONE', 'NONE',  #286 ) ;
#87 = CARTESIAN_POINT ( 'NONE',  ( 6.396558025291623700, -2.147738688595552900, -0.1887055954147562300 ) ) ;
#88 = CARTESIAN_POINT ( 'NONE',  ( 2.124304124643130900, 6.425997332500689800, -0.2879758617361370400 ) ) ;
#89 = CARTESIAN_POINT ( 'NONE',  ( 1.924414205178392300E-014, -2.147738688595551600, 0.09624916843712520700 ) ) ;
#90 = DIRECTION ( 'NONE',  ( 0.0000000000000000000, 0.0000000000000000000, 1.000000000000000000 ) ) ;
#91 = SECURITY_CLASSIFICATION_LEVEL ( 'unclassified' ) ;
#92 = APPLICATION_CONTEXT ( 'configuration controlled 3d designs of mechanical parts and assemblies' ) ;
#93 = CC_DESIGN_PERSON_AND_ORGANIZATION_ASSIGNMENT ( #143, #162, ( #165 ) ) ;
#94 = PERSON_AND_ORGANIZATION_ROLE ( 'classification_officer' ) ;
#95 = EDGE_CURVE ( 'NONE', #215, #287, #189, .T. ) ;
#96 = ORIENTED_EDGE ( 'NONE', *, *, #139, .F. ) ;
#97 = APPROVAL ( #289, 'UNSPECIFIED' ) ;
#98 = ADVANCED_FACE ( 'NONE', ( #33 ), #203, .T. ) ;
#99 = CARTESIAN_POINT ( 'NONE',  ( -6.362392806383446100, -6.425997332500625000, 3.271408628625373200 ) ) ;
#100 = CARTESIAN_POINT ( 'NONE',  ( -1.734723475976807100E-015, 2.147738688595533900, 2.603750831562897900 ) ) ;
#101 = COORDINATED_UNIVERSAL_TIME_OFFSET ( 2, 0, .AHEAD. ) ;
#102 = VECTOR ( 'NONE', #109, 1000.000000000000000 ) ;
#103 = EDGE_CURVE ( 'NONE', #287, #151, #6, .T. ) ;
#104 = CARTESIAN_POINT ( 'NONE',  ( -8.673617379884035500E-016, -6.425997332500624100, 2.987975861736151800 ) ) ;
#105 = CARTESIAN_POINT ( 'NONE',  ( -6.349999999999999600, 1.998896044546239400E-015, 2.981191317909710000 ) ) ;
#106 = DIRECTION ( 'NONE',  ( -1.000000000000000000, -2.022451001380300000E-016, 1.747809270801519900E-016 ) ) ;
#107 = EDGE_CURVE ( 'NONE', #287, #118, #244, .T. ) ;
#108 = CARTESIAN_POINT ( 'NONE',  ( 4.246503501628570400, 6.425997332500688900, -0.3825158971621299100 ) ) ;
#109 = DIRECTION ( 'NONE',  ( 0.0000000000000000000, 0.0000000000000000000, 1.000000000000000000 ) ) ;
#110 = CARTESIAN_POINT ( 'NONE',  ( 4.269306671150247600, 2.147738688595557400, 0.001201465360892254300 ) ) ;
#111 = EDGE_LOOP ( 'NONE', ( #43, #278, #250 ) ) ;
#112 = CC_DESIGN_APPROVAL ( #125, ( #177 ) ) ;
#113 = PERSON_AND_ORGANIZATION_ROLE ( 'design_supplier' ) ;
#114 = APPROVAL_ROLE ( '' ) ;
#115 = ORIENTED_EDGE ( 'NONE', *, *, #131, .F. ) ;
#116 = CYLINDRICAL_SURFACE ( 'NONE', #117, 6.349999999999999600 ) ;
#117 = AXIS2_PLACEMENT_3D ( 'NONE', #208, #255, #204 ) ;
#118 = VERTEX_POINT ( 'NONE', #199 ) ;
#119 = ADVANCED_FACE ( 'NONE', ( #198 ), #81, .F. ) ;
#120 = PERSON_AND_ORGANIZATION ( #186, #24 ) ;
#121 = APPROVAL_PERSON_ORGANIZATION ( #187, #97, #164 ) ;
#122 = CARTESIAN_POINT ( 'NONE',  ( -2.602085213965210600E-015, 6.425997332500621400, 2.987975861736151400 ) ) ;
#123 = CARTESIAN_POINT ( 'NONE',  ( 2.124304124643138000, 6.425997332500623200, 2.987975861736151400 ) ) ;
#124 = DIRECTION ( 'NONE',  ( 0.0000000000000000000, 0.0000000000000000000, 1.000000000000000000 ) ) ;
#125 = APPROVAL ( #40, 'UNSPECIFIED' ) ;
#126 = DIRECTION ( 'NONE',  ( 1.000000000000000000, 0.0000000000000000000, 0.0000000000000000000 ) ) ;
#127 = EDGE_LOOP ( 'NONE', ( #115, #45, #64 ) ) ;
#128 = LOCAL_TIME ( 11, 57, 41.00000000000000000, #72 ) ;
#129 = CIRCLE ( 'NONE', #288, 71.84000000000000300 ) ;
#130 = PERSON_AND_ORGANIZATION ( #186, #24 ) ;
#131 = EDGE_CURVE ( 'NONE', #210, #10, #260, .T. ) ;
#132 = CARTESIAN_POINT ( 'NONE',  ( 2.135711360514066700, 2.147738688595557800, 0.09624916843712444400 ) ) ;
#133 = DIRECTION ( 'NONE',  ( 1.000000000000000000, 0.0000000000000000000, 0.0000000000000000000 ) ) ;
#134 = CARTESIAN_POINT ( 'NONE',  ( 6.349999999999999600, 1.221245327087670000E-015, -0.2811913179097140200 ) ) ;
#135 = CARTESIAN_POINT ( 'NONE',  ( 2.011288130407458100E-014, 2.147738688595558700, 0.09624916843712481900 ) ) ;
#136 = APPROVAL_DATE_TIME ( #5, #97 ) ;
#137 = CC_DESIGN_APPROVAL ( #97, ( #149 ) ) ;
#138 = APPLICATION_PROTOCOL_DEFINITION ( 'international standard', 'config_control_design', 1994, #209 ) ;
#139 = EDGE_CURVE ( 'NONE', #151, #118, #15, .T. ) ;
#140 = DIRECTION ( 'NONE',  ( -0.0000000000000000000, -0.0000000000000000000, -1.000000000000000000 ) ) ;
#141 = ORIENTED_EDGE ( 'NONE', *, *, #131, .T. ) ;
#142 = DIRECTION ( 'NONE',  ( 1.000000000000000000, 0.0000000000000000000, 0.0000000000000000000 ) ) ;
#143 = PERSON_AND_ORGANIZATION ( #186, #24 ) ;
#144 = EDGE_LOOP ( 'NONE', ( #266, #231, #256 ) ) ;
#145 = CARTESIAN_POINT ( 'NONE',  ( -2.124304124643130900, 6.425997332500624100, 2.987975861736145200 ) ) ;
#146 = VERTEX_POINT ( 'NONE', #105 ) ;
#147 = CARTESIAN_POINT ( 'NONE',  ( -8.673617379884035500E-016, -2.147738688595534700, 2.603750831562897000 ) ) ;
#148 = CARTESIAN_POINT ( 'NONE',  ( 2.602085213965211000E-015, 2.147738688595558300, 0.09624916843713171600 ) ) ;
#149 = PRODUCT_DEFINITION_FORMATION_WITH_SPECIFIED_SOURCE ( 'ANY', '', #165, .NOT_KNOWN. ) ;
#150 = CARTESIAN_POINT ( 'NONE',  ( -4.269306671150285800, 2.147738688595558700, 0.001201465360893121200 ) ) ;
#151 = VERTEX_POINT ( 'NONE', #172 ) ;
#152 = EDGE_CURVE ( 'NONE', #118, #215, #192, .T. ) ;
#153 = DIRECTION ( 'NONE',  ( 0.0000000000000000000, 0.0000000000000000000, 1.000000000000000000 ) ) ;
#154 = ORIENTED_EDGE ( 'NONE', *, *, #95, .T. ) ;
#155 = DIRECTION ( 'NONE',  ( 1.000000000000000000, 8.881784197001252300E-016, 0.0000000000000000000 ) ) ;
#156 = CARTESIAN_POINT ( 'NONE',  ( 4.269306671150246800, -2.147738688595552100, 0.001201465360892633800 ) ) ;
#157 = CARTESIAN_POINT ( 'NONE',  ( 2.091098294494648500E-014, 6.425997332500690700, -0.2879758617361366500 ) ) ;
#158 = CARTESIAN_POINT ( 'NONE',  ( -7.105427357601000300E-015, 7.105427357601000300E-015, 74.54000000000000600 ) ) ;
#159 = PERSON_AND_ORGANIZATION_ROLE ( 'creator' ) ;
#160 = LINE ( 'NONE', #178, #102 ) ;
#161 = AXIS2_PLACEMENT_3D ( 'NONE', #67, #225, #258 ) ;
#162 = PERSON_AND_ORGANIZATION_ROLE ( 'design_owner' ) ;
#163 = AXIS2_PLACEMENT_3D ( 'NONE', #197, #27, #79 ) ;
#164 = APPROVAL_ROLE ( '' ) ;
#165 = PRODUCT ( '114-1118E UVFS bi-cv 12.7 F-75', '114-1118E UVFS bi-cv 12.7 F-75', '', ( #233 ) ) ;
#166 = FACE_OUTER_BOUND ( 'NONE', #71, .T. ) ;
#167 =( BOUNDED_SURFACE ( )  B_SPLINE_SURFACE ( 3, 3, ( 
 ( #157, #88, #108, #12 ),
 ( #135, #132, #110, #205 ),
 ( #89, #183, #156, #87 ),
 ( #9, #228, #52, #49 ) ),
 .UNSPECIFIED., .F., .F., .F. ) 
 B_SPLINE_SURFACE_WITH_KNOTS ( ( 4, 4 ),
 ( 4, 4 ),
 ( 0.0000000000000000000, 1.000000000000000000 ),
 ( 0.0000000000000000000, 1.000000000000000000 ),
 .UNSPECIFIED. ) 
 GEOMETRIC_REPRESENTATION_ITEM ( )  RATIONAL_B_SPLINE_SURFACE ( (
 ( 1.000000000000000000, 0.9993394707053302500, 0.9993394707053302500, 1.000000000000000000),
 ( 0.9973276182095754900, 0.9966688541013648500, 0.9966688541013648500, 0.9973276182095754900),
 ( 0.9973276182095754900, 0.9966688541013648500, 0.9966688541013648500, 0.9973276182095754900),
 ( 1.000000000000000000, 0.9993394707053302500, 0.9993394707053302500, 1.000000000000000000) ) ) 
 REPRESENTATION_ITEM ( '' )  SURFACE ( )  );
#168 = CARTESIAN_POINT ( 'NONE',  ( -6.396558025291621000, -2.147738688595535600, 2.888705595414772500 ) ) ;
#169 = CARTESIAN_POINT ( 'NONE',  ( -1.924414205178392600E-014, -2.147738688595534700, 2.603750831562890300 ) ) ;
#170 = CC_DESIGN_PERSON_AND_ORGANIZATION_ASSIGNMENT ( #130, #159, ( #286 ) ) ;
#171 = CARTESIAN_POINT ( 'NONE',  ( -4.246503501628569500, 6.425997332500623200, 3.082515897162137800 ) ) ;
#172 = CARTESIAN_POINT ( 'NONE',  ( -6.349999999999999600, 1.998896044546239400E-015, -0.2811913179097140200 ) ) ;
#173 = DIRECTION ( 'NONE',  ( 1.000000000000000000, 0.0000000000000000000, 0.0000000000000000000 ) ) ;
#174 = CARTESIAN_POINT ( 'NONE',  ( 1.734723475976807100E-015, -6.425997332500683600, -0.2879758617361298200 ) ) ;
#175 = DATE_AND_TIME ( #75, #227 ) ;
#176 = CARTESIAN_POINT ( 'NONE',  ( 2.498001805406600200E-016, 1.221245327087670000E-015, -0.2811913179097140200 ) ) ;
#177 = SECURITY_CLASSIFICATION ( '', '', #91 ) ;
#178 = CARTESIAN_POINT ( 'NONE',  ( -6.349999999999999600, 1.998896044546239400E-015, -0.2811913179097140200 ) ) ;
#179 = EDGE_CURVE ( 'NONE', #251, #146, #237, .T. ) ;
#180 = ORIENTED_EDGE ( 'NONE', *, *, #107, .T. ) ;
#181 = CARTESIAN_POINT ( 'NONE',  ( 2.498001805406600200E-016, 1.221245327087670000E-015, 2.981191317909710000 ) ) ;
#182 = UNCERTAINTY_MEASURE_WITH_UNIT (LENGTH_MEASURE( 1.000000000000000100E-005 ), #264, 'distance_accuracy_value', 'NONE');
#183 = CARTESIAN_POINT ( 'NONE',  ( 2.135711360514066300, -2.147738688595551600, 0.09624916843712481900 ) ) ;
#184 = AXIS2_PLACEMENT_3D ( 'NONE', #3, #276, #220 ) ;
#185 = PERSON_AND_ORGANIZATION_ROLE ( 'creator' ) ;
#186 = PERSON ( 'UNSPECIFIED', 'UNSPECIFIED', 'UNSPECIFIED', ('UNSPECIFIED'), ('UNSPECIFIED'), ('UNSPECIFIED') ) ;
#187 = PERSON_AND_ORGANIZATION ( #186, #24 ) ;
#188 = EDGE_CURVE ( 'NONE', #10, #251, #41, .T. ) ;
#189 = CIRCLE ( 'NONE', #184, 6.349999999999999600 ) ;
#190 =( BOUNDED_SURFACE ( )  B_SPLINE_SURFACE ( 3, 3, ( 
 ( #267, #145, #171, #196 ),
 ( #194, #21, #42, #23 ),
 ( #169, #191, #58, #168 ),
 ( #77, #270, #240, #99 ) ),
 .UNSPECIFIED., .F., .F., .F. ) 
 B_SPLINE_SURFACE_WITH_KNOTS ( ( 4, 4 ),
 ( 4, 4 ),
 ( 0.0000000000000000000, 1.000000000000000000 ),
 ( 0.0000000000000000000, 1.000000000000000000 ),
 .UNSPECIFIED. ) 
 GEOMETRIC_REPRESENTATION_ITEM ( )  RATIONAL_B_SPLINE_SURFACE ( (
 ( 1.000000000000000000, 0.9993394707053302500, 0.9993394707053302500, 1.000000000000000000),
 ( 0.9973276182095756100, 0.9966688541013649600, 0.9966688541013649600, 0.9973276182095756100),
 ( 0.9973276182095756100, 0.9966688541013649600, 0.9966688541013649600, 0.9973276182095756100),
 ( 1.000000000000000000, 0.9993394707053302500, 0.9993394707053302500, 1.000000000000000000) ) ) 
 REPRESENTATION_ITEM ( '' )  SURFACE ( )  );
#191 = CARTESIAN_POINT ( 'NONE',  ( -2.135711360514066300, -2.147738688595534700, 2.603750831562890800 ) ) ;
#192 = CIRCLE ( 'NONE', #281, 6.349999999999999600 ) ;
#193 = CALENDAR_DATE ( 2019, 21, 1 ) ;
#194 = CARTESIAN_POINT ( 'NONE',  ( -2.011288130407458100E-014, 2.147738688595533900, 2.603750831562891200 ) ) ;
#195 = AXIS2_PLACEMENT_3D ( 'NONE', #277, #124, #173 ) ;
#196 = CARTESIAN_POINT ( 'NONE',  ( -6.362392806383449600, 6.425997332500620600, 3.271408628625373200 ) ) ;
#197 = CARTESIAN_POINT ( 'NONE',  ( 7.105427357601000300E-015, 7.105427357601000300E-015, -71.84000000000000300 ) ) ;
#198 = FACE_OUTER_BOUND ( 'NONE', #85, .T. ) ;
#199 = CARTESIAN_POINT ( 'NONE',  ( 1.832828589393148400E-014, -6.349999999999975700, -0.2811913179097133000 ) ) ;
#200 = AXIS2_PLACEMENT_3D ( 'NONE', #35, #51, #50 ) ;
#201 = CARTESIAN_POINT ( 'NONE',  ( -6.362392806383518000, -6.425997332500682700, -0.5714086286253694500 ) ) ;
#202 = PERSON_AND_ORGANIZATION ( #186, #24 ) ;
#203 = CYLINDRICAL_SURFACE ( 'NONE', #195, 6.349999999999999600 ) ;
#204 = DIRECTION ( 'NONE',  ( 1.000000000000000000, 0.0000000000000000000, 0.0000000000000000000 ) ) ;
#205 = CARTESIAN_POINT ( 'NONE',  ( 6.396558025291624500, 2.147738688595557400, -0.1887055954147565900 ) ) ;
#206 = DIRECTION ( 'NONE',  ( -0.0000000000000000000, -0.0000000000000000000, -1.000000000000000000 ) ) ;
#207 = EDGE_CURVE ( 'NONE', #151, #146, #160, .T. ) ;
#208 = CARTESIAN_POINT ( 'NONE',  ( 2.498001805406600200E-016, 1.221245327087670000E-015, -0.2811913179097140200 ) ) ;
#209 = APPLICATION_CONTEXT ( 'configuration controlled 3d designs of mechanical parts and assemblies' ) ;
#210 = VERTEX_POINT ( 'NONE', #68 ) ;
#211 = CC_DESIGN_DATE_AND_TIME_ASSIGNMENT ( #252, #16, ( #286 ) ) ;
#212 = EDGE_CURVE ( 'NONE', #210, #251, #129, .T. ) ;
#213 = ORIENTED_EDGE ( 'NONE', *, *, #103, .F. ) ;
#214 = ADVANCED_BREP_SHAPE_REPRESENTATION ( '114-1118E UVFS bi-cv 12.7 F-75', ( #291, #161 ), #271 ) ;
#215 = VERTEX_POINT ( 'NONE', #134 ) ;
#216 = ADVANCED_FACE ( 'NONE', ( #273 ), #167, .F. ) ;
#217 = COORDINATED_UNIVERSAL_TIME_OFFSET ( 2, 0, .AHEAD. ) ;
#218 = CARTESIAN_POINT ( 'NONE',  ( -2.135711360514074700, 2.147738688595558300, 0.09624916843713157700 ) ) ;
#219 = EDGE_CURVE ( 'NONE', #215, #10, #294, .T. ) ;
#220 = DIRECTION ( 'NONE',  ( 1.000000000000000000, 0.0000000000000000000, 0.0000000000000000000 ) ) ;
#221 = ORIENTED_EDGE ( 'NONE', *, *, #219, .T. ) ;
#222 = CARTESIAN_POINT ( 'NONE',  ( -6.396558025291691200, 2.147738688595559600, -0.1887055954147608700 ) ) ;
#223 = VECTOR ( 'NONE', #34, 1000.000000000000000 ) ;
#224 = CC_DESIGN_DATE_AND_TIME_ASSIGNMENT ( #69, #70, ( #177 ) ) ;
#225 = DIRECTION ( 'NONE',  ( 0.0000000000000000000, 0.0000000000000000000, 1.000000000000000000 ) ) ;
#226 = AXIS2_PLACEMENT_3D ( 'NONE', #65, #90, #11 ) ;
#227 = LOCAL_TIME ( 11, 57, 41.00000000000000000, #217 ) ;
#228 = CARTESIAN_POINT ( 'NONE',  ( 2.124304124643128700, -6.425997332500683600, -0.2879758617361370400 ) ) ;
#229 = APPROVAL ( #14, 'UNSPECIFIED' ) ;
#230 = LOCAL_TIME ( 11, 57, 41.00000000000000000, #269 ) ;
#231 = ORIENTED_EDGE ( 'NONE', *, *, #95, .F. ) ;
#232 =( NAMED_UNIT ( * ) SI_UNIT ( $, .STERADIAN. ) SOLID_ANGLE_UNIT ( ) );
#233 = MECHANICAL_CONTEXT ( 'NONE', #92, 'mechanical' ) ;
#234 = AXIS2_PLACEMENT_3D ( 'NONE', #37, #140, #142 ) ;
#235 = DESIGN_CONTEXT ( 'detailed design', #209, 'design' ) ;
#236 = PERSON_AND_ORGANIZATION ( #186, #24 ) ;
#237 = CIRCLE ( 'NONE', #248, 6.349999999999999600 ) ;
#238 = CIRCLE ( 'NONE', #234, 6.349999999999999600 ) ;
#239 = CARTESIAN_POINT ( 'NONE',  ( 4.246503501628606800, 6.425997332500625000, 3.082515897162150700 ) ) ;
#240 = CARTESIAN_POINT ( 'NONE',  ( -4.246503501628566800, -6.425997332500625900, 3.082515897162137800 ) ) ;
#241 = CARTESIAN_POINT ( 'NONE',  ( 6.396558025291692000, -2.147738688595533900, 2.888705595414789300 ) ) ;
#242 = CARTESIAN_POINT ( 'NONE',  ( 6.362392806383518000, -6.425997332500622300, 3.271408628625391400 ) ) ;
#243 = FACE_OUTER_BOUND ( 'NONE', #111, .T. ) ;
#244 = CIRCLE ( 'NONE', #163, 71.84000000000000300 ) ;
#245 = CARTESIAN_POINT ( 'NONE',  ( 4.269306671150285800, 2.147738688595533900, 2.698798534639136100 ) ) ;
#246 = CC_DESIGN_PERSON_AND_ORGANIZATION_ASSIGNMENT ( #120, #94, ( #177 ) ) ;
#247 = CARTESIAN_POINT ( 'NONE',  ( 2.124304124643139300, -6.425997332500625900, 2.987975861736151800 ) ) ;
#248 = AXIS2_PLACEMENT_3D ( 'NONE', #253, #282, #155 ) ;
#249 = CARTESIAN_POINT ( 'NONE',  ( 2.602085213965211000E-015, -2.147738688595552100, 0.09624916843713216000 ) ) ;
#250 = ORIENTED_EDGE ( 'NONE', *, *, #179, .F. ) ;
#251 = VERTEX_POINT ( 'NONE', #13 ) ;
#252 = DATE_AND_TIME ( #193, #7 ) ;
#253 = CARTESIAN_POINT ( 'NONE',  ( 2.498001805406600200E-016, 1.221245327087670000E-015, 2.981191317909710000 ) ) ;
#254 = DIRECTION ( 'NONE',  ( -2.022451001380298500E-016, 1.000000000000000000, 3.863526672554136000E-016 ) ) ;
#255 = DIRECTION ( 'NONE',  ( 0.0000000000000000000, 0.0000000000000000000, 1.000000000000000000 ) ) ;
#256 = ORIENTED_EDGE ( 'NONE', *, *, #152, .F. ) ;
#257 = CARTESIAN_POINT ( 'NONE',  ( 2.498001805406600200E-016, 1.221245327087670000E-015, -0.2811913179097140200 ) ) ;
#258 = DIRECTION ( 'NONE',  ( 1.000000000000000000, 0.0000000000000000000, 0.0000000000000000000 ) ) ;
#259 = ORIENTED_EDGE ( 'NONE', *, *, #274, .T. ) ;
#260 = CIRCLE ( 'NONE', #200, 6.349999999999999600 ) ;
#261 = APPROVAL_DATE_TIME ( #175, #229 ) ;
#262 = APPLICATION_PROTOCOL_DEFINITION ( 'international standard', 'config_control_design', 1994, #92 ) ;
#263 = ADVANCED_FACE ( 'NONE', ( #166 ), #116, .T. ) ;
#264 =( LENGTH_UNIT ( ) NAMED_UNIT ( * ) SI_UNIT ( .MILLI., .METRE. ) );
#265 = APPROVAL_DATE_TIME ( #78, #125 ) ;
#266 = ORIENTED_EDGE ( 'NONE', *, *, #107, .F. ) ;
#267 = CARTESIAN_POINT ( 'NONE',  ( -2.091098294494647300E-014, 6.425997332500622300, 2.987975861736144700 ) ) ;
#268 = AXIS2_PLACEMENT_3D ( 'NONE', #181, #206, #133 ) ;
#269 = COORDINATED_UNIVERSAL_TIME_OFFSET ( 2, 0, .AHEAD. ) ;
#270 = CARTESIAN_POINT ( 'NONE',  ( -2.124304124643128700, -6.425997332500625000, 2.987975861736145200 ) ) ;
#271 =( GEOMETRIC_REPRESENTATION_CONTEXT ( 3 ) GLOBAL_UNCERTAINTY_ASSIGNED_CONTEXT ( ( #182 ) ) GLOBAL_UNIT_ASSIGNED_CONTEXT ( ( #264, #285, #232 ) ) REPRESENTATION_CONTEXT ( 'NONE', 'WORKASPACE' ) );
#272 = CARTESIAN_POINT ( 'NONE',  ( 2.135711360514075600, 2.147738688595533900, 2.603750831562897400 ) ) ;
#273 = FACE_OUTER_BOUND ( 'NONE', #144, .T. ) ;
#274 = EDGE_CURVE ( 'NONE', #146, #210, #238, .T. ) ;
#275 = CARTESIAN_POINT ( 'NONE',  ( 3.469446951953614200E-015, 6.425997332500690700, -0.2879758617361297100 ) ) ;
#276 = DIRECTION ( 'NONE',  ( 0.0000000000000000000, 0.0000000000000000000, 1.000000000000000000 ) ) ;
#277 = CARTESIAN_POINT ( 'NONE',  ( 2.498001805406600200E-016, 1.221245327087670000E-015, -0.2811913179097140200 ) ) ;
#278 = ORIENTED_EDGE ( 'NONE', *, *, #274, .F. ) ;
#279 = ORIENTED_EDGE ( 'NONE', *, *, #152, .T. ) ;
#280 = CARTESIAN_POINT ( 'NONE',  ( 4.269306671150286700, -2.147738688595533900, 2.698798534639135200 ) ) ;
#281 = AXIS2_PLACEMENT_3D ( 'NONE', #257, #283, #126 ) ;
#282 = DIRECTION ( 'NONE',  ( -0.0000000000000000000, -0.0000000000000000000, -1.000000000000000000 ) ) ;
#283 = DIRECTION ( 'NONE',  ( 0.0000000000000000000, 0.0000000000000000000, 1.000000000000000000 ) ) ;
#284 = CARTESIAN_POINT ( 'NONE',  ( 6.349999999999999600, 1.221245327087670000E-015, -0.2811913179097140200 ) ) ;
#285 =( NAMED_UNIT ( * ) PLANE_ANGLE_UNIT ( ) SI_UNIT ( $, .RADIAN. ) );
#286 = PRODUCT_DEFINITION ( 'UNKNOWN', '', #149, #235 ) ;
#287 = VERTEX_POINT ( 'NONE', #8 ) ;
#288 = AXIS2_PLACEMENT_3D ( 'NONE', #158, #106, #254 ) ;
#289 = APPROVAL_STATUS ( 'not_yet_approved' ) ;
#290 = SHAPE_DEFINITION_REPRESENTATION ( #86, #214 ) ;
#291 = MANIFOLD_SOLID_BREP ( 'Imported1', #32 ) ;
#292 = AXIS2_PLACEMENT_3D ( 'NONE', #176, #153, #48 ) ;
#293 = APPROVAL_PERSON_ORGANIZATION ( #236, #125, #17 ) ;
#294 = LINE ( 'NONE', #284, #223 ) ;
#295 = CC_DESIGN_PERSON_AND_ORGANIZATION_ASSIGNMENT ( #202, #113, ( #149 ) ) ;
ENDSEC;
END-ISO-10303-21;
