ISO-10303-21;
HEADER;
FILE_DESCRIPTION (( 'STEP AP203' ),
    '1' );
FILE_NAME ('114-1114E UVFS bi-cv 12.7 F-50.STEP',
    '2019-01-21T09:45:46',
    ( '' ),
    ( '' ),
    'SwSTEP 2.0',
    'SolidWorks 2017',
    '' );
FILE_SCHEMA (( 'CONFIG_CONTROL_DESIGN' ));
ENDSEC;

DATA;
#1 = CARTESIAN_POINT ( 'NONE',  ( 2.498001805406600200E-016, 1.221245327087670000E-015, 3.021702761548290100 ) ) ;
#2 = COORDINATED_UNIVERSAL_TIME_OFFSET ( 2, 0, .AHEAD. ) ;
#3 = VERTEX_POINT ( 'NONE', #108 ) ;
#4 = CALENDAR_DATE ( 2019, 21, 1 ) ;
#5 = PERSON_AND_ORGANIZATION_ROLE ( 'creator' ) ;
#6 = CARTESIAN_POINT ( 'NONE',  ( -6.407139682286398000, 2.154834582505291300, 2.883233275330067800 ) ) ;
#7 = CARTESIAN_POINT ( 'NONE',  ( 4.231261732288443200, -6.425744630683593300, -0.5730559837883197900 ) ) ;
#8 = CARTESIAN_POINT ( 'NONE',  ( -1.049911570915472700E-014, -6.425744630683640300, 3.031869064426984100 ) ) ;
#9 = CARTESIAN_POINT ( 'NONE',  ( -1.052469185063103300E-014, -6.350000000000044900, 3.021702761548290500 ) ) ;
#10 = DATE_AND_TIME ( #123, #283 ) ;
#11 = EDGE_LOOP ( 'NONE', ( #172, #38, #188 ) ) ;
#12 = CC_DESIGN_APPROVAL ( #213, ( #86 ) ) ;
#13 = CARTESIAN_POINT ( 'NONE',  ( 1.436729821303700600E-014, 6.350000000000001400, -0.4217027615482829000 ) ) ;
#14 = ORIENTED_EDGE ( 'NONE', *, *, #135, .T. ) ;
#15 =( BOUNDED_SURFACE ( )  B_SPLINE_SURFACE ( 3, 3, ( 
 ( #224, #22, #46, #273 ),
 ( #68, #249, #119, #6 ),
 ( #229, #75, #95, #202 ),
 ( #8, #230, #77, #281 ) ),
 .UNSPECIFIED., .F., .F., .F. ) 
 B_SPLINE_SURFACE_WITH_KNOTS ( ( 4, 4 ),
 ( 4, 4 ),
 ( 0.0000000000000000000, 1.000000000000000000 ),
 ( 0.0000000000000000000, 1.000000000000000000 ),
 .UNSPECIFIED. ) 
 GEOMETRIC_REPRESENTATION_ITEM ( )  RATIONAL_B_SPLINE_SURFACE ( (
 ( 1.000000000000000000, 0.9985171247781247100, 0.9985171247781247100, 1.000000000000000000),
 ( 0.9940043167509787800, 0.9925303323792317200, 0.9925303323792317200, 0.9940043167509787800),
 ( 0.9940043167509787800, 0.9925303323792317200, 0.9925303323792317200, 0.9940043167509787800),
 ( 1.000000000000000000, 0.9985171247781247100, 0.9985171247781247100, 1.000000000000000000) ) ) 
 REPRESENTATION_ITEM ( '' )  SURFACE ( )  );
#16 = DIRECTION ( 'NONE',  ( 0.0000000000000000000, 0.0000000000000000000, 1.000000000000000000 ) ) ;
#17 = EDGE_CURVE ( 'NONE', #225, #244, #65, .T. ) ;
#18 = APPROVAL_PERSON_ORGANIZATION ( #89, #213, #246 ) ;
#19 = CARTESIAN_POINT ( 'NONE',  ( 0.0000000000000000000, 7.105427357601000300E-015, -48.02000000000001000 ) ) ;
#20 = ORIENTED_EDGE ( 'NONE', *, *, #292, .F. ) ;
#21 = CARTESIAN_POINT ( 'NONE',  ( 0.0000000000000000000, 0.0000000000000000000, 0.0000000000000000000 ) ) ;
#22 = CARTESIAN_POINT ( 'NONE',  ( -2.117986398306971100, 6.425744630683653600, 3.031869064426984100 ) ) ;
#23 = PRODUCT_DEFINITION_FORMATION_WITH_SPECIFIED_SOURCE ( 'ANY', '', #184, .NOT_KNOWN. ) ;
#24 = PERSON_AND_ORGANIZATION_ROLE ( 'design_owner' ) ;
#25 = ORIENTED_EDGE ( 'NONE', *, *, #111, .F. ) ;
#26 = DIRECTION ( 'NONE',  ( 0.0000000000000000000, 0.0000000000000000000, 1.000000000000000000 ) ) ;
#27 = PRODUCT_RELATED_PRODUCT_CATEGORY ( 'detail', '', ( #184 ) ) ;
#28 = CARTESIAN_POINT ( 'NONE',  ( -2.143653081948606600, -2.154834582505267300, 0.1448246777031430300 ) ) ;
#29 = CARTESIAN_POINT ( 'NONE',  ( 6.330424831055176500, 6.425744630683656300, 3.454801734757845500 ) ) ;
#30 = EDGE_LOOP ( 'NONE', ( #261, #101, #112, #278, #216, #136 ) ) ;
#31 = AXIS2_PLACEMENT_3D ( 'NONE', #105, #169, #35 ) ;
#32 = CYLINDRICAL_SURFACE ( 'NONE', #107, 6.349999999999999600 ) ;
#33 = ORGANIZATION ( 'UNSPECIFIED', 'UNSPECIFIED', '' ) ;
#34 = CARTESIAN_POINT ( 'NONE',  ( 2.498001805406600200E-016, 1.221245327087670000E-015, -0.4217027615482870100 ) ) ;
#35 = DIRECTION ( 'NONE',  ( 1.000000000000000000, 0.0000000000000000000, 0.0000000000000000000 ) ) ;
#36 = EDGE_CURVE ( 'NONE', #239, #97, #152, .T. ) ;
#37 = AXIS2_PLACEMENT_3D ( 'NONE', #133, #243, #267 ) ;
#38 = ORIENTED_EDGE ( 'NONE', *, *, #268, .T. ) ;
#39 = EDGE_LOOP ( 'NONE', ( #45, #85, #257, #147, #14, #242 ) ) ;
#40 = CARTESIAN_POINT ( 'NONE',  ( -4.231261732288452900, -6.425744630683591500, -0.5730559837883199000 ) ) ;
#41 = CARTESIAN_POINT ( 'NONE',  ( 1.438755778806193500E-014, 6.425744630683596800, -0.4318690644269859700 ) ) ;
#42 = PERSON_AND_ORGANIZATION ( #171, #33 ) ;
#43 = EDGE_CURVE ( 'NONE', #239, #191, #232, .T. ) ;
#44 = DIRECTION ( 'NONE',  ( 1.000000000000000000, 0.0000000000000000000, 0.0000000000000000000 ) ) ;
#45 = ORIENTED_EDGE ( 'NONE', *, *, #231, .T. ) ;
#46 = CARTESIAN_POINT ( 'NONE',  ( -4.231261732288449400, 6.425744630683653600, 3.173055983788311000 ) ) ;
#47 = CARTESIAN_POINT ( 'NONE',  ( 2.498001805406600200E-016, 1.221245327087670000E-015, -0.4217027615482870100 ) ) ;
#48 = DIRECTION ( 'NONE',  ( 0.0000000000000000000, 0.0000000000000000000, 1.000000000000000000 ) ) ;
#49 = CARTESIAN_POINT ( 'NONE',  ( 6.407139682286407700, 2.154834582505295200, 2.883233275330069600 ) ) ;
#50 = LINE ( 'NONE', #143, #93 ) ;
#51 = APPROVAL_PERSON_ORGANIZATION ( #121, #90, #179 ) ;
#52 = ADVANCED_FACE ( 'NONE', ( #76 ), #192, .F. ) ;
#53 = CARTESIAN_POINT ( 'NONE',  ( 0.0000000000000000000, -2.154834582505267300, 0.1448246777031430300 ) ) ;
#54 = CC_DESIGN_PERSON_AND_ORGANIZATION_ASSIGNMENT ( #129, #276, ( #183 ) ) ;
#55 = CYLINDRICAL_SURFACE ( 'NONE', #175, 6.349999999999999600 ) ;
#56 = CARTESIAN_POINT ( 'NONE',  ( -6.407139682286406800, -2.154834582505265500, -0.2832332753300874600 ) ) ;
#57 = EDGE_CURVE ( 'NONE', #97, #225, #50, .T. ) ;
#58 = DIRECTION ( 'NONE',  ( 1.000000000000000000, 0.0000000000000000000, 0.0000000000000000000 ) ) ;
#59 = EDGE_CURVE ( 'NONE', #3, #162, #271, .T. ) ;
#60 = CARTESIAN_POINT ( 'NONE',  ( -6.330424831055177400, 6.425744630683598600, -0.8548017347578471500 ) ) ;
#61 = CARTESIAN_POINT ( 'NONE',  ( -2.117986398306966700, -6.425744630683591500, -0.4318690644269933000 ) ) ;
#62 = SHAPE_DEFINITION_REPRESENTATION ( #262, #69 ) ;
#63 = AXIS2_PLACEMENT_3D ( 'NONE', #104, #212, #58 ) ;
#64 = ORIENTED_EDGE ( 'NONE', *, *, #43, .T. ) ;
#65 = CIRCLE ( 'NONE', #134, 6.349999999999999600 ) ;
#66 = SECURITY_CLASSIFICATION_LEVEL ( 'unclassified' ) ;
#67 = CARTESIAN_POINT ( 'NONE',  ( 2.117986398306966700, -6.425744630683593300, -0.4318690644269934700 ) ) ;
#68 = CARTESIAN_POINT ( 'NONE',  ( -1.324611329658639800E-014, 2.154834582505293000, 2.455175322296839100 ) ) ;
#69 = ADVANCED_BREP_SHAPE_REPRESENTATION ( '114-1114E UVFS bi-cv 12.7 F-50', ( #138, #258 ), #163 ) ;
#70 = CARTESIAN_POINT ( 'NONE',  ( 2.143653081948609700, -2.154834582505268200, 0.1448246777031428300 ) ) ;
#71 = ORIENTED_EDGE ( 'NONE', *, *, #263, .F. ) ;
#72 = APPROVAL_DATE_TIME ( #167, #213 ) ;
#73 = APPROVAL_ROLE ( '' ) ;
#74 = CC_DESIGN_DATE_AND_TIME_ASSIGNMENT ( #205, #228, ( #183 ) ) ;
#75 = CARTESIAN_POINT ( 'NONE',  ( -2.143653081948610600, -2.154834582505280600, 2.455175322296840000 ) ) ;
#76 = FACE_OUTER_BOUND ( 'NONE', #151, .T. ) ;
#77 = CARTESIAN_POINT ( 'NONE',  ( -4.231261732288445800, -6.425744630683642100, 3.173055983788311000 ) ) ;
#78 = CARTESIAN_POINT ( 'NONE',  ( 6.407139682286408600, -2.154834582505278400, 2.883233275330069600 ) ) ;
#79 = CC_DESIGN_APPROVAL ( #199, ( #23 ) ) ;
#80 = CARTESIAN_POINT ( 'NONE',  ( 1.052469185063105400E-014, -6.349999999999992500, -0.4217027615482829000 ) ) ;
#81 = DIRECTION ( 'NONE',  ( 1.000000000000000000, -8.881784197001252300E-016, 0.0000000000000000000 ) ) ;
#82 = CARTESIAN_POINT ( 'NONE',  ( 6.349999999999999600, 1.221245327087670000E-015, -0.4217027615482870100 ) ) ;
#83 = CARTESIAN_POINT ( 'NONE',  ( 2.117986398306963100, 6.425744630683655400, 3.031869064426984100 ) ) ;
#84 =( LENGTH_UNIT ( ) NAMED_UNIT ( * ) SI_UNIT ( .MILLI., .METRE. ) );
#85 = ORIENTED_EDGE ( 'NONE', *, *, #36, .T. ) ;
#86 = PRODUCT_DEFINITION ( 'UNKNOWN', '', #23, #145 ) ;
#87 = CARTESIAN_POINT ( 'NONE',  ( 2.498001805406600200E-016, 1.221245327087670000E-015, -0.4217027615482870100 ) ) ;
#88 = PERSON_AND_ORGANIZATION ( #171, #33 ) ;
#89 = PERSON_AND_ORGANIZATION ( #171, #33 ) ;
#90 = APPROVAL ( #140, 'UNSPECIFIED' ) ;
#91 = APPLICATION_PROTOCOL_DEFINITION ( 'international standard', 'config_control_design', 1994, #269 ) ;
#92 = CARTESIAN_POINT ( 'NONE',  ( 1.049911570915474100E-014, -6.425744630683592400, -0.4318690644269929100 ) ) ;
#93 = VECTOR ( 'NONE', #248, 1000.000000000000000 ) ;
#94 = AXIS2_PLACEMENT_3D ( 'NONE', #19, #247, #115 ) ;
#95 = CARTESIAN_POINT ( 'NONE',  ( -4.282538008837933700, -2.154834582505281500, 2.598073206372803100 ) ) ;
#96 = DIRECTION ( 'NONE',  ( -0.0000000000000000000, -0.0000000000000000000, -1.000000000000000000 ) ) ;
#97 = VERTEX_POINT ( 'NONE', #198 ) ;
#98 = CALENDAR_DATE ( 2019, 21, 1 ) ;
#99 = ADVANCED_FACE ( 'NONE', ( #245 ), #15, .F. ) ;
#100 = AXIS2_PLACEMENT_3D ( 'NONE', #215, #189, #241 ) ;
#101 = ORIENTED_EDGE ( 'NONE', *, *, #292, .T. ) ;
#102 = CARTESIAN_POINT ( 'NONE',  ( -4.282538008837936300, -2.154834582505266400, 0.001926793627178861800 ) ) ;
#103 = CARTESIAN_POINT ( 'NONE',  ( 4.231261732288452900, -6.425744630683639400, 3.173055983788311400 ) ) ;
#104 = CARTESIAN_POINT ( 'NONE',  ( 2.498001805406600200E-016, 1.221245327087670000E-015, 3.021702761548290100 ) ) ;
#105 = CARTESIAN_POINT ( 'NONE',  ( 2.498001805406600200E-016, 1.221245327087670000E-015, -0.4217027615482870100 ) ) ;
#106 = CARTESIAN_POINT ( 'NONE',  ( -6.407139682286406800, 2.154834582505273000, -0.2832332753300813600 ) ) ;
#107 = AXIS2_PLACEMENT_3D ( 'NONE', #87, #16, #254 ) ;
#108 = CARTESIAN_POINT ( 'NONE',  ( 6.349999999999999600, 1.221245327087670000E-015, 3.021702761548290100 ) ) ;
#109 = EDGE_CURVE ( 'NONE', #252, #3, #294, .T. ) ;
#110 = COORDINATED_UNIVERSAL_TIME_OFFSET ( 2, 0, .AHEAD. ) ;
#111 = EDGE_CURVE ( 'NONE', #191, #252, #265, .T. ) ;
#112 = ORIENTED_EDGE ( 'NONE', *, *, #111, .T. ) ;
#113 = CIRCLE ( 'NONE', #31, 6.349999999999999600 ) ;
#114 = CC_DESIGN_PERSON_AND_ORGANIZATION_ASSIGNMENT ( #126, #5, ( #86 ) ) ;
#115 = DIRECTION ( 'NONE',  ( 3.025674301107049200E-016, 1.000000000000000000, -2.890001625950531900E-016 ) ) ;
#116 = ADVANCED_FACE ( 'NONE', ( #217 ), #280, .F. ) ;
#117 = ADVANCED_FACE ( 'NONE', ( #233 ), #55, .T. ) ;
#118 = MECHANICAL_CONTEXT ( 'NONE', #223, 'mechanical' ) ;
#119 = CARTESIAN_POINT ( 'NONE',  ( -4.282538008837935500, 2.154834582505293000, 2.598073206372803100 ) ) ;
#120 = CC_DESIGN_SECURITY_CLASSIFICATION ( #183, ( #23 ) ) ;
#121 = PERSON_AND_ORGANIZATION ( #171, #33 ) ;
#122 = CARTESIAN_POINT ( 'NONE',  ( 2.498001805406600200E-016, 1.221245327087670000E-015, -0.4217027615482870100 ) ) ;
#123 = CALENDAR_DATE ( 2019, 21, 1 ) ;
#124 = DATE_AND_TIME ( #130, #221 ) ;
#125 = CC_DESIGN_PERSON_AND_ORGANIZATION_ASSIGNMENT ( #174, #193, ( #23 ) ) ;
#126 = PERSON_AND_ORGANIZATION ( #171, #33 ) ;
#127 = CARTESIAN_POINT ( 'NONE',  ( -4.282538008837936300, 2.154834582505273500, 0.001926793627184987500 ) ) ;
#128 = ADVANCED_FACE ( 'NONE', ( #226 ), #253, .F. ) ;
#129 = PERSON_AND_ORGANIZATION ( #171, #33 ) ;
#130 = CALENDAR_DATE ( 2019, 21, 1 ) ;
#131 = CARTESIAN_POINT ( 'NONE',  ( 2.498001805406600200E-016, 1.221245327087670000E-015, 3.021702761548290100 ) ) ;
#132 = COORDINATED_UNIVERSAL_TIME_OFFSET ( 2, 0, .AHEAD. ) ;
#133 = CARTESIAN_POINT ( 'NONE',  ( 0.0000000000000000000, 7.105427357601000300E-015, 50.61999999999999700 ) ) ;
#134 = AXIS2_PLACEMENT_3D ( 'NONE', #131, #266, #290 ) ;
#135 = EDGE_CURVE ( 'NONE', #244, #3, #154, .T. ) ;
#136 = ORIENTED_EDGE ( 'NONE', *, *, #263, .T. ) ;
#137 = LOCAL_TIME ( 11, 45, 46.00000000000000000, #275 ) ;
#138 = MANIFOLD_SOLID_BREP ( 'Imported1', #146 ) ;
#139 = CC_DESIGN_PERSON_AND_ORGANIZATION_ASSIGNMENT ( #88, #220, ( #23 ) ) ;
#140 = APPROVAL_STATUS ( 'not_yet_approved' ) ;
#141 = APPLICATION_PROTOCOL_DEFINITION ( 'international standard', 'config_control_design', 1994, #223 ) ;
#142 = DIRECTION ( 'NONE',  ( -0.0000000000000000000, -0.0000000000000000000, -1.000000000000000000 ) ) ;
#143 = CARTESIAN_POINT ( 'NONE',  ( -6.349999999999999600, 1.998896044546239400E-015, -0.4217027615482870100 ) ) ;
#144 = AXIS2_PLACEMENT_3D ( 'NONE', #122, #48, #255 ) ;
#145 = DESIGN_CONTEXT ( 'detailed design', #269, 'design' ) ;
#146 = CLOSED_SHELL ( 'NONE', ( #128, #116, #264, #117, #52, #99 ) ) ;
#147 = ORIENTED_EDGE ( 'NONE', *, *, #17, .T. ) ;
#148 = CARTESIAN_POINT ( 'NONE',  ( 4.231261732288449400, 6.425744630683655400, 3.173055983788311400 ) ) ;
#149 = DIRECTION ( 'NONE',  ( 0.0000000000000000000, 0.0000000000000000000, 1.000000000000000000 ) ) ;
#150 = APPROVAL_DATE_TIME ( #124, #199 ) ;
#151 = EDGE_LOOP ( 'NONE', ( #208, #260, #25 ) ) ;
#152 = CIRCLE ( 'NONE', #100, 6.349999999999999600 ) ;
#153 = DIRECTION ( 'NONE',  ( 1.000000000000000000, 0.0000000000000000000, 0.0000000000000000000 ) ) ;
#154 = CIRCLE ( 'NONE', #206, 6.349999999999999600 ) ;
#155 =( NAMED_UNIT ( * ) PLANE_ANGLE_UNIT ( ) SI_UNIT ( $, .RADIAN. ) );
#156 = CARTESIAN_POINT ( 'NONE',  ( 2.143653081948611500, 2.154834582505271700, 0.1448246777031488900 ) ) ;
#157 = APPROVAL_STATUS ( 'not_yet_approved' ) ;
#158 = CIRCLE ( 'NONE', #37, 48.02000000000001000 ) ;
#159 = CARTESIAN_POINT ( 'NONE',  ( 6.330424831055161400, -6.425744630683594100, -0.8548017347578520400 ) ) ;
#160 = CARTESIAN_POINT ( 'NONE',  ( 4.282538008837937200, -2.154834582505279300, 2.598073206372803600 ) ) ;
#161 = COORDINATED_UNIVERSAL_TIME_OFFSET ( 2, 0, .AHEAD. ) ;
#162 = VERTEX_POINT ( 'NONE', #9 ) ;
#163 =( GEOMETRIC_REPRESENTATION_CONTEXT ( 3 ) GLOBAL_UNCERTAINTY_ASSIGNED_CONTEXT ( ( #168 ) ) GLOBAL_UNIT_ASSIGNED_CONTEXT ( ( #84, #155, #195 ) ) REPRESENTATION_CONTEXT ( 'NONE', 'WORKASPACE' ) );
#164 = DATE_AND_TIME ( #98, #289 ) ;
#165 = CARTESIAN_POINT ( 'NONE',  ( 0.0000000000000000000, -2.154834582505280600, 2.455175322296840400 ) ) ;
#166 = ORIENTED_EDGE ( 'NONE', *, *, #17, .F. ) ;
#167 = DATE_AND_TIME ( #4, #227 ) ;
#168 = UNCERTAINTY_MEASURE_WITH_UNIT (LENGTH_MEASURE( 1.000000000000000100E-005 ), #84, 'distance_accuracy_value', 'NONE');
#169 = DIRECTION ( 'NONE',  ( 0.0000000000000000000, 0.0000000000000000000, 1.000000000000000000 ) ) ;
#170 = CC_DESIGN_DATE_AND_TIME_ASSIGNMENT ( #164, #197, ( #86 ) ) ;
#171 = PERSON ( 'UNSPECIFIED', 'UNSPECIFIED', 'UNSPECIFIED', ('UNSPECIFIED'), ('UNSPECIFIED'), ('UNSPECIFIED') ) ;
#172 = ORIENTED_EDGE ( 'NONE', *, *, #135, .F. ) ;
#173 = CARTESIAN_POINT ( 'NONE',  ( -2.117986398306963600, 6.425744630683597700, -0.4318690644269862500 ) ) ;
#174 = PERSON_AND_ORGANIZATION ( #171, #33 ) ;
#175 = AXIS2_PLACEMENT_3D ( 'NONE', #34, #149, #201 ) ;
#176 = CALENDAR_DATE ( 2019, 21, 1 ) ;
#177 = CARTESIAN_POINT ( 'NONE',  ( 4.282538008837931000, 2.154834582505270800, 0.001926793627185041700 ) ) ;
#178 = CARTESIAN_POINT ( 'NONE',  ( 1.194214777270180300E-014, -2.154834582505267300, 0.1448246777031433300 ) ) ;
#179 = APPROVAL_ROLE ( '' ) ;
#180 = APPROVAL_DATE_TIME ( #10, #90 ) ;
#181 = APPROVAL_STATUS ( 'not_yet_approved' ) ;
#182 = DIRECTION ( 'NONE',  ( 0.0000000000000000000, 0.0000000000000000000, 1.000000000000000000 ) ) ;
#183 = SECURITY_CLASSIFICATION ( '', '', #66 ) ;
#184 = PRODUCT ( '114-1114E UVFS bi-cv 12.7 F-50', '114-1114E UVFS bi-cv 12.7 F-50', '', ( #118 ) ) ;
#185 = CARTESIAN_POINT ( 'NONE',  ( 2.143653081948606200, 2.154834582505294400, 2.455175322296840000 ) ) ;
#186 = CIRCLE ( 'NONE', #187, 6.349999999999999600 ) ;
#187 = AXIS2_PLACEMENT_3D ( 'NONE', #47, #182, #153 ) ;
#188 = ORIENTED_EDGE ( 'NONE', *, *, #59, .F. ) ;
#189 = DIRECTION ( 'NONE',  ( 0.0000000000000000000, 0.0000000000000000000, 1.000000000000000000 ) ) ;
#190 = EDGE_LOOP ( 'NONE', ( #209, #166, #71 ) ) ;
#191 = VERTEX_POINT ( 'NONE', #80 ) ;
#192 =( BOUNDED_SURFACE ( )  B_SPLINE_SURFACE ( 3, 3, ( 
 ( #41, #196, #270, #219 ),
 ( #277, #156, #177, #194 ),
 ( #178, #70, #274, #279 ),
 ( #92, #67, #7, #159 ) ),
 .UNSPECIFIED., .F., .F., .F. ) 
 B_SPLINE_SURFACE_WITH_KNOTS ( ( 4, 4 ),
 ( 4, 4 ),
 ( 0.0000000000000000000, 1.000000000000000000 ),
 ( 0.0000000000000000000, 1.000000000000000000 ),
 .UNSPECIFIED. ) 
 GEOMETRIC_REPRESENTATION_ITEM ( )  RATIONAL_B_SPLINE_SURFACE ( (
 ( 1.000000000000000000, 0.9985171247781247100, 0.9985171247781247100, 1.000000000000000000),
 ( 0.9940043167509788900, 0.9925303323792318300, 0.9925303323792318300, 0.9940043167509788900),
 ( 0.9940043167509788900, 0.9925303323792318300, 0.9925303323792318300, 0.9940043167509788900),
 ( 1.000000000000000000, 0.9985171247781247100, 0.9985171247781247100, 1.000000000000000000) ) ) 
 REPRESENTATION_ITEM ( '' )  SURFACE ( )  );
#193 = PERSON_AND_ORGANIZATION_ROLE ( 'creator' ) ;
#194 = CARTESIAN_POINT ( 'NONE',  ( 6.407139682286392600, 2.154834582505269500, -0.2832332753300794700 ) ) ;
#195 =( NAMED_UNIT ( * ) SI_UNIT ( $, .STERADIAN. ) SOLID_ANGLE_UNIT ( ) );
#196 = CARTESIAN_POINT ( 'NONE',  ( 2.117986398306970700, 6.425744630683595900, -0.4318690644269865300 ) ) ;
#197 = DATE_TIME_ROLE ( 'creation_date' ) ;
#198 = CARTESIAN_POINT ( 'NONE',  ( -6.349999999999999600, 1.998896044546239400E-015, -0.4217027615482870100 ) ) ;
#199 = APPROVAL ( #181, 'UNSPECIFIED' ) ;
#200 = ORIENTED_EDGE ( 'NONE', *, *, #36, .F. ) ;
#201 = DIRECTION ( 'NONE',  ( 1.000000000000000000, 0.0000000000000000000, 0.0000000000000000000 ) ) ;
#202 = CARTESIAN_POINT ( 'NONE',  ( -6.407139682286396200, -2.154834582505281900, 2.883233275330067800 ) ) ;
#203 = CARTESIAN_POINT ( 'NONE',  ( -8.673617379884035500E-016, 2.154834582505292600, 2.455175322296840000 ) ) ;
#204 = CARTESIAN_POINT ( 'NONE',  ( 2.498001805406600200E-016, 1.221245327087670000E-015, 3.021702761548290100 ) ) ;
#205 = DATE_AND_TIME ( #176, #137 ) ;
#206 = AXIS2_PLACEMENT_3D ( 'NONE', #204, #96, #81 ) ;
#207 = CARTESIAN_POINT ( 'NONE',  ( -6.330424831055180100, -6.425744630683590600, -0.8548017347578540400 ) ) ;
#208 = ORIENTED_EDGE ( 'NONE', *, *, #43, .F. ) ;
#209 = ORIENTED_EDGE ( 'NONE', *, *, #268, .F. ) ;
#210 = CARTESIAN_POINT ( 'NONE',  ( 6.330424831055180100, -6.425744630683638500, 3.454801734757845500 ) ) ;
#211 = CARTESIAN_POINT ( 'NONE',  ( 2.143653081948607000, -2.154834582505280100, 2.455175322296840400 ) ) ;
#212 = DIRECTION ( 'NONE',  ( -0.0000000000000000000, -0.0000000000000000000, -1.000000000000000000 ) ) ;
#213 = APPROVAL ( #157, 'UNSPECIFIED' ) ;
#214 = CARTESIAN_POINT ( 'NONE',  ( -4.231261732288450300, 6.425744630683597700, -0.5730559837883129100 ) ) ;
#215 = CARTESIAN_POINT ( 'NONE',  ( 2.498001805406600200E-016, 1.221245327087670000E-015, -0.4217027615482870100 ) ) ;
#216 = ORIENTED_EDGE ( 'NONE', *, *, #59, .T. ) ;
#217 = FACE_OUTER_BOUND ( 'NONE', #11, .T. ) ;
#218 = FACE_OUTER_BOUND ( 'NONE', #39, .T. ) ;
#219 = CARTESIAN_POINT ( 'NONE',  ( 6.330424831055166700, 6.425744630683595000, -0.8548017347578452700 ) ) ;
#220 = PERSON_AND_ORGANIZATION_ROLE ( 'design_supplier' ) ;
#221 = LOCAL_TIME ( 11, 45, 46.00000000000000000, #110 ) ;
#222 = DIRECTION ( 'NONE',  ( 0.0000000000000000000, 0.0000000000000000000, 1.000000000000000000 ) ) ;
#223 = APPLICATION_CONTEXT ( 'configuration controlled 3d designs of mechanical parts and assemblies' ) ;
#224 = CARTESIAN_POINT ( 'NONE',  ( -1.438755778806195400E-014, 6.425744630683654500, 3.031869064426984100 ) ) ;
#225 = VERTEX_POINT ( 'NONE', #256 ) ;
#226 = FACE_OUTER_BOUND ( 'NONE', #251, .T. ) ;
#227 = LOCAL_TIME ( 11, 45, 46.00000000000000000, #132 ) ;
#228 = DATE_TIME_ROLE ( 'classification_date' ) ;
#229 = CARTESIAN_POINT ( 'NONE',  ( -1.194214777270179900E-014, -2.154834582505280100, 2.455175322296839100 ) ) ;
#230 = CARTESIAN_POINT ( 'NONE',  ( -2.117986398306967100, -6.425744630683642100, 3.031869064426984100 ) ) ;
#231 = EDGE_CURVE ( 'NONE', #252, #239, #113, .T. ) ;
#232 = CIRCLE ( 'NONE', #94, 48.02000000000001000 ) ;
#233 = FACE_OUTER_BOUND ( 'NONE', #30, .T. ) ;
#234 = PERSON_AND_ORGANIZATION ( #171, #33 ) ;
#235 = CARTESIAN_POINT ( 'NONE',  ( 4.282538008837937200, 2.154834582505295200, 2.598073206372803600 ) ) ;
#236 = CARTESIAN_POINT ( 'NONE',  ( -1.436729821303701800E-014, 6.350000000000052900, 3.021702761548290500 ) ) ;
#237 = CC_DESIGN_APPROVAL ( #90, ( #183 ) ) ;
#238 = CARTESIAN_POINT ( 'NONE',  ( 2.117986398306966700, -6.425744630683639400, 3.031869064426984100 ) ) ;
#239 = VERTEX_POINT ( 'NONE', #13 ) ;
#240 = CARTESIAN_POINT ( 'NONE',  ( 1.734723475976807100E-015, 6.425744630683596800, -0.4318690644269862500 ) ) ;
#241 = DIRECTION ( 'NONE',  ( 1.000000000000000000, 0.0000000000000000000, 0.0000000000000000000 ) ) ;
#242 = ORIENTED_EDGE ( 'NONE', *, *, #109, .F. ) ;
#243 = DIRECTION ( 'NONE',  ( -1.000000000000000000, -3.025674301107050200E-016, 2.614798375976290200E-016 ) ) ;
#244 = VERTEX_POINT ( 'NONE', #236 ) ;
#245 = FACE_OUTER_BOUND ( 'NONE', #190, .T. ) ;
#246 = APPROVAL_ROLE ( '' ) ;
#247 = DIRECTION ( 'NONE',  ( 1.000000000000000000, -3.025674301107050200E-016, -2.614798375976290200E-016 ) ) ;
#248 = DIRECTION ( 'NONE',  ( 0.0000000000000000000, 0.0000000000000000000, 1.000000000000000000 ) ) ;
#249 = CARTESIAN_POINT ( 'NONE',  ( -2.143653081948611900, 2.154834582505293900, 2.455175322296840000 ) ) ;
#250 = CARTESIAN_POINT ( 'NONE',  ( 6.349999999999999600, 1.221245327087670000E-015, -0.4217027615482870100 ) ) ;
#251 = EDGE_LOOP ( 'NONE', ( #200, #64, #20 ) ) ;
#252 = VERTEX_POINT ( 'NONE', #82 ) ;
#253 =( BOUNDED_SURFACE ( )  B_SPLINE_SURFACE ( 3, 3, ( 
 ( #60, #214, #173, #240 ),
 ( #106, #127, #287, #286 ),
 ( #56, #102, #28, #53 ),
 ( #207, #40, #61, #293 ) ),
 .UNSPECIFIED., .F., .F., .F. ) 
 B_SPLINE_SURFACE_WITH_KNOTS ( ( 4, 4 ),
 ( 4, 4 ),
 ( 0.0000000000000000000, 1.000000000000000000 ),
 ( 0.0000000000000000000, 1.000000000000000000 ),
 .UNSPECIFIED. ) 
 GEOMETRIC_REPRESENTATION_ITEM ( )  RATIONAL_B_SPLINE_SURFACE ( (
 ( 1.000000000000000000, 0.9985171247781247100, 0.9985171247781247100, 1.000000000000000000),
 ( 0.9940043167509788900, 0.9925303323792318300, 0.9925303323792318300, 0.9940043167509788900),
 ( 0.9940043167509788900, 0.9925303323792318300, 0.9925303323792318300, 0.9940043167509788900),
 ( 1.000000000000000000, 0.9985171247781247100, 0.9985171247781247100, 1.000000000000000000) ) ) 
 REPRESENTATION_ITEM ( '' )  SURFACE ( )  );
#254 = DIRECTION ( 'NONE',  ( 1.000000000000000000, 0.0000000000000000000, 0.0000000000000000000 ) ) ;
#255 = DIRECTION ( 'NONE',  ( 1.000000000000000000, 0.0000000000000000000, 0.0000000000000000000 ) ) ;
#256 = CARTESIAN_POINT ( 'NONE',  ( -6.349999999999999600, 1.998896044546239400E-015, 3.021702761548290100 ) ) ;
#257 = ORIENTED_EDGE ( 'NONE', *, *, #57, .T. ) ;
#258 = AXIS2_PLACEMENT_3D ( 'NONE', #21, #222, #272 ) ;
#259 = CARTESIAN_POINT ( 'NONE',  ( 1.734723475976807100E-015, -6.425744630683640300, 3.031869064426984600 ) ) ;
#260 = ORIENTED_EDGE ( 'NONE', *, *, #231, .F. ) ;
#261 = ORIENTED_EDGE ( 'NONE', *, *, #57, .F. ) ;
#262 = PRODUCT_DEFINITION_SHAPE ( 'NONE', 'NONE',  #86 ) ;
#263 = EDGE_CURVE ( 'NONE', #162, #225, #295, .T. ) ;
#264 = ADVANCED_FACE ( 'NONE', ( #218 ), #32, .T. ) ;
#265 = CIRCLE ( 'NONE', #144, 6.349999999999999600 ) ;
#266 = DIRECTION ( 'NONE',  ( -0.0000000000000000000, -0.0000000000000000000, -1.000000000000000000 ) ) ;
#267 = DIRECTION ( 'NONE',  ( -3.025674301107051100E-016, 1.000000000000000000, -2.890001625950531900E-016 ) ) ;
#268 = EDGE_CURVE ( 'NONE', #244, #162, #158, .T. ) ;
#269 = APPLICATION_CONTEXT ( 'configuration controlled 3d designs of mechanical parts and assemblies' ) ;
#270 = CARTESIAN_POINT ( 'NONE',  ( 4.231261732288447600, 6.425744630683595900, -0.5730559837883129100 ) ) ;
#271 = CIRCLE ( 'NONE', #284, 6.349999999999999600 ) ;
#272 = DIRECTION ( 'NONE',  ( 1.000000000000000000, 0.0000000000000000000, 0.0000000000000000000 ) ) ;
#273 = CARTESIAN_POINT ( 'NONE',  ( -6.330424831055168500, 6.425744630683652800, 3.454801734757843700 ) ) ;
#274 = CARTESIAN_POINT ( 'NONE',  ( 4.282538008837929200, -2.154834582505269000, 0.001926793627179024400 ) ) ;
#275 = COORDINATED_UNIVERSAL_TIME_OFFSET ( 2, 0, .AHEAD. ) ;
#276 = PERSON_AND_ORGANIZATION_ROLE ( 'classification_officer' ) ;
#277 = CARTESIAN_POINT ( 'NONE',  ( 1.324611329658638500E-014, 2.154834582505271700, 0.1448246777031494400 ) ) ;
#278 = ORIENTED_EDGE ( 'NONE', *, *, #109, .T. ) ;
#279 = CARTESIAN_POINT ( 'NONE',  ( 6.407139682286390900, -2.154834582505269500, -0.2832332753300854700 ) ) ;
#280 =( BOUNDED_SURFACE ( )  B_SPLINE_SURFACE ( 3, 3, ( 
 ( #29, #148, #83, #282 ),
 ( #49, #235, #185, #203 ),
 ( #78, #160, #211, #165 ),
 ( #210, #103, #238, #259 ) ),
 .UNSPECIFIED., .F., .F., .F. ) 
 B_SPLINE_SURFACE_WITH_KNOTS ( ( 4, 4 ),
 ( 4, 4 ),
 ( 0.0000000000000000000, 1.000000000000000000 ),
 ( 0.0000000000000000000, 1.000000000000000000 ),
 .UNSPECIFIED. ) 
 GEOMETRIC_REPRESENTATION_ITEM ( )  RATIONAL_B_SPLINE_SURFACE ( (
 ( 1.000000000000000000, 0.9985171247781247100, 0.9985171247781247100, 1.000000000000000000),
 ( 0.9940043167509787800, 0.9925303323792317200, 0.9925303323792317200, 0.9940043167509787800),
 ( 0.9940043167509787800, 0.9925303323792317200, 0.9925303323792317200, 0.9940043167509787800),
 ( 1.000000000000000000, 0.9985171247781247100, 0.9985171247781247100, 1.000000000000000000) ) ) 
 REPRESENTATION_ITEM ( '' )  SURFACE ( )  );
#281 = CARTESIAN_POINT ( 'NONE',  ( -6.330424831055165000, -6.425744630683642100, 3.454801734757843700 ) ) ;
#282 = CARTESIAN_POINT ( 'NONE',  ( -1.734723475976807100E-015, 6.425744630683654500, 3.031869064426984600 ) ) ;
#283 = LOCAL_TIME ( 11, 45, 46.00000000000000000, #161 ) ;
#284 = AXIS2_PLACEMENT_3D ( 'NONE', #1, #142, #44 ) ;
#285 = APPROVAL_PERSON_ORGANIZATION ( #42, #199, #73 ) ;
#286 = CARTESIAN_POINT ( 'NONE',  ( 8.673617379884034500E-016, 2.154834582505271700, 0.1448246777031491600 ) ) ;
#287 = CARTESIAN_POINT ( 'NONE',  ( -2.143653081948606200, 2.154834582505272600, 0.1448246777031491900 ) ) ;
#288 = VECTOR ( 'NONE', #26, 1000.000000000000000 ) ;
#289 = LOCAL_TIME ( 11, 45, 46.00000000000000000, #2 ) ;
#290 = DIRECTION ( 'NONE',  ( 1.000000000000000000, 8.881784197001252300E-016, 0.0000000000000000000 ) ) ;
#291 = CC_DESIGN_PERSON_AND_ORGANIZATION_ASSIGNMENT ( #234, #24, ( #184 ) ) ;
#292 = EDGE_CURVE ( 'NONE', #97, #191, #186, .T. ) ;
#293 = CARTESIAN_POINT ( 'NONE',  ( -1.734723475976807100E-015, -6.425744630683592400, -0.4318690644269933000 ) ) ;
#294 = LINE ( 'NONE', #250, #288 ) ;
#295 = CIRCLE ( 'NONE', #63, 6.349999999999999600 ) ;
ENDSEC;
END-ISO-10303-21;
