ISO-10303-21;
HEADER;
FILE_DESCRIPTION (( 'STEP AP203' ),
    '1' );
FILE_NAME ('114-1108E UVFS bi-cv 12.7 F-25.STEP',
    '2019-01-21T08:34:06',
    ( '' ),
    ( '' ),
    'SwSTEP 2.0',
    'SolidWorks 2017',
    '' );
FILE_SCHEMA (( 'CONFIG_CONTROL_DESIGN' ));
ENDSEC;

DATA;
#1 = AXIS2_PLACEMENT_3D ( 'NONE', #216, #289, #268 ) ;
#2 = CALENDAR_DATE ( 2019, 21, 1 ) ;
#3 = CIRCLE ( 'NONE', #200, 6.349999999999999600 ) ;
#4 =( BOUNDED_SURFACE ( )  B_SPLINE_SURFACE ( 3, 3, ( 
 ( #151, #108, #171, #38 ),
 ( #188, #210, #264, #133 ),
 ( #154, #192, #212, #286 ),
 ( #168, #34, #41, #20 ) ),
 .UNSPECIFIED., .F., .F., .F. ) 
 B_SPLINE_SURFACE_WITH_KNOTS ( ( 4, 4 ),
 ( 4, 4 ),
 ( 0.0000000000000000000, 1.000000000000000000 ),
 ( 0.0000000000000000000, 1.000000000000000000 ),
 .UNSPECIFIED. ) 
 GEOMETRIC_REPRESENTATION_ITEM ( )  RATIONAL_B_SPLINE_SURFACE ( (
 ( 1.000000000000000000, 0.9940486332147132600, 0.9940486332147132600, 1.000000000000000000),
 ( 0.9760189639332501600, 0.9702103170894877900, 0.9702103170894877900, 0.9760189639332501600),
 ( 0.9760189639332501600, 0.9702103170894877900, 0.9702103170894877900, 0.9760189639332501600),
 ( 1.000000000000000000, 0.9940486332147132600, 0.9940486332147132600, 1.000000000000000000) ) ) 
 REPRESENTATION_ITEM ( '' )  SURFACE ( )  );
#5 = DIRECTION ( 'NONE',  ( 1.000000000000000000, 0.0000000000000000000, 0.0000000000000000000 ) ) ;
#6 = DATE_AND_TIME ( #73, #134 ) ;
#7 = CARTESIAN_POINT ( 'NONE',  ( -2.187651755668738900, 2.194070746794349900, 2.003068452995253200 ) ) ;
#8 = ORIENTED_EDGE ( 'NONE', *, *, #123, .T. ) ;
#9 = CARTESIAN_POINT ( 'NONE',  ( -4.148129957775414500, -6.424363971247417200, 3.447188019189417300 ) ) ;
#10 = EDGE_CURVE ( 'NONE', #45, #46, #278, .T. ) ;
#11 = DIRECTION ( 'NONE',  ( -0.0000000000000000000, -0.0000000000000000000, -1.000000000000000000 ) ) ;
#12 = CARTESIAN_POINT ( 'NONE',  ( -6.349999999999999600, 1.998896044546239400E-015, -0.8490566228550690000 ) ) ;
#13 = COORDINATED_UNIVERSAL_TIME_OFFSET ( 2, 0, .AHEAD. ) ;
#14 = CARTESIAN_POINT ( 'NONE',  ( 3.469446951953614200E-015, -2.194070746794349900, 2.003068452995254500 ) ) ;
#15 = CARTESIAN_POINT ( 'NONE',  ( 6.465657559704103700, -2.194070746794349900, 2.872838907053730100 ) ) ;
#16 = CARTESIAN_POINT ( 'NONE',  ( 1.776356839400250100E-015, -6.350000000000000500, -0.8490566228550715500 ) ) ;
#17 = PERSON_AND_ORGANIZATION ( #91, #152 ) ;
#18 = APPROVAL_ROLE ( '' ) ;
#19 = CLOSED_SHELL ( 'NONE', ( #232, #229, #26, #121, #203, #51 ) ) ;
#20 = CARTESIAN_POINT ( 'NONE',  ( -4.336808689942017700E-015, -6.424363971247420800, -0.8694324626000172800 ) ) ;
#21 = APPROVAL_DATE_TIME ( #195, #140 ) ;
#22 = APPROVAL_DATE_TIME ( #88, #176 ) ;
#23 = VERTEX_POINT ( 'NONE', #199 ) ;
#24 = CARTESIAN_POINT ( 'NONE',  ( -6.349999999999999600, 1.998896044546239400E-015, 3.149056622855070000 ) ) ;
#25 = AXIS2_PLACEMENT_3D ( 'NONE', #57, #282, #30 ) ;
#26 = ADVANCED_FACE ( 'NONE', ( #166 ), #130, .T. ) ;
#27 = CARTESIAN_POINT ( 'NONE',  ( 2.498001805406600200E-016, 1.221245327087670000E-015, -0.8490566228550690000 ) ) ;
#28 = APPROVAL_PERSON_ORGANIZATION ( #208, #176, #18 ) ;
#29 = CIRCLE ( 'NONE', #25, 6.349999999999999600 ) ;
#30 = DIRECTION ( 'NONE',  ( 1.000000000000000000, 0.0000000000000000000, 0.0000000000000000000 ) ) ;
#31 = DIRECTION ( 'NONE',  ( 0.0000000000000000000, 1.000000000000000000, 2.870870460863561200E-016 ) ) ;
#32 = DIRECTION ( 'NONE',  ( -1.000000000000000000, 0.0000000000000000000, 0.0000000000000000000 ) ) ;
#33 = CARTESIAN_POINT ( 'NONE',  ( -4.148129957775414500, 6.424363971247418100, 3.447188019189416900 ) ) ;
#34 = CARTESIAN_POINT ( 'NONE',  ( -4.148129957775421600, -6.424363971247419900, -1.147188019189423300 ) ) ;
#35 = EDGE_CURVE ( 'NONE', #23, #45, #162, .T. ) ;
#36 = CARTESIAN_POINT ( 'NONE',  ( 6.157432956157883600, 6.424363971247419900, -1.697740056786480900 ) ) ;
#37 = ORIENTED_EDGE ( 'NONE', *, *, #65, .T. ) ;
#38 = CARTESIAN_POINT ( 'NONE',  ( -4.336808689942017700E-015, 6.424363971247419900, -0.8694324626000142800 ) ) ;
#39 = CARTESIAN_POINT ( 'NONE',  ( 6.465657559704094800, 2.194070746794349400, -0.5728389070537246400 ) ) ;
#40 = AXIS2_PLACEMENT_3D ( 'NONE', #169, #59, #260 ) ;
#41 = CARTESIAN_POINT ( 'NONE',  ( -2.083364126937749600, -6.424363971247420800, -0.8694324626000178300 ) ) ;
#42 = APPROVAL_PERSON_ORGANIZATION ( #244, #140, #271 ) ;
#43 = CYLINDRICAL_SURFACE ( 'NONE', #141, 6.349999999999999600 ) ;
#44 = LINE ( 'NONE', #68, #292 ) ;
#45 = VERTEX_POINT ( 'NONE', #76 ) ;
#46 = VERTEX_POINT ( 'NONE', #24 ) ;
#47 = EDGE_CURVE ( 'NONE', #226, #183, #90, .T. ) ;
#48 = APPROVAL_DATE_TIME ( #238, #223 ) ;
#49 = ORIENTED_EDGE ( 'NONE', *, *, #71, .F. ) ;
#50 = CARTESIAN_POINT ( 'NONE',  ( -2.083364126937744300, -6.424363971247417200, 3.169432462600013900 ) ) ;
#51 = ADVANCED_FACE ( 'NONE', ( #274 ), #56, .F. ) ;
#52 = DIRECTION ( 'NONE',  ( 0.0000000000000000000, 0.0000000000000000000, 1.000000000000000000 ) ) ;
#53 = PRODUCT_DEFINITION ( 'UNKNOWN', '', #179, #58 ) ;
#54 = ORIENTED_EDGE ( 'NONE', *, *, #98, .T. ) ;
#55 = CARTESIAN_POINT ( 'NONE',  ( -1.776356839400250100E-015, -6.424363971247417200, 3.169432462600013900 ) ) ;
#56 =( BOUNDED_SURFACE ( )  B_SPLINE_SURFACE ( 3, 3, ( 
 ( #251, #255, #33, #235 ),
 ( #81, #7, #236, #79 ),
 ( #103, #122, #184, #163 ),
 ( #55, #50, #9, #125 ) ),
 .UNSPECIFIED., .F., .F., .T. ) 
 B_SPLINE_SURFACE_WITH_KNOTS ( ( 4, 4 ),
 ( 4, 4 ),
 ( 0.0000000000000000000, 1.000000000000000000 ),
 ( 0.0000000000000000000, 1.000000000000000000 ),
 .UNSPECIFIED. ) 
 GEOMETRIC_REPRESENTATION_ITEM ( )  RATIONAL_B_SPLINE_SURFACE ( (
 ( 1.000000000000000000, 0.9940486332147132600, 0.9940486332147132600, 1.000000000000000000),
 ( 0.9760189639332501600, 0.9702103170894877900, 0.9702103170894877900, 0.9760189639332501600),
 ( 0.9760189639332501600, 0.9702103170894877900, 0.9702103170894877900, 0.9760189639332501600),
 ( 1.000000000000000000, 0.9940486332147132600, 0.9940486332147132600, 1.000000000000000000) ) ) 
 REPRESENTATION_ITEM ( '' )  SURFACE ( )  );
#57 = CARTESIAN_POINT ( 'NONE',  ( 2.498001805406600200E-016, 1.221245327087670000E-015, 3.149056622855070000 ) ) ;
#58 = DESIGN_CONTEXT ( 'detailed design', #112, 'design' ) ;
#59 = DIRECTION ( 'NONE',  ( -0.0000000000000000000, -0.0000000000000000000, -1.000000000000000000 ) ) ;
#60 = CC_DESIGN_PERSON_AND_ORGANIZATION_ASSIGNMENT ( #190, #290, ( #179 ) ) ;
#61 = CARTESIAN_POINT ( 'NONE',  ( 5.204170427930420500E-015, 2.194070746794349000, 2.003068452995253600 ) ) ;
#62 = ORIENTED_EDGE ( 'NONE', *, *, #107, .T. ) ;
#63 = CARTESIAN_POINT ( 'NONE',  ( 4.148129957775420700, -6.424363971247418100, 3.447188019189420000 ) ) ;
#64 = CARTESIAN_POINT ( 'NONE',  ( 3.469446951953614200E-015, 6.424363971247418100, 3.169432462600013900 ) ) ;
#65 = EDGE_CURVE ( 'NONE', #293, #183, #209, .T. ) ;
#66 = DATE_TIME_ROLE ( 'classification_date' ) ;
#67 = ORIENTED_EDGE ( 'NONE', *, *, #47, .F. ) ;
#68 = CARTESIAN_POINT ( 'NONE',  ( 6.349999999999999600, 1.221245327087670000E-015, -0.8490566228550690000 ) ) ;
#69 = DATE_TIME_ROLE ( 'creation_date' ) ;
#70 = CARTESIAN_POINT ( 'NONE',  ( 0.0000000000000000000, 0.0000000000000000000, 0.0000000000000000000 ) ) ;
#71 = EDGE_CURVE ( 'NONE', #183, #181, #239, .T. ) ;
#72 = SECURITY_CLASSIFICATION ( '', '', #89 ) ;
#73 = CALENDAR_DATE ( 2019, 21, 1 ) ;
#74 = ORIENTED_EDGE ( 'NONE', *, *, #98, .F. ) ;
#75 = APPROVAL_PERSON_ORGANIZATION ( #138, #223, #193 ) ;
#76 = CARTESIAN_POINT ( 'NONE',  ( -1.776356839400250100E-015, -6.350000000000000500, 3.149056622855068700 ) ) ;
#77 = PERSON_AND_ORGANIZATION ( #91, #152 ) ;
#78 = EDGE_CURVE ( 'NONE', #222, #45, #29, .T. ) ;
#79 = CARTESIAN_POINT ( 'NONE',  ( -6.465657559704094800, 2.194070746794349400, 2.872838907053725700 ) ) ;
#80 = CARTESIAN_POINT ( 'NONE',  ( 1.776356839400250100E-015, 0.0000000000000000000, -24.17000000000000200 ) ) ;
#81 = CARTESIAN_POINT ( 'NONE',  ( -1.776356839400250500E-015, 2.194070746794349900, 2.003068452995253600 ) ) ;
#82 = FACE_OUTER_BOUND ( 'NONE', #284, .T. ) ;
#83 = CARTESIAN_POINT ( 'NONE',  ( 2.187651755668738900, 2.194070746794349000, 0.2969315470047473900 ) ) ;
#84 = AXIS2_PLACEMENT_3D ( 'NONE', #279, #32, #31 ) ;
#85 = CARTESIAN_POINT ( 'NONE',  ( 4.148129957775414500, 6.424363971247419900, -1.147188019189417300 ) ) ;
#86 = CARTESIAN_POINT ( 'NONE',  ( 6.157432956157892400, -6.424363971247418100, 3.997740056786484700 ) ) ;
#87 = CARTESIAN_POINT ( 'NONE',  ( 1.776356839400250500E-015, 2.194070746794349000, 0.2969315470047473300 ) ) ;
#88 = DATE_AND_TIME ( #94, #273 ) ;
#89 = SECURITY_CLASSIFICATION_LEVEL ( 'unclassified' ) ;
#90 = CIRCLE ( 'NONE', #196, 6.349999999999999600 ) ;
#91 = PERSON ( 'UNSPECIFIED', 'UNSPECIFIED', 'UNSPECIFIED', ('UNSPECIFIED'), ('UNSPECIFIED'), ('UNSPECIFIED') ) ;
#92 = CARTESIAN_POINT ( 'NONE',  ( 2.083364126937748800, -6.424363971247417200, 3.169432462600015200 ) ) ;
#93 = AXIS2_PLACEMENT_3D ( 'NONE', #118, #224, #227 ) ;
#94 = CALENDAR_DATE ( 2019, 21, 1 ) ;
#95 = ORIENTED_EDGE ( 'NONE', *, *, #252, .F. ) ;
#96 = CARTESIAN_POINT ( 'NONE',  ( 2.498001805406600200E-016, 1.221245327087670000E-015, -0.8490566228550690000 ) ) ;
#97 = PRODUCT_DEFINITION_SHAPE ( 'NONE', 'NONE',  #53 ) ;
#98 = EDGE_CURVE ( 'NONE', #23, #222, #3, .T. ) ;
#99 = CALENDAR_DATE ( 2019, 21, 1 ) ;
#100 = DIRECTION ( 'NONE',  ( 0.0000000000000000000, 0.0000000000000000000, 1.000000000000000000 ) ) ;
#101 = CARTESIAN_POINT ( 'NONE',  ( 2.498001805406600200E-016, 1.221245327087670000E-015, -0.8490566228550690000 ) ) ;
#102 = EDGE_LOOP ( 'NONE', ( #74, #281, #153 ) ) ;
#103 = CARTESIAN_POINT ( 'NONE',  ( -1.776356839400250500E-015, -2.194070746794349000, 2.003068452995253600 ) ) ;
#104 = CARTESIAN_POINT ( 'NONE',  ( 6.157432956157883600, -6.424363971247420800, -1.697740056786484200 ) ) ;
#105 = CARTESIAN_POINT ( 'NONE',  ( 4.355774234342790800, -2.194070746794349900, 2.294727708889564800 ) ) ;
#106 = EDGE_LOOP ( 'NONE', ( #233, #62, #191, #8, #54, #95 ) ) ;
#107 = EDGE_CURVE ( 'NONE', #293, #226, #119, .T. ) ;
#108 = CARTESIAN_POINT ( 'NONE',  ( -4.148129957775420700, 6.424363971247420800, -1.147188019189419900 ) ) ;
#109 = CARTESIAN_POINT ( 'NONE',  ( 2.187651755668746000, 2.194070746794349000, 2.003068452995253600 ) ) ;
#110 =( LENGTH_UNIT ( ) NAMED_UNIT ( * ) SI_UNIT ( .MILLI., .METRE. ) );
#111 = MECHANICAL_CONTEXT ( 'NONE', #211, 'mechanical' ) ;
#112 = APPLICATION_CONTEXT ( 'configuration controlled 3d designs of mechanical parts and assemblies' ) ;
#113 = AXIS2_PLACEMENT_3D ( 'NONE', #101, #258, #126 ) ;
#114 = LINE ( 'NONE', #12, #197 ) ;
#115 = ORIENTED_EDGE ( 'NONE', *, *, #252, .T. ) ;
#116 =( BOUNDED_SURFACE ( )  B_SPLINE_SURFACE ( 3, 3, ( 
 ( #164, #128, #85, #36 ),
 ( #87, #83, #172, #39 ),
 ( #187, #242, #237, #131 ),
 ( #240, #261, #132, #104 ) ),
 .UNSPECIFIED., .F., .F., .T. ) 
 B_SPLINE_SURFACE_WITH_KNOTS ( ( 4, 4 ),
 ( 4, 4 ),
 ( 0.0000000000000000000, 1.000000000000000000 ),
 ( 0.0000000000000000000, 1.000000000000000000 ),
 .UNSPECIFIED. ) 
 GEOMETRIC_REPRESENTATION_ITEM ( )  RATIONAL_B_SPLINE_SURFACE ( (
 ( 1.000000000000000000, 0.9940486332147132600, 0.9940486332147132600, 1.000000000000000000),
 ( 0.9760189639332501600, 0.9702103170894877900, 0.9702103170894877900, 0.9760189639332501600),
 ( 0.9760189639332501600, 0.9702103170894877900, 0.9702103170894877900, 0.9760189639332501600),
 ( 1.000000000000000000, 0.9940486332147132600, 0.9940486332147132600, 1.000000000000000000) ) ) 
 REPRESENTATION_ITEM ( '' )  SURFACE ( )  );
#117 = ORIENTED_EDGE ( 'NONE', *, *, #10, .F. ) ;
#118 = CARTESIAN_POINT ( 'NONE',  ( 2.498001805406600200E-016, 1.221245327087670000E-015, 3.149056622855070000 ) ) ;
#119 = CIRCLE ( 'NONE', #217, 6.349999999999999600 ) ;
#120 = DIRECTION ( 'NONE',  ( 0.0000000000000000000, 0.0000000000000000000, 1.000000000000000000 ) ) ;
#121 = ADVANCED_FACE ( 'NONE', ( #263 ), #43, .T. ) ;
#122 = CARTESIAN_POINT ( 'NONE',  ( -2.187651755668738900, -2.194070746794349000, 2.003068452995253200 ) ) ;
#123 = EDGE_CURVE ( 'NONE', #46, #23, #198, .T. ) ;
#124 = EDGE_LOOP ( 'NONE', ( #159, #245, #288, #115, #220, #215 ) ) ;
#125 = CARTESIAN_POINT ( 'NONE',  ( -6.157432956157883600, -6.424363971247417200, 3.997740056786480700 ) ) ;
#126 = DIRECTION ( 'NONE',  ( 1.000000000000000000, 0.0000000000000000000, 0.0000000000000000000 ) ) ;
#127 = CALENDAR_DATE ( 2019, 21, 1 ) ;
#128 = CARTESIAN_POINT ( 'NONE',  ( 2.083364126937744300, 6.424363971247419900, -0.8694324626000138300 ) ) ;
#129 = LOCAL_TIME ( 10, 34, 6.000000000000000000, #180 ) ;
#130 = CYLINDRICAL_SURFACE ( 'NONE', #161, 6.349999999999999600 ) ;
#131 = CARTESIAN_POINT ( 'NONE',  ( 6.465657559704093900, -2.194070746794350300, -0.5728389070537279700 ) ) ;
#132 = CARTESIAN_POINT ( 'NONE',  ( 4.148129957775413600, -6.424363971247420800, -1.147188019189420800 ) ) ;
#133 = CARTESIAN_POINT ( 'NONE',  ( -4.336808689942018500E-015, 2.194070746794349900, 0.2969315470047471100 ) ) ;
#134 = LOCAL_TIME ( 10, 34, 6.000000000000000000, #249 ) ;
#135 =( NAMED_UNIT ( * ) PLANE_ANGLE_UNIT ( ) SI_UNIT ( $, .RADIAN. ) );
#136 = APPLICATION_PROTOCOL_DEFINITION ( 'international standard', 'config_control_design', 1994, #211 ) ;
#137 = PERSON_AND_ORGANIZATION_ROLE ( 'classification_officer' ) ;
#138 = PERSON_AND_ORGANIZATION ( #91, #152 ) ;
#139 = ORIENTED_EDGE ( 'NONE', *, *, #65, .F. ) ;
#140 = APPROVAL ( #266, 'UNSPECIFIED' ) ;
#141 = AXIS2_PLACEMENT_3D ( 'NONE', #231, #182, #204 ) ;
#142 = DIRECTION ( 'NONE',  ( 1.000000000000000000, 0.0000000000000000000, 0.0000000000000000000 ) ) ;
#143 = CIRCLE ( 'NONE', #1, 6.349999999999999600 ) ;
#144 = FACE_OUTER_BOUND ( 'NONE', #295, .T. ) ;
#145 = DIRECTION ( 'NONE',  ( 1.000000000000000000, 0.0000000000000000000, 0.0000000000000000000 ) ) ;
#146 = CARTESIAN_POINT ( 'NONE',  ( 2.498001805406600200E-016, 1.221245327087670000E-015, 3.149056622855070000 ) ) ;
#147 = UNCERTAINTY_MEASURE_WITH_UNIT (LENGTH_MEASURE( 1.000000000000000100E-005 ), #110, 'distance_accuracy_value', 'NONE');
#148 = CARTESIAN_POINT ( 'NONE',  ( 6.465657559704106400, 2.194070746794349000, 2.872838907053730100 ) ) ;
#149 = CC_DESIGN_DATE_AND_TIME_ASSIGNMENT ( #6, #66, ( #72 ) ) ;
#150 = CARTESIAN_POINT ( 'NONE',  ( 6.157432956157894200, 6.424363971247417200, 3.997740056786484700 ) ) ;
#151 = CARTESIAN_POINT ( 'NONE',  ( -6.157432956157892400, 6.424363971247420800, -1.697740056786484900 ) ) ;
#152 = ORGANIZATION ( 'UNSPECIFIED', 'UNSPECIFIED', '' ) ;
#153 = ORIENTED_EDGE ( 'NONE', *, *, #78, .F. ) ;
#154 = CARTESIAN_POINT ( 'NONE',  ( -6.465657559704105500, -2.194070746794349900, -0.5728389070537321900 ) ) ;
#155 = CARTESIAN_POINT ( 'NONE',  ( 1.776356839400250100E-015, 6.350000000000001400, -0.8490566228550680000 ) ) ;
#156 = FACE_OUTER_BOUND ( 'NONE', #102, .T. ) ;
#157 = CC_DESIGN_APPROVAL ( #140, ( #72 ) ) ;
#158 = COORDINATED_UNIVERSAL_TIME_OFFSET ( 2, 0, .AHEAD. ) ;
#159 = ORIENTED_EDGE ( 'NONE', *, *, #206, .F. ) ;
#160 = CC_DESIGN_PERSON_AND_ORGANIZATION_ASSIGNMENT ( #17, #137, ( #72 ) ) ;
#161 = AXIS2_PLACEMENT_3D ( 'NONE', #96, #120, #142 ) ;
#162 = CIRCLE ( 'NONE', #84, 24.17000000000000200 ) ;
#163 = CARTESIAN_POINT ( 'NONE',  ( -6.465657559704093900, -2.194070746794349400, 2.872838907053725700 ) ) ;
#164 = CARTESIAN_POINT ( 'NONE',  ( 1.776356839400250100E-015, 6.424363971247419900, -0.8694324626000137200 ) ) ;
#165 = COORDINATED_UNIVERSAL_TIME_OFFSET ( 2, 0, .AHEAD. ) ;
#166 = FACE_OUTER_BOUND ( 'NONE', #106, .T. ) ;
#167 = DIRECTION ( 'NONE',  ( 1.000000000000000000, 1.776356839400250500E-015, 0.0000000000000000000 ) ) ;
#168 = CARTESIAN_POINT ( 'NONE',  ( -6.157432956157893300, -6.424363971247419900, -1.697740056786488400 ) ) ;
#169 = CARTESIAN_POINT ( 'NONE',  ( 2.498001805406600200E-016, 1.221245327087670000E-015, 3.149056622855070000 ) ) ;
#170 = ORIENTED_EDGE ( 'NONE', *, *, #123, .F. ) ;
#171 = CARTESIAN_POINT ( 'NONE',  ( -2.083364126937749600, 6.424363971247419900, -0.8694324626000148300 ) ) ;
#172 = CARTESIAN_POINT ( 'NONE',  ( 4.355774234342785400, 2.194070746794349400, 0.005272291110439532600 ) ) ;
#173 = EDGE_LOOP ( 'NONE', ( #178, #170, #117 ) ) ;
#174 = PERSON_AND_ORGANIZATION_ROLE ( 'design_owner' ) ;
#175 =( BOUNDED_SURFACE ( )  B_SPLINE_SURFACE ( 3, 3, ( 
 ( #150, #285, #186, #64 ),
 ( #148, #241, #109, #61 ),
 ( #15, #105, #265, #14 ),
 ( #86, #63, #92, #205 ) ),
 .UNSPECIFIED., .F., .F., .F. ) 
 B_SPLINE_SURFACE_WITH_KNOTS ( ( 4, 4 ),
 ( 4, 4 ),
 ( 0.0000000000000000000, 1.000000000000000000 ),
 ( 0.0000000000000000000, 1.000000000000000000 ),
 .UNSPECIFIED. ) 
 GEOMETRIC_REPRESENTATION_ITEM ( )  RATIONAL_B_SPLINE_SURFACE ( (
 ( 1.000000000000000000, 0.9940486332147132600, 0.9940486332147132600, 1.000000000000000000),
 ( 0.9760189639332501600, 0.9702103170894877900, 0.9702103170894877900, 0.9760189639332501600),
 ( 0.9760189639332501600, 0.9702103170894877900, 0.9702103170894877900, 0.9760189639332501600),
 ( 1.000000000000000000, 0.9940486332147132600, 0.9940486332147132600, 1.000000000000000000) ) ) 
 REPRESENTATION_ITEM ( '' )  SURFACE ( )  );
#176 = APPROVAL ( #213, 'UNSPECIFIED' ) ;
#177 = AXIS2_PLACEMENT_3D ( 'NONE', #70, #246, #243 ) ;
#178 = ORIENTED_EDGE ( 'NONE', *, *, #35, .F. ) ;
#179 = PRODUCT_DEFINITION_FORMATION_WITH_SPECIFIED_SOURCE ( 'ANY', '', #267, .NOT_KNOWN. ) ;
#180 = COORDINATED_UNIVERSAL_TIME_OFFSET ( 2, 0, .AHEAD. ) ;
#181 = VERTEX_POINT ( 'NONE', #202 ) ;
#182 = DIRECTION ( 'NONE',  ( 0.0000000000000000000, 0.0000000000000000000, 1.000000000000000000 ) ) ;
#183 = VERTEX_POINT ( 'NONE', #16 ) ;
#184 = CARTESIAN_POINT ( 'NONE',  ( -4.355774234342784500, -2.194070746794349400, 2.294727708889561200 ) ) ;
#185 = DIRECTION ( 'NONE',  ( 0.0000000000000000000, 1.000000000000000000, 2.870870460863561200E-016 ) ) ;
#186 = CARTESIAN_POINT ( 'NONE',  ( 2.083364126937749200, 6.424363971247418100, 3.169432462600014300 ) ) ;
#187 = CARTESIAN_POINT ( 'NONE',  ( 1.776356839400250500E-015, -2.194070746794350800, 0.2969315470047441100 ) ) ;
#188 = CARTESIAN_POINT ( 'NONE',  ( -6.465657559704105500, 2.194070746794349900, -0.5728389070537289700 ) ) ;
#189 = CC_DESIGN_APPROVAL ( #223, ( #53 ) ) ;
#190 = PERSON_AND_ORGANIZATION ( #91, #152 ) ;
#191 = ORIENTED_EDGE ( 'NONE', *, *, #206, .T. ) ;
#192 = CARTESIAN_POINT ( 'NONE',  ( -4.355774234342790800, -2.194070746794349900, 0.005272291110434003200 ) ) ;
#193 = APPROVAL_ROLE ( '' ) ;
#194 = CC_DESIGN_PERSON_AND_ORGANIZATION_ASSIGNMENT ( #262, #174, ( #267 ) ) ;
#195 = DATE_AND_TIME ( #127, #225 ) ;
#196 = AXIS2_PLACEMENT_3D ( 'NONE', #27, #52, #145 ) ;
#197 = VECTOR ( 'NONE', #259, 1000.000000000000000 ) ;
#198 = CIRCLE ( 'NONE', #40, 6.349999999999999600 ) ;
#199 = CARTESIAN_POINT ( 'NONE',  ( -1.776356839400250100E-015, 6.350000000000001400, 3.149056622855072300 ) ) ;
#200 = AXIS2_PLACEMENT_3D ( 'NONE', #146, #11, #167 ) ;
#201 = LOCAL_TIME ( 10, 34, 6.000000000000000000, #13 ) ;
#202 = CARTESIAN_POINT ( 'NONE',  ( 6.349999999999999600, 1.221245327087670000E-015, -0.8490566228550690000 ) ) ;
#203 = ADVANCED_FACE ( 'NONE', ( #144 ), #116, .F. ) ;
#204 = DIRECTION ( 'NONE',  ( 1.000000000000000000, 0.0000000000000000000, 0.0000000000000000000 ) ) ;
#205 = CARTESIAN_POINT ( 'NONE',  ( 3.469446951953614200E-015, -6.424363971247417200, 3.169432462600014300 ) ) ;
#206 = EDGE_CURVE ( 'NONE', #226, #46, #114, .T. ) ;
#207 = ADVANCED_BREP_SHAPE_REPRESENTATION ( '114-1108E UVFS bi-cv 12.7 F-25', ( #272, #177 ), #294 ) ;
#208 = PERSON_AND_ORGANIZATION ( #91, #152 ) ;
#209 = CIRCLE ( 'NONE', #276, 24.17000000000000200 ) ;
#210 = CARTESIAN_POINT ( 'NONE',  ( -4.355774234342790800, 2.194070746794349900, 0.005272291110437039900 ) ) ;
#211 = APPLICATION_CONTEXT ( 'configuration controlled 3d designs of mechanical parts and assemblies' ) ;
#212 = CARTESIAN_POINT ( 'NONE',  ( -2.187651755668745100, -2.194070746794349900, 0.2969315470047433900 ) ) ;
#213 = APPROVAL_STATUS ( 'not_yet_approved' ) ;
#214 = DIRECTION ( 'NONE',  ( 0.0000000000000000000, 0.0000000000000000000, 1.000000000000000000 ) ) ;
#215 = ORIENTED_EDGE ( 'NONE', *, *, #10, .T. ) ;
#216 = CARTESIAN_POINT ( 'NONE',  ( 2.498001805406600200E-016, 1.221245327087670000E-015, -0.8490566228550690000 ) ) ;
#217 = AXIS2_PLACEMENT_3D ( 'NONE', #228, #100, #5 ) ;
#218 = APPROVAL_STATUS ( 'not_yet_approved' ) ;
#219 = CC_DESIGN_PERSON_AND_ORGANIZATION_ASSIGNMENT ( #248, #270, ( #53 ) ) ;
#220 = ORIENTED_EDGE ( 'NONE', *, *, #78, .T. ) ;
#221 = CC_DESIGN_DATE_AND_TIME_ASSIGNMENT ( #277, #69, ( #53 ) ) ;
#222 = VERTEX_POINT ( 'NONE', #283 ) ;
#223 = APPROVAL ( #218, 'UNSPECIFIED' ) ;
#224 = DIRECTION ( 'NONE',  ( -0.0000000000000000000, -0.0000000000000000000, -1.000000000000000000 ) ) ;
#225 = LOCAL_TIME ( 10, 34, 6.000000000000000000, #165 ) ;
#226 = VERTEX_POINT ( 'NONE', #230 ) ;
#227 = DIRECTION ( 'NONE',  ( 1.000000000000000000, 0.0000000000000000000, 0.0000000000000000000 ) ) ;
#228 = CARTESIAN_POINT ( 'NONE',  ( 2.498001805406600200E-016, 1.221245327087670000E-015, -0.8490566228550690000 ) ) ;
#229 = ADVANCED_FACE ( 'NONE', ( #156 ), #175, .F. ) ;
#230 = CARTESIAN_POINT ( 'NONE',  ( -6.349999999999999600, 1.998896044546239400E-015, -0.8490566228550690000 ) ) ;
#231 = CARTESIAN_POINT ( 'NONE',  ( 2.498001805406600200E-016, 1.221245327087670000E-015, -0.8490566228550690000 ) ) ;
#232 = ADVANCED_FACE ( 'NONE', ( #82 ), #4, .F. ) ;
#233 = ORIENTED_EDGE ( 'NONE', *, *, #257, .T. ) ;
#234 = CC_DESIGN_PERSON_AND_ORGANIZATION_ASSIGNMENT ( #77, #269, ( #179 ) ) ;
#235 = CARTESIAN_POINT ( 'NONE',  ( -6.157432956157884400, 6.424363971247418100, 3.997740056786480700 ) ) ;
#236 = CARTESIAN_POINT ( 'NONE',  ( -4.355774234342785400, 2.194070746794349400, 2.294727708889561200 ) ) ;
#237 = CARTESIAN_POINT ( 'NONE',  ( 4.355774234342784500, -2.194070746794350300, 0.005272291110436280000 ) ) ;
#238 = DATE_AND_TIME ( #2, #201 ) ;
#239 = CIRCLE ( 'NONE', #113, 6.349999999999999600 ) ;
#240 = CARTESIAN_POINT ( 'NONE',  ( 1.776356839400250100E-015, -6.424363971247420800, -0.8694324626000171600 ) ) ;
#241 = CARTESIAN_POINT ( 'NONE',  ( 4.355774234342790800, 2.194070746794349000, 2.294727708889564300 ) ) ;
#242 = CARTESIAN_POINT ( 'NONE',  ( 2.187651755668738500, -2.194070746794351200, 0.2969315470047440600 ) ) ;
#243 = DIRECTION ( 'NONE',  ( 1.000000000000000000, 0.0000000000000000000, 0.0000000000000000000 ) ) ;
#244 = PERSON_AND_ORGANIZATION ( #91, #152 ) ;
#245 = ORIENTED_EDGE ( 'NONE', *, *, #47, .T. ) ;
#246 = DIRECTION ( 'NONE',  ( 0.0000000000000000000, 0.0000000000000000000, 1.000000000000000000 ) ) ;
#247 =( NAMED_UNIT ( * ) SI_UNIT ( $, .STERADIAN. ) SOLID_ANGLE_UNIT ( ) );
#248 = PERSON_AND_ORGANIZATION ( #91, #152 ) ;
#249 = COORDINATED_UNIVERSAL_TIME_OFFSET ( 2, 0, .AHEAD. ) ;
#250 = ORIENTED_EDGE ( 'NONE', *, *, #257, .F. ) ;
#251 = CARTESIAN_POINT ( 'NONE',  ( -1.776356839400250100E-015, 6.424363971247418100, 3.169432462600013900 ) ) ;
#252 = EDGE_CURVE ( 'NONE', #181, #222, #44, .T. ) ;
#253 = SHAPE_DEFINITION_REPRESENTATION ( #97, #207 ) ;
#254 = ORIENTED_EDGE ( 'NONE', *, *, #107, .F. ) ;
#255 = CARTESIAN_POINT ( 'NONE',  ( -2.083364126937744800, 6.424363971247418100, 3.169432462600013900 ) ) ;
#256 = DIRECTION ( 'NONE',  ( 1.000000000000000000, 0.0000000000000000000, 0.0000000000000000000 ) ) ;
#257 = EDGE_CURVE ( 'NONE', #181, #293, #143, .T. ) ;
#258 = DIRECTION ( 'NONE',  ( 0.0000000000000000000, 0.0000000000000000000, 1.000000000000000000 ) ) ;
#259 = DIRECTION ( 'NONE',  ( 0.0000000000000000000, 0.0000000000000000000, 1.000000000000000000 ) ) ;
#260 = DIRECTION ( 'NONE',  ( 1.000000000000000000, -8.881784197001252300E-016, 0.0000000000000000000 ) ) ;
#261 = CARTESIAN_POINT ( 'NONE',  ( 2.083364126937744300, -6.424363971247420800, -0.8694324626000171600 ) ) ;
#262 = PERSON_AND_ORGANIZATION ( #91, #152 ) ;
#263 = FACE_OUTER_BOUND ( 'NONE', #124, .T. ) ;
#264 = CARTESIAN_POINT ( 'NONE',  ( -2.187651755668744300, 2.194070746794349900, 0.2969315470047465000 ) ) ;
#265 = CARTESIAN_POINT ( 'NONE',  ( 2.187651755668742900, -2.194070746794349900, 2.003068452995254500 ) ) ;
#266 = APPROVAL_STATUS ( 'not_yet_approved' ) ;
#267 = PRODUCT ( '114-1108E UVFS bi-cv 12.7 F-25', '114-1108E UVFS bi-cv 12.7 F-25', '', ( #111 ) ) ;
#268 = DIRECTION ( 'NONE',  ( 1.000000000000000000, 0.0000000000000000000, 0.0000000000000000000 ) ) ;
#269 = PERSON_AND_ORGANIZATION_ROLE ( 'design_supplier' ) ;
#270 = PERSON_AND_ORGANIZATION_ROLE ( 'creator' ) ;
#271 = APPROVAL_ROLE ( '' ) ;
#272 = MANIFOLD_SOLID_BREP ( 'Imported1', #19 ) ;
#273 = LOCAL_TIME ( 10, 34, 6.000000000000000000, #158 ) ;
#274 = FACE_OUTER_BOUND ( 'NONE', #173, .T. ) ;
#275 = PRODUCT_RELATED_PRODUCT_CATEGORY ( 'detail', '', ( #267 ) ) ;
#276 = AXIS2_PLACEMENT_3D ( 'NONE', #80, #256, #185 ) ;
#277 = DATE_AND_TIME ( #99, #129 ) ;
#278 = CIRCLE ( 'NONE', #93, 6.349999999999999600 ) ;
#279 = CARTESIAN_POINT ( 'NONE',  ( -1.776356839400250100E-015, 0.0000000000000000000, 26.46999999999999900 ) ) ;
#280 = CC_DESIGN_APPROVAL ( #176, ( #179 ) ) ;
#281 = ORIENTED_EDGE ( 'NONE', *, *, #35, .T. ) ;
#282 = DIRECTION ( 'NONE',  ( -0.0000000000000000000, -0.0000000000000000000, -1.000000000000000000 ) ) ;
#283 = CARTESIAN_POINT ( 'NONE',  ( 6.349999999999999600, 1.221245327087670000E-015, 3.149056622855070000 ) ) ;
#284 = EDGE_LOOP ( 'NONE', ( #254, #37, #67 ) ) ;
#285 = CARTESIAN_POINT ( 'NONE',  ( 4.148129957775422500, 6.424363971247417200, 3.447188019189419500 ) ) ;
#286 = CARTESIAN_POINT ( 'NONE',  ( -5.204170427930420500E-015, -2.194070746794349900, 0.2969315470047439500 ) ) ;
#287 = APPLICATION_PROTOCOL_DEFINITION ( 'international standard', 'config_control_design', 1994, #112 ) ;
#288 = ORIENTED_EDGE ( 'NONE', *, *, #71, .T. ) ;
#289 = DIRECTION ( 'NONE',  ( 0.0000000000000000000, 0.0000000000000000000, 1.000000000000000000 ) ) ;
#290 = PERSON_AND_ORGANIZATION_ROLE ( 'creator' ) ;
#291 = CC_DESIGN_SECURITY_CLASSIFICATION ( #72, ( #179 ) ) ;
#292 = VECTOR ( 'NONE', #214, 1000.000000000000000 ) ;
#293 = VERTEX_POINT ( 'NONE', #155 ) ;
#294 =( GEOMETRIC_REPRESENTATION_CONTEXT ( 3 ) GLOBAL_UNCERTAINTY_ASSIGNED_CONTEXT ( ( #147 ) ) GLOBAL_UNIT_ASSIGNED_CONTEXT ( ( #110, #135, #247 ) ) REPRESENTATION_CONTEXT ( 'NONE', 'WORKASPACE' ) );
#295 = EDGE_LOOP ( 'NONE', ( #139, #250, #49 ) ) ;
ENDSEC;
END-ISO-10303-21;
