ISO-10303-21;
HEADER;
FILE_DESCRIPTION (( 'STEP AP203' ),
    '1' );
FILE_NAME ('114-1104E UVFS bi-cv 12.7 F-12.7.STEP',
    '2019-01-21T08:09:44',
    ( '' ),
    ( '' ),
    'SwSTEP 2.0',
    'SolidWorks 2017',
    '' );
FILE_SCHEMA (( 'CONFIG_CONTROL_DESIGN' ));
ENDSEC;

DATA;
#1 = CARTESIAN_POINT ( 'NONE',  ( -6.349999999999999600, 1.998896044546239400E-015, -1.707689741428980200 ) ) ;
#2 = VERTEX_POINT ( 'NONE', #108 ) ;
#3 = CIRCLE ( 'NONE', #242, 6.349999999999999600 ) ;
#4 = CARTESIAN_POINT ( 'NONE',  ( 2.498001805406600200E-016, 1.221245327087670000E-015, -1.707689741428980200 ) ) ;
#5 = DIRECTION ( 'NONE',  ( 0.0000000000000000000, 0.0000000000000000000, 1.000000000000000000 ) ) ;
#6 = CARTESIAN_POINT ( 'NONE',  ( 5.502999611257134700, 6.418928591660299600, -3.237158018216074000 ) ) ;
#7 = FACE_OUTER_BOUND ( 'NONE', #225, .T. ) ;
#8 = CARTESIAN_POINT ( 'NONE',  ( -2.371360717065065700, -2.356553018357399900, 0.6417151670372243100 ) ) ;
#9 = PERSON_AND_ORGANIZATION_ROLE ( 'design_supplier' ) ;
#10 = APPROVAL_DATE_TIME ( #196, #169 ) ;
#11 = AXIS2_PLACEMENT_3D ( 'NONE', #91, #254, #116 ) ;
#12 = DIRECTION ( 'NONE',  ( 0.0000000000000000000, 0.0000000000000000000, 1.000000000000000000 ) ) ;
#13 = CARTESIAN_POINT ( 'NONE',  ( 2.419414211467515800E-017, -6.418928591660313800, 5.447944477085636400 ) ) ;
#14 = EDGE_LOOP ( 'NONE', ( #294, #152, #222, #286, #261, #52 ) ) ;
#15 = VECTOR ( 'NONE', #260, 1000.000000000000000 ) ;
#16 = CARTESIAN_POINT ( 'NONE',  ( 2.498001805406600200E-016, 1.221245327087670000E-015, 5.407689741428980000 ) ) ;
#17 = ORIENTED_EDGE ( 'NONE', *, *, #92, .F. ) ;
#18 = CARTESIAN_POINT ( 'NONE',  ( 6.349999999999999600, 1.221245327087670000E-015, -1.707689741428980200 ) ) ;
#19 = CARTESIAN_POINT ( 'NONE',  ( 2.498001805406600200E-016, 1.221245327087670000E-015, 5.407689741428980000 ) ) ;
#20 = DIRECTION ( 'NONE',  ( 0.0000000000000000000, 0.0000000000000000000, 1.000000000000000000 ) ) ;
#21 = CIRCLE ( 'NONE', #68, 6.349999999999999600 ) ;
#22 = DIRECTION ( 'NONE',  ( -0.0000000000000000000, -0.0000000000000000000, -1.000000000000000000 ) ) ;
#23 = LOCAL_TIME ( 10, 9, 44.00000000000000000, #142 ) ;
#24 = CARTESIAN_POINT ( 'NONE',  ( 3.823144266430130500, 6.418928591660299600, -2.256111819264416500 ) ) ;
#25 = EDGE_CURVE ( 'NONE', #167, #42, #226, .T. ) ;
#26 = CARTESIAN_POINT ( 'NONE',  ( -4.660384651430277400, -2.356553018357399100, 0.02226292647099160900 ) ) ;
#27 = CARTESIAN_POINT ( 'NONE',  ( 1.733874909068302200E-015, -2.356553018357400400, 0.6417151670372238700 ) ) ;
#28 = CARTESIAN_POINT ( 'NONE',  ( 8.673617379884035500E-016, 6.418928591660300500, -1.747944477085638700 ) ) ;
#29 = CARTESIAN_POINT ( 'NONE',  ( -3.823144266430126900, 6.418928591660302300, -2.256111819264416100 ) ) ;
#30 = VERTEX_POINT ( 'NONE', #85 ) ;
#31 = CIRCLE ( 'NONE', #159, 12.66000000000000200 ) ;
#32 = EDGE_CURVE ( 'NONE', #137, #100, #194, .T. ) ;
#33 = PERSON_AND_ORGANIZATION ( #248, #158 ) ;
#34 =( BOUNDED_SURFACE ( )  B_SPLINE_SURFACE ( 3, 3, ( 
 ( #202, #134, #24, #6 ),
 ( #164, #77, #138, #93 ),
 ( #27, #180, #259, #207 ),
 ( #45, #136, #162, #182 ) ),
 .UNSPECIFIED., .F., .F., .F. ) 
 B_SPLINE_SURFACE_WITH_KNOTS ( ( 4, 4 ),
 ( 4, 4 ),
 ( 0.0000000000000000000, 1.000000000000000000 ),
 ( 0.0000000000000000000, 1.000000000000000000 ),
 .UNSPECIFIED. ) 
 GEOMETRIC_REPRESENTATION_ITEM ( )  RATIONAL_B_SPLINE_SURFACE ( (
 ( 1.000000000000000000, 0.9768524509697948900, 0.9768524509697948900, 1.000000000000000000),
 ( 0.9079544772466752200, 0.8869375564674135700, 0.8869375564674135700, 0.9079544772466752200),
 ( 0.9079544772466752200, 0.8869375564674135700, 0.8869375564674135700, 0.9079544772466752200),
 ( 1.000000000000000000, 0.9768524509697948900, 0.9768524509697948900, 1.000000000000000000) ) ) 
 REPRESENTATION_ITEM ( '' )  SURFACE ( )  );
#35 = SECURITY_CLASSIFICATION_LEVEL ( 'unclassified' ) ;
#36 = APPLICATION_PROTOCOL_DEFINITION ( 'international standard', 'config_control_design', 1994, #287 ) ;
#37 = FACE_OUTER_BOUND ( 'NONE', #14, .T. ) ;
#38 = LOCAL_TIME ( 10, 9, 44.00000000000000000, #283 ) ;
#39 = VERTEX_POINT ( 'NONE', #56 ) ;
#40 = CARTESIAN_POINT ( 'NONE',  ( 5.502999611257130200, 6.418928591660305800, 6.937158018216073300 ) ) ;
#41 = COORDINATED_UNIVERSAL_TIME_OFFSET ( 2, 0, .AHEAD. ) ;
#42 = VERTEX_POINT ( 'NONE', #109 ) ;
#43 = FACE_OUTER_BOUND ( 'NONE', #74, .T. ) ;
#44 = CARTESIAN_POINT ( 'NONE',  ( 1.945344602897224300, -6.418928591660311200, 5.447944477085638200 ) ) ;
#45 = CARTESIAN_POINT ( 'NONE',  ( -2.419414211467284600E-017, -6.418928591660305800, -1.747944477085634500 ) ) ;
#46 = DIRECTION ( 'NONE',  ( 1.000000000000000000, 0.0000000000000000000, 0.0000000000000000000 ) ) ;
#47 = ORIENTED_EDGE ( 'NONE', *, *, #146, .F. ) ;
#48 = CARTESIAN_POINT ( 'NONE',  ( -5.502999611257134700, 6.418928591660302300, 6.937158018216074100 ) ) ;
#49 = DIRECTION ( 'NONE',  ( 1.000000000000000000, 0.0000000000000000000, 0.0000000000000000000 ) ) ;
#50 = CC_DESIGN_PERSON_AND_ORGANIZATION_ASSIGNMENT ( #149, #104, ( #128 ) ) ;
#51 = DIRECTION ( 'NONE',  ( 0.0000000000000000000, 0.0000000000000000000, 1.000000000000000000 ) ) ;
#52 = ORIENTED_EDGE ( 'NONE', *, *, #185, .F. ) ;
#53 = ORIENTED_EDGE ( 'NONE', *, *, #25, .F. ) ;
#54 =( BOUNDED_SURFACE ( )  B_SPLINE_SURFACE ( 3, 3, ( 
 ( #40, #113, #117, #174 ),
 ( #131, #176, #252, #278 ),
 ( #274, #250, #199, #179 ),
 ( #112, #64, #44, #279 ) ),
 .UNSPECIFIED., .F., .F., .F. ) 
 B_SPLINE_SURFACE_WITH_KNOTS ( ( 4, 4 ),
 ( 4, 4 ),
 ( 0.0000000000000000000, 1.000000000000000000 ),
 ( 0.0000000000000000000, 1.000000000000000000 ),
 .UNSPECIFIED. ) 
 GEOMETRIC_REPRESENTATION_ITEM ( )  RATIONAL_B_SPLINE_SURFACE ( (
 ( 1.000000000000000000, 0.9768524509697948900, 0.9768524509697948900, 1.000000000000000000),
 ( 0.9079544772466752200, 0.8869375564674135700, 0.8869375564674135700, 0.9079544772466752200),
 ( 0.9079544772466752200, 0.8869375564674135700, 0.8869375564674135700, 0.9079544772466752200),
 ( 1.000000000000000000, 0.9768524509697948900, 0.9768524509697948900, 1.000000000000000000) ) ) 
 REPRESENTATION_ITEM ( '' )  SURFACE ( )  );
#55 = LOCAL_TIME ( 10, 9, 44.00000000000000000, #119 ) ;
#56 = CARTESIAN_POINT ( 'NONE',  ( 6.349999999999999600, 1.221245327087670000E-015, 5.407689741428980000 ) ) ;
#57 = DIRECTION ( 'NONE',  ( 1.000000000000000000, 8.881784197001252300E-016, 0.0000000000000000000 ) ) ;
#58 = FACE_OUTER_BOUND ( 'NONE', #219, .T. ) ;
#59 = DATE_AND_TIME ( #217, #38 ) ;
#60 = ORIENTED_EDGE ( 'NONE', *, *, #214, .T. ) ;
#61 = AXIS2_PLACEMENT_3D ( 'NONE', #16, #195, #57 ) ;
#62 = ADVANCED_FACE ( 'NONE', ( #43 ), #266, .T. ) ;
#63 = CIRCLE ( 'NONE', #11, 6.349999999999999600 ) ;
#64 = CARTESIAN_POINT ( 'NONE',  ( 3.823144266430131400, -6.418928591660311200, 5.956111819264414500 ) ) ;
#65 = VERTEX_POINT ( 'NONE', #1 ) ;
#66 = CALENDAR_DATE ( 2019, 21, 1 ) ;
#67 = DIRECTION ( 'NONE',  ( 1.000000000000000000, 0.0000000000000000000, 0.0000000000000000000 ) ) ;
#68 = AXIS2_PLACEMENT_3D ( 'NONE', #89, #251, #156 ) ;
#69 = CARTESIAN_POINT ( 'NONE',  ( -3.823144266430135400, -6.418928591660303200, -2.256111819264412500 ) ) ;
#70 = CC_DESIGN_SECURITY_CLASSIFICATION ( #239, ( #223 ) ) ;
#71 = DESIGN_CONTEXT ( 'detailed design', #287, 'design' ) ;
#72 = CARTESIAN_POINT ( 'NONE',  ( 6.349999999999999600, 1.221245327087670000E-015, -1.707689741428980200 ) ) ;
#73 = PERSON_AND_ORGANIZATION ( #248, #158 ) ;
#74 = EDGE_LOOP ( 'NONE', ( #244, #60, #197, #209, #184, #175 ) ) ;
#75 = CARTESIAN_POINT ( 'NONE',  ( -4.660384651430275600, 2.356553018357399900, 0.02226292647098965900 ) ) ;
#76 = PERSON_AND_ORGANIZATION ( #248, #158 ) ;
#77 = CARTESIAN_POINT ( 'NONE',  ( 2.371360717065065200, 2.356553018357397700, 0.6417151670372213100 ) ) ;
#78 = APPROVAL_PERSON_ORGANIZATION ( #73, #169, #141 ) ;
#79 = EDGE_CURVE ( 'NONE', #30, #137, #190, .T. ) ;
#80 = DIRECTION ( 'NONE',  ( 1.000000000000000000, 0.0000000000000000000, 0.0000000000000000000 ) ) ;
#81 = APPROVAL_STATUS ( 'not_yet_approved' ) ;
#82 = DATE_TIME_ROLE ( 'classification_date' ) ;
#83 = AXIS2_PLACEMENT_3D ( 'NONE', #4, #5, #151 ) ;
#84 = PRODUCT ( '114-1104E UVFS bi-cv 12.7 F-12.7', '114-1104E UVFS bi-cv 12.7 F-12.7', '', ( #292 ) ) ;
#85 = CARTESIAN_POINT ( 'NONE',  ( 5.563605888887007400E-018, -6.350000000000002300, -1.707689741428980400 ) ) ;
#86 = MANIFOLD_SOLID_BREP ( 'Imported1', #171 ) ;
#87 = COORDINATED_UNIVERSAL_TIME_OFFSET ( 2, 0, .AHEAD. ) ;
#88 = ADVANCED_BREP_SHAPE_REPRESENTATION ( '114-1104E UVFS bi-cv 12.7 F-12.7', ( #86, #178 ), #107 ) ;
#89 = CARTESIAN_POINT ( 'NONE',  ( 2.498001805406600200E-016, 1.221245327087670000E-015, 5.407689741428980000 ) ) ;
#90 = ORIENTED_EDGE ( 'NONE', *, *, #79, .F. ) ;
#91 = CARTESIAN_POINT ( 'NONE',  ( 2.498001805406600200E-016, 1.221245327087670000E-015, 5.407689741428980000 ) ) ;
#92 = EDGE_CURVE ( 'NONE', #2, #167, #153, .T. ) ;
#93 = CARTESIAN_POINT ( 'NONE',  ( 6.708115921839544500, 2.356553018357396800, -1.173625151330344000 ) ) ;
#94 = CC_DESIGN_DATE_AND_TIME_ASSIGNMENT ( #124, #139, ( #128 ) ) ;
#95 = DIRECTION ( 'NONE',  ( 0.0000000000000000000, 0.0000000000000000000, 1.000000000000000000 ) ) ;
#96 = DIRECTION ( 'NONE',  ( -2.869132700220389600E-016, 1.000000000000000000, 0.0000000000000000000 ) ) ;
#97 = AXIS2_PLACEMENT_3D ( 'NONE', #221, #273, #155 ) ;
#98 = CARTESIAN_POINT ( 'NONE',  ( -6.708115921839548100, -2.356553018357398200, -1.173625151330341500 ) ) ;
#99 = CALENDAR_DATE ( 2019, 21, 1 ) ;
#100 = VERTEX_POINT ( 'NONE', #200 ) ;
#101 = CARTESIAN_POINT ( 'NONE',  ( -5.502999611257132900, -6.418928591660315600, 6.937158018216071500 ) ) ;
#102 = CIRCLE ( 'NONE', #170, 12.66000000000000200 ) ;
#103 = APPROVAL_PERSON_ORGANIZATION ( #267, #249, #268 ) ;
#104 = PERSON_AND_ORGANIZATION_ROLE ( 'creator' ) ;
#105 = ORIENTED_EDGE ( 'NONE', *, *, #150, .F. ) ;
#106 = PERSON_AND_ORGANIZATION_ROLE ( 'design_owner' ) ;
#107 =( GEOMETRIC_REPRESENTATION_CONTEXT ( 3 ) GLOBAL_UNCERTAINTY_ASSIGNED_CONTEXT ( ( #281 ) ) GLOBAL_UNIT_ASSIGNED_CONTEXT ( ( #189, #120, #240 ) ) REPRESENTATION_CONTEXT ( 'NONE', 'WORKASPACE' ) );
#108 = CARTESIAN_POINT ( 'NONE',  ( -5.563605888885610800E-018, -6.350000000000005000, 5.407689741428980800 ) ) ;
#109 = CARTESIAN_POINT ( 'NONE',  ( -3.649362135168782500E-015, 6.349999999999999600, 5.407689741428980800 ) ) ;
#110 = CYLINDRICAL_SURFACE ( 'NONE', #253, 6.349999999999999600 ) ;
#111 = PRODUCT_DEFINITION_SHAPE ( 'NONE', 'NONE',  #128 ) ;
#112 = CARTESIAN_POINT ( 'NONE',  ( 5.502999611257135500, -6.418928591660312000, 6.937158018216071500 ) ) ;
#113 = CARTESIAN_POINT ( 'NONE',  ( 3.823144266430126100, 6.418928591660303200, 5.956111819264416200 ) ) ;
#114 = ORIENTED_EDGE ( 'NONE', *, *, #148, .T. ) ;
#115 = DIRECTION ( 'NONE',  ( 2.869132700220390600E-016, 1.000000000000000000, 2.740479424923865700E-016 ) ) ;
#116 = DIRECTION ( 'NONE',  ( 1.000000000000000000, -8.881784197001252300E-016, 0.0000000000000000000 ) ) ;
#117 = CARTESIAN_POINT ( 'NONE',  ( 1.945344602897218800, 6.418928591660303200, 5.447944477085640000 ) ) ;
#118 = CARTESIAN_POINT ( 'NONE',  ( -1.945344602897225400, -6.418928591660304100, -1.747944477085634100 ) ) ;
#119 = COORDINATED_UNIVERSAL_TIME_OFFSET ( 2, 0, .AHEAD. ) ;
#120 =( NAMED_UNIT ( * ) PLANE_ANGLE_UNIT ( ) SI_UNIT ( $, .RADIAN. ) );
#121 = CC_DESIGN_PERSON_AND_ORGANIZATION_ASSIGNMENT ( #245, #106, ( #84 ) ) ;
#122 = CARTESIAN_POINT ( 'NONE',  ( -4.660384651430276500, 2.356553018357397700, 3.677737073529009100 ) ) ;
#123 = LINE ( 'NONE', #72, #15 ) ;
#124 = DATE_AND_TIME ( #262, #154 ) ;
#125 = CARTESIAN_POINT ( 'NONE',  ( -3.823144266430128700, -6.418928591660312900, 5.956111819264413600 ) ) ;
#126 = CC_DESIGN_APPROVAL ( #204, ( #128 ) ) ;
#127 = LOCAL_TIME ( 10, 9, 44.00000000000000000, #41 ) ;
#128 = PRODUCT_DEFINITION ( 'UNKNOWN', '', #223, #71 ) ;
#129 = ORIENTED_EDGE ( 'NONE', *, *, #198, .F. ) ;
#130 = DIRECTION ( 'NONE',  ( 1.000000000000000000, 0.0000000000000000000, 0.0000000000000000000 ) ) ;
#131 = CARTESIAN_POINT ( 'NONE',  ( 6.708115921839541900, 2.356553018357400400, 4.873625151330339900 ) ) ;
#132 = CARTESIAN_POINT ( 'NONE',  ( -6.349999999999999600, 1.998896044546239400E-015, 5.407689741428980000 ) ) ;
#133 = CIRCLE ( 'NONE', #220, 6.349999999999999600 ) ;
#134 = CARTESIAN_POINT ( 'NONE',  ( 1.945344602897224100, 6.418928591660300500, -1.747944477085639800 ) ) ;
#135 = CARTESIAN_POINT ( 'NONE',  ( -1.945344602897219900, 6.418928591660301400, -1.747944477085638500 ) ) ;
#136 = CARTESIAN_POINT ( 'NONE',  ( 1.945344602897221900, -6.418928591660304900, -1.747944477085634700 ) ) ;
#137 = VERTEX_POINT ( 'NONE', #18 ) ;
#138 = CARTESIAN_POINT ( 'NONE',  ( 4.660384651430276500, 2.356553018357397700, 0.02226292647098857700 ) ) ;
#139 = DATE_TIME_ROLE ( 'creation_date' ) ;
#140 = ORIENTED_EDGE ( 'NONE', *, *, #148, .F. ) ;
#141 = APPROVAL_ROLE ( '' ) ;
#142 = COORDINATED_UNIVERSAL_TIME_OFFSET ( 2, 0, .AHEAD. ) ;
#143 = CC_DESIGN_APPROVAL ( #249, ( #223 ) ) ;
#144 = CARTESIAN_POINT ( 'NONE',  ( -1.733874909068301800E-015, -2.356553018357406600, 3.058284832962772500 ) ) ;
#145 = CARTESIAN_POINT ( 'NONE',  ( -6.708115921839545400, -2.356553018357407900, 4.873625151330339900 ) ) ;
#146 = EDGE_CURVE ( 'NONE', #39, #2, #21, .T. ) ;
#147 = FACE_OUTER_BOUND ( 'NONE', #247, .T. ) ;
#148 = EDGE_CURVE ( 'NONE', #100, #30, #102, .T. ) ;
#149 = PERSON_AND_ORGANIZATION ( #248, #158 ) ;
#150 = EDGE_CURVE ( 'NONE', #42, #39, #63, .T. ) ;
#151 = DIRECTION ( 'NONE',  ( 1.000000000000000000, 0.0000000000000000000, 0.0000000000000000000 ) ) ;
#152 = ORIENTED_EDGE ( 'NONE', *, *, #288, .T. ) ;
#153 = CIRCLE ( 'NONE', #269, 6.349999999999999600 ) ;
#154 = LOCAL_TIME ( 10, 9, 44.00000000000000000, #87 ) ;
#155 = DIRECTION ( 'NONE',  ( 1.000000000000000000, 0.0000000000000000000, 0.0000000000000000000 ) ) ;
#156 = DIRECTION ( 'NONE',  ( 1.000000000000000000, 0.0000000000000000000, 0.0000000000000000000 ) ) ;
#157 = CARTESIAN_POINT ( 'NONE',  ( -2.371360717065062100, 2.356553018357399100, 0.6417151670372218700 ) ) ;
#158 = ORGANIZATION ( 'UNSPECIFIED', 'UNSPECIFIED', '' ) ;
#159 = AXIS2_PLACEMENT_3D ( 'NONE', #284, #231, #96 ) ;
#160 = DIRECTION ( 'NONE',  ( 0.0000000000000000000, 0.0000000000000000000, 1.000000000000000000 ) ) ;
#161 = ADVANCED_FACE ( 'NONE', ( #7 ), #54, .F. ) ;
#162 = CARTESIAN_POINT ( 'NONE',  ( 3.823144266430130500, -6.418928591660305800, -2.256111819264412500 ) ) ;
#163 = ORIENTED_EDGE ( 'NONE', *, *, #32, .F. ) ;
#164 = CARTESIAN_POINT ( 'NONE',  ( 3.086127574022756300E-015, 2.356553018357398200, 0.6417151670372217600 ) ) ;
#165 = CARTESIAN_POINT ( 'NONE',  ( -4.660384651430276500, -2.356553018357408400, 3.677737073529006900 ) ) ;
#166 = PERSON_AND_ORGANIZATION_ROLE ( 'creator' ) ;
#167 = VERTEX_POINT ( 'NONE', #132 ) ;
#168 = CARTESIAN_POINT ( 'NONE',  ( -3.823144266430130500, 6.418928591660302300, 5.956111819264416200 ) ) ;
#169 = APPROVAL ( #81, 'UNSPECIFIED' ) ;
#170 = AXIS2_PLACEMENT_3D ( 'NONE', #227, #201, #115 ) ;
#171 = CLOSED_SHELL ( 'NONE', ( #232, #161, #177, #62, #181, #275 ) ) ;
#172 = DATE_AND_TIME ( #235, #55 ) ;
#173 = PERSON_AND_ORGANIZATION ( #248, #158 ) ;
#174 = CARTESIAN_POINT ( 'NONE',  ( -1.734723475976807100E-015, 6.418928591660304100, 5.447944477085640000 ) ) ;
#175 = ORIENTED_EDGE ( 'NONE', *, *, #92, .T. ) ;
#176 = CARTESIAN_POINT ( 'NONE',  ( 4.660384651430275600, 2.356553018357400800, 3.677737073529007400 ) ) ;
#177 = ADVANCED_FACE ( 'NONE', ( #37 ), #110, .T. ) ;
#178 = AXIS2_PLACEMENT_3D ( 'NONE', #213, #51, #80 ) ;
#179 = CARTESIAN_POINT ( 'NONE',  ( 0.0000000000000000000, -2.356553018357405700, 3.058284832962774300 ) ) ;
#180 = CARTESIAN_POINT ( 'NONE',  ( 2.371360717065063000, -2.356553018357400800, 0.6417151670372237500 ) ) ;
#181 = ADVANCED_FACE ( 'NONE', ( #147 ), #34, .F. ) ;
#182 = CARTESIAN_POINT ( 'NONE',  ( 5.502999611257135500, -6.418928591660307600, -3.237158018216070000 ) ) ;
#183 = CARTESIAN_POINT ( 'NONE',  ( -5.502999611257131100, 6.418928591660303200, -3.237158018216073100 ) ) ;
#184 = ORIENTED_EDGE ( 'NONE', *, *, #146, .T. ) ;
#185 = EDGE_CURVE ( 'NONE', #137, #39, #123, .T. ) ;
#186 = APPROVAL_PERSON_ORGANIZATION ( #76, #204, #215 ) ;
#187 = CARTESIAN_POINT ( 'NONE',  ( -6.708115921839541900, 2.356553018357400400, -1.173625151330343100 ) ) ;
#188 = CARTESIAN_POINT ( 'NONE',  ( -6.708115921839545400, 2.356553018357396800, 4.873625151330341700 ) ) ;
#189 =( LENGTH_UNIT ( ) NAMED_UNIT ( * ) SI_UNIT ( .MILLI., .METRE. ) );
#190 = CIRCLE ( 'NONE', #193, 6.349999999999999600 ) ;
#191 = CARTESIAN_POINT ( 'NONE',  ( 2.498001805406600200E-016, 1.221245327087670000E-015, -1.707689741428980200 ) ) ;
#192 = APPROVAL_STATUS ( 'not_yet_approved' ) ;
#193 = AXIS2_PLACEMENT_3D ( 'NONE', #256, #20, #67 ) ;
#194 = CIRCLE ( 'NONE', #83, 6.349999999999999600 ) ;
#195 = DIRECTION ( 'NONE',  ( -0.0000000000000000000, -0.0000000000000000000, -1.000000000000000000 ) ) ;
#196 = DATE_AND_TIME ( #66, #127 ) ;
#197 = ORIENTED_EDGE ( 'NONE', *, *, #79, .T. ) ;
#198 = EDGE_CURVE ( 'NONE', #42, #2, #31, .T. ) ;
#199 = CARTESIAN_POINT ( 'NONE',  ( 2.371360717065062100, -2.356553018357404800, 3.058284832962774300 ) ) ;
#200 = CARTESIAN_POINT ( 'NONE',  ( 3.649362135168781700E-015, 6.349999999999997900, -1.707689741428981300 ) ) ;
#201 = DIRECTION ( 'NONE',  ( 1.000000000000000000, -2.869132700220390100E-016, -2.479514573743709900E-016 ) ) ;
#202 = CARTESIAN_POINT ( 'NONE',  ( 3.659157442427763400E-015, 6.418928591660301400, -1.747944477085639600 ) ) ;
#203 = CARTESIAN_POINT ( 'NONE',  ( 2.498001805406600200E-016, 1.221245327087670000E-015, -1.707689741428980200 ) ) ;
#204 = APPROVAL ( #238, 'UNSPECIFIED' ) ;
#205 = APPROVAL_DATE_TIME ( #59, #249 ) ;
#206 = CARTESIAN_POINT ( 'NONE',  ( -6.349999999999999600, 1.998896044546239400E-015, -1.707689741428980200 ) ) ;
#207 = CARTESIAN_POINT ( 'NONE',  ( 6.708115921839545400, -2.356553018357401700, -1.173625151330342400 ) ) ;
#208 = CARTESIAN_POINT ( 'NONE',  ( -3.659157442427764900E-015, 6.418928591660304100, 5.447944477085640000 ) ) ;
#209 = ORIENTED_EDGE ( 'NONE', *, *, #185, .T. ) ;
#210 = FACE_OUTER_BOUND ( 'NONE', #270, .T. ) ;
#211 = APPLICATION_PROTOCOL_DEFINITION ( 'international standard', 'config_control_design', 1994, #237 ) ;
#212 =( BOUNDED_SURFACE ( )  B_SPLINE_SURFACE ( 3, 3, ( 
 ( #208, #285, #168, #48 ),
 ( #265, #289, #122, #188 ),
 ( #144, #236, #165, #145 ),
 ( #13, #218, #125, #101 ) ),
 .UNSPECIFIED., .F., .F., .F. ) 
 B_SPLINE_SURFACE_WITH_KNOTS ( ( 4, 4 ),
 ( 4, 4 ),
 ( 0.0000000000000000000, 1.000000000000000000 ),
 ( 0.0000000000000000000, 1.000000000000000000 ),
 .UNSPECIFIED. ) 
 GEOMETRIC_REPRESENTATION_ITEM ( )  RATIONAL_B_SPLINE_SURFACE ( (
 ( 1.000000000000000000, 0.9768524509697948900, 0.9768524509697948900, 1.000000000000000000),
 ( 0.9079544772466752200, 0.8869375564674135700, 0.8869375564674135700, 0.9079544772466752200),
 ( 0.9079544772466752200, 0.8869375564674135700, 0.8869375564674135700, 0.9079544772466752200),
 ( 1.000000000000000000, 0.9768524509697948900, 0.9768524509697948900, 1.000000000000000000) ) ) 
 REPRESENTATION_ITEM ( '' )  SURFACE ( )  );
#213 = CARTESIAN_POINT ( 'NONE',  ( 0.0000000000000000000, 0.0000000000000000000, 0.0000000000000000000 ) ) ;
#214 = EDGE_CURVE ( 'NONE', #65, #30, #133, .T. ) ;
#215 = APPROVAL_ROLE ( '' ) ;
#216 = PERSON_AND_ORGANIZATION_ROLE ( 'classification_officer' ) ;
#217 = CALENDAR_DATE ( 2019, 21, 1 ) ;
#218 = CARTESIAN_POINT ( 'NONE',  ( -1.945344602897221000, -6.418928591660312900, 5.447944477085637300 ) ) ;
#219 = EDGE_LOOP ( 'NONE', ( #271, #114, #291 ) ) ;
#220 = AXIS2_PLACEMENT_3D ( 'NONE', #203, #160, #46 ) ;
#221 = CARTESIAN_POINT ( 'NONE',  ( 2.498001805406600200E-016, 1.221245327087670000E-015, -1.707689741428980200 ) ) ;
#222 = ORIENTED_EDGE ( 'NONE', *, *, #229, .T. ) ;
#223 = PRODUCT_DEFINITION_FORMATION_WITH_SPECIFIED_SOURCE ( 'ANY', '', #84, .NOT_KNOWN. ) ;
#224 = DIRECTION ( 'NONE',  ( 0.0000000000000000000, 0.0000000000000000000, 1.000000000000000000 ) ) ;
#225 = EDGE_LOOP ( 'NONE', ( #105, #282, #47 ) ) ;
#226 = CIRCLE ( 'NONE', #61, 6.349999999999999600 ) ;
#227 = CARTESIAN_POINT ( 'NONE',  ( -8.881784197001250400E-016, -6.217248937900879800E-015, -12.66000000000000200 ) ) ;
#228 = CARTESIAN_POINT ( 'NONE',  ( 2.498001805406600200E-016, 1.221245327087670000E-015, -1.707689741428980200 ) ) ;
#229 = EDGE_CURVE ( 'NONE', #65, #167, #255, .T. ) ;
#230 = CARTESIAN_POINT ( 'NONE',  ( -3.469446951953614200E-015, -6.418928591660306700, -1.747944477085634100 ) ) ;
#231 = DIRECTION ( 'NONE',  ( -1.000000000000000000, -2.869132700220390100E-016, 2.479514573743709900E-016 ) ) ;
#232 = ADVANCED_FACE ( 'NONE', ( #58 ), #241, .F. ) ;
#233 = CARTESIAN_POINT ( 'NONE',  ( 0.0000000000000000000, 2.356553018357398200, 0.6417151670372217600 ) ) ;
#234 = CARTESIAN_POINT ( 'NONE',  ( -2.602085213965210600E-015, -2.356553018357400400, 0.6417151670372245300 ) ) ;
#235 = CALENDAR_DATE ( 2019, 21, 1 ) ;
#236 = CARTESIAN_POINT ( 'NONE',  ( -2.371360717065063500, -2.356553018357407500, 3.058284832962773400 ) ) ;
#237 = APPLICATION_CONTEXT ( 'configuration controlled 3d designs of mechanical parts and assemblies' ) ;
#238 = APPROVAL_STATUS ( 'not_yet_approved' ) ;
#239 = SECURITY_CLASSIFICATION ( '', '', #35 ) ;
#240 =( NAMED_UNIT ( * ) SI_UNIT ( $, .STERADIAN. ) SOLID_ANGLE_UNIT ( ) );
#241 =( BOUNDED_SURFACE ( )  B_SPLINE_SURFACE ( 3, 3, ( 
 ( #183, #29, #135, #28 ),
 ( #187, #75, #157, #233 ),
 ( #98, #26, #8, #234 ),
 ( #263, #69, #118, #230 ) ),
 .UNSPECIFIED., .F., .F., .F. ) 
 B_SPLINE_SURFACE_WITH_KNOTS ( ( 4, 4 ),
 ( 4, 4 ),
 ( 0.0000000000000000000, 1.000000000000000000 ),
 ( 0.0000000000000000000, 1.000000000000000000 ),
 .UNSPECIFIED. ) 
 GEOMETRIC_REPRESENTATION_ITEM ( )  RATIONAL_B_SPLINE_SURFACE ( (
 ( 1.000000000000000000, 0.9768524509697948900, 0.9768524509697948900, 1.000000000000000000),
 ( 0.9079544772466752200, 0.8869375564674135700, 0.8869375564674135700, 0.9079544772466752200),
 ( 0.9079544772466752200, 0.8869375564674135700, 0.8869375564674135700, 0.9079544772466752200),
 ( 1.000000000000000000, 0.9768524509697948900, 0.9768524509697948900, 1.000000000000000000) ) ) 
 REPRESENTATION_ITEM ( '' )  SURFACE ( )  );
#242 = AXIS2_PLACEMENT_3D ( 'NONE', #191, #12, #49 ) ;
#243 = SHAPE_DEFINITION_REPRESENTATION ( #111, #88 ) ;
#244 = ORIENTED_EDGE ( 'NONE', *, *, #229, .F. ) ;
#245 = PERSON_AND_ORGANIZATION ( #248, #158 ) ;
#246 = VECTOR ( 'NONE', #95, 1000.000000000000000 ) ;
#247 = EDGE_LOOP ( 'NONE', ( #140, #163, #90 ) ) ;
#248 = PERSON ( 'UNSPECIFIED', 'UNSPECIFIED', 'UNSPECIFIED', ('UNSPECIFIED'), ('UNSPECIFIED'), ('UNSPECIFIED') ) ;
#249 = APPROVAL ( #192, 'UNSPECIFIED' ) ;
#250 = CARTESIAN_POINT ( 'NONE',  ( 4.660384651430276500, -2.356553018357404800, 3.677737073529006900 ) ) ;
#251 = DIRECTION ( 'NONE',  ( -0.0000000000000000000, -0.0000000000000000000, -1.000000000000000000 ) ) ;
#252 = CARTESIAN_POINT ( 'NONE',  ( 2.371360717065060800, 2.356553018357399900, 3.058284832962774800 ) ) ;
#253 = AXIS2_PLACEMENT_3D ( 'NONE', #228, #224, #280 ) ;
#254 = DIRECTION ( 'NONE',  ( -0.0000000000000000000, -0.0000000000000000000, -1.000000000000000000 ) ) ;
#255 = LINE ( 'NONE', #206, #246 ) ;
#256 = CARTESIAN_POINT ( 'NONE',  ( 2.498001805406600200E-016, 1.221245327087670000E-015, -1.707689741428980200 ) ) ;
#257 = APPROVAL_DATE_TIME ( #172, #204 ) ;
#258 = CC_DESIGN_DATE_AND_TIME_ASSIGNMENT ( #277, #82, ( #239 ) ) ;
#259 = CARTESIAN_POINT ( 'NONE',  ( 4.660384651430276500, -2.356553018357400800, 0.02226292647099074500 ) ) ;
#260 = DIRECTION ( 'NONE',  ( 0.0000000000000000000, 0.0000000000000000000, 1.000000000000000000 ) ) ;
#261 = ORIENTED_EDGE ( 'NONE', *, *, #150, .T. ) ;
#262 = CALENDAR_DATE ( 2019, 21, 1 ) ;
#263 = CARTESIAN_POINT ( 'NONE',  ( -5.502999611257140000, -6.418928591660304100, -3.237158018216069500 ) ) ;
#264 = CC_DESIGN_PERSON_AND_ORGANIZATION_ASSIGNMENT ( #33, #166, ( #223 ) ) ;
#265 = CARTESIAN_POINT ( 'NONE',  ( -3.086127574022757900E-015, 2.356553018357398200, 3.058284832962775600 ) ) ;
#266 = CYLINDRICAL_SURFACE ( 'NONE', #97, 6.349999999999999600 ) ;
#267 = PERSON_AND_ORGANIZATION ( #248, #158 ) ;
#268 = APPROVAL_ROLE ( '' ) ;
#269 = AXIS2_PLACEMENT_3D ( 'NONE', #19, #22, #130 ) ;
#270 = EDGE_LOOP ( 'NONE', ( #129, #53, #17 ) ) ;
#271 = ORIENTED_EDGE ( 'NONE', *, *, #288, .F. ) ;
#272 = PERSON_AND_ORGANIZATION ( #248, #158 ) ;
#273 = DIRECTION ( 'NONE',  ( 0.0000000000000000000, 0.0000000000000000000, 1.000000000000000000 ) ) ;
#274 = CARTESIAN_POINT ( 'NONE',  ( 6.708115921839545400, -2.356553018357403500, 4.873625151330339900 ) ) ;
#275 = ADVANCED_FACE ( 'NONE', ( #210 ), #212, .F. ) ;
#276 = CC_DESIGN_APPROVAL ( #169, ( #239 ) ) ;
#277 = DATE_AND_TIME ( #99, #23 ) ;
#278 = CARTESIAN_POINT ( 'NONE',  ( -1.734723475976806900E-015, 2.356553018357398200, 3.058284832962775200 ) ) ;
#279 = CARTESIAN_POINT ( 'NONE',  ( 3.469446951953614200E-015, -6.418928591660313800, 5.447944477085638200 ) ) ;
#280 = DIRECTION ( 'NONE',  ( 1.000000000000000000, 0.0000000000000000000, 0.0000000000000000000 ) ) ;
#281 = UNCERTAINTY_MEASURE_WITH_UNIT (LENGTH_MEASURE( 1.000000000000000100E-005 ), #189, 'distance_accuracy_value', 'NONE');
#282 = ORIENTED_EDGE ( 'NONE', *, *, #198, .T. ) ;
#283 = COORDINATED_UNIVERSAL_TIME_OFFSET ( 2, 0, .AHEAD. ) ;
#284 = CARTESIAN_POINT ( 'NONE',  ( 8.881784197001250400E-016, -6.217248937900879800E-015, 16.35999999999999900 ) ) ;
#285 = CARTESIAN_POINT ( 'NONE',  ( -1.945344602897224100, 6.418928591660302300, 5.447944477085640900 ) ) ;
#286 = ORIENTED_EDGE ( 'NONE', *, *, #25, .T. ) ;
#287 = APPLICATION_CONTEXT ( 'configuration controlled 3d designs of mechanical parts and assemblies' ) ;
#288 = EDGE_CURVE ( 'NONE', #100, #65, #3, .T. ) ;
#289 = CARTESIAN_POINT ( 'NONE',  ( -2.371360717065065200, 2.356553018357398200, 3.058284832962777000 ) ) ;
#290 = CC_DESIGN_PERSON_AND_ORGANIZATION_ASSIGNMENT ( #272, #216, ( #239 ) ) ;
#291 = ORIENTED_EDGE ( 'NONE', *, *, #214, .F. ) ;
#292 = MECHANICAL_CONTEXT ( 'NONE', #237, 'mechanical' ) ;
#293 = CC_DESIGN_PERSON_AND_ORGANIZATION_ASSIGNMENT ( #173, #9, ( #223 ) ) ;
#294 = ORIENTED_EDGE ( 'NONE', *, *, #32, .T. ) ;
#295 = PRODUCT_RELATED_PRODUCT_CATEGORY ( 'detail', '', ( #84 ) ) ;
ENDSEC;
END-ISO-10303-21;
