ISO-10303-21;
HEADER;
FILE_DESCRIPTION (( 'STEP AP203' ),
    '1' );
FILE_NAME ('114-0238E BK7 bi-cv 25.4 F-500.STEP',
    '2019-01-21T07:40:02',
    ( '' ),
    ( '' ),
    'SwSTEP 2.0',
    'SolidWorks 2017',
    '' );
FILE_SCHEMA (( 'CONFIG_CONTROL_DESIGN' ));
ENDSEC;

DATA;
#1 = CYLINDRICAL_SURFACE ( 'NONE', #154, 12.69999999999999900 ) ;
#2 = AXIS2_PLACEMENT_3D ( 'NONE', #90, #16, #64 ) ;
#3 = COORDINATED_UNIVERSAL_TIME_OFFSET ( 2, 0, .AHEAD. ) ;
#4 = LINE ( 'NONE', #80, #291 ) ;
#5 = CIRCLE ( 'NONE', #99, 12.69999999999999900 ) ;
#6 = ORIENTED_EDGE ( 'NONE', *, *, #160, .T. ) ;
#7 = CARTESIAN_POINT ( 'NONE',  ( 4.996003610813200500E-016, 2.442490654175340100E-015, 3.355318817576640600 ) ) ;
#8 = CARTESIAN_POINT ( 'NONE',  ( 4.259700392027912000, 4.284998055492963000, 0.05303371118060658900 ) ) ;
#9 = AXIS2_PLACEMENT_3D ( 'NONE', #237, #82, #236 ) ;
#10 = CARTESIAN_POINT ( 'NONE',  ( -12.77748944045133500, -4.284998055493145900, -0.1041704822680172700 ) ) ;
#11 = DIRECTION ( 'NONE',  ( 0.0000000000000000000, 1.000000000000000000, 4.275844500770870700E-016 ) ) ;
#12 = ADVANCED_BREP_SHAPE_REPRESENTATION ( '114-0238E BK7 bi-cv 25.4 F-500', ( #182, #162 ), #117 ) ;
#13 = COORDINATED_UNIVERSAL_TIME_OFFSET ( 2, 0, .AHEAD. ) ;
#14 = EDGE_LOOP ( 'NONE', ( #200, #156, #278, #103, #273, #47 ) ) ;
#15 = SECURITY_CLASSIFICATION_LEVEL ( 'unclassified' ) ;
#16 = DIRECTION ( 'NONE',  ( 0.0000000000000000000, 0.0000000000000000000, 1.000000000000000000 ) ) ;
#17 = AXIS2_PLACEMENT_3D ( 'NONE', #289, #221, #238 ) ;
#18 = FACE_OUTER_BOUND ( 'NONE', #14, .T. ) ;
#19 = ORIENTED_EDGE ( 'NONE', *, *, #213, .F. ) ;
#20 = CC_DESIGN_PERSON_AND_ORGANIZATION_ASSIGNMENT ( #56, #129, ( #96 ) ) ;
#21 = COORDINATED_UNIVERSAL_TIME_OFFSET ( 2, 0, .AHEAD. ) ;
#22 = ORIENTED_EDGE ( 'NONE', *, *, #69, .T. ) ;
#23 = EDGE_CURVE ( 'NONE', #207, #261, #51, .T. ) ;
#24 = VERTEX_POINT ( 'NONE', #48 ) ;
#25 = CLOSED_SHELL ( 'NONE', ( #81, #245, #172, #43, #191, #198 ) ) ;
#26 = CC_DESIGN_PERSON_AND_ORGANIZATION_ASSIGNMENT ( #193, #97, ( #94 ) ) ;
#27 = APPROVAL_PERSON_ORGANIZATION ( #234, #180, #87 ) ;
#28 = EDGE_LOOP ( 'NONE', ( #247, #212, #68 ) ) ;
#29 = CARTESIAN_POINT ( 'NONE',  ( 1.856154119295183600E-013, -12.85236906026423900, 3.359068643649830900 ) ) ;
#30 = CARTESIAN_POINT ( 'NONE',  ( -5.684341886080800200E-014, -1.136868377216160000E-013, -519.2999999999999500 ) ) ;
#31 = CARTESIAN_POINT ( 'NONE',  ( -4.257960742068657800, 12.85236906026405600, -0.1590686436498517100 ) ) ;
#32 = DIRECTION ( 'NONE',  ( -1.000000000000000000, 0.0000000000000000000, 0.0000000000000000000 ) ) ;
#33 = CARTESIAN_POINT ( 'NONE',  ( 4.257960742068491700, -12.85236906026423900, -0.1590686436497845400 ) ) ;
#34 = CARTESIAN_POINT ( 'NONE',  ( 12.77748944045133500, 4.284998055492962100, 3.304170482267997100 ) ) ;
#35 = CARTESIAN_POINT ( 'NONE',  ( 12.77748944045131700, -4.284998055493145900, -0.1041704822680000500 ) ) ;
#36 = CIRCLE ( 'NONE', #17, 12.69999999999999900 ) ;
#37 = CARTESIAN_POINT ( 'NONE',  ( 4.259700392028081600, -4.284998055493145900, 3.146966288819442100 ) ) ;
#38 = DIRECTION ( 'NONE',  ( 0.0000000000000000000, 0.0000000000000000000, 1.000000000000000000 ) ) ;
#39 = CARTESIAN_POINT ( 'NONE',  ( 4.259700392027912000, -4.284998055493145900, 0.05303371118060583300 ) ) ;
#40 = DIRECTION ( 'NONE',  ( 0.0000000000000000000, 0.0000000000000000000, 1.000000000000000000 ) ) ;
#41 = CALENDAR_DATE ( 2019, 21, 1 ) ;
#42 = ORIENTED_EDGE ( 'NONE', *, *, #23, .F. ) ;
#43 = ADVANCED_FACE ( 'NONE', ( #108 ), #118, .F. ) ;
#44 = CARTESIAN_POINT ( 'NONE',  ( -12.77748944045131900, -4.284998055493145900, 3.304170482267980700 ) ) ;
#45 = APPROVAL_ROLE ( '' ) ;
#46 = AXIS2_PLACEMENT_3D ( 'NONE', #168, #32, #11 ) ;
#47 = ORIENTED_EDGE ( 'NONE', *, *, #213, .T. ) ;
#48 = CARTESIAN_POINT ( 'NONE',  ( -12.69999999999999900, 3.997792089092478900E-015, -0.1553188175766349900 ) ) ;
#49 = CIRCLE ( 'NONE', #63, 12.69999999999999900 ) ;
#50 = LOCAL_TIME ( 9, 40, 2.000000000000000000, #205 ) ;
#51 = CIRCLE ( 'NONE', #141, 12.69999999999999900 ) ;
#52 = DIRECTION ( 'NONE',  ( 1.000000000000000000, 0.0000000000000000000, 0.0000000000000000000 ) ) ;
#53 = CARTESIAN_POINT ( 'NONE',  ( 8.515599258902426500, -12.85236906026423900, 3.411451283616272300 ) ) ;
#54 = EDGE_CURVE ( 'NONE', #120, #73, #36, .T. ) ;
#55 = CARTESIAN_POINT ( 'NONE',  ( 4.257960742068659600, 12.85236906026405600, 3.359068643649831400 ) ) ;
#56 = PERSON_AND_ORGANIZATION ( #255, #257 ) ;
#57 = CIRCLE ( 'NONE', #9, 12.69999999999999900 ) ;
#58 = CARTESIAN_POINT ( 'NONE',  ( 12.77227114880148300, -12.85236906026423900, 3.516208635336859300 ) ) ;
#59 = UNCERTAINTY_MEASURE_WITH_UNIT (LENGTH_MEASURE( 1.000000000000000100E-005 ), #263, 'distance_accuracy_value', 'NONE');
#60 = DIRECTION ( 'NONE',  ( 1.000000000000000000, 0.0000000000000000000, 0.0000000000000000000 ) ) ;
#61 = APPROVAL_STATUS ( 'not_yet_approved' ) ;
#62 = DIRECTION ( 'NONE',  ( 0.0000000000000000000, 0.0000000000000000000, 1.000000000000000000 ) ) ;
#63 = AXIS2_PLACEMENT_3D ( 'NONE', #214, #76, #166 ) ;
#64 = DIRECTION ( 'NONE',  ( 1.000000000000000000, 0.0000000000000000000, 0.0000000000000000000 ) ) ;
#65 = CARTESIAN_POINT ( 'NONE',  ( 4.996003610813200500E-016, 2.442490654175340100E-015, -0.1553188175766349900 ) ) ;
#66 = PERSON_AND_ORGANIZATION ( #255, #257 ) ;
#67 = PRODUCT_DEFINITION ( 'UNKNOWN', '', #275, #189 ) ;
#68 = ORIENTED_EDGE ( 'NONE', *, *, #270, .F. ) ;
#69 = EDGE_CURVE ( 'NONE', #261, #204, #5, .T. ) ;
#70 = CALENDAR_DATE ( 2019, 21, 1 ) ;
#71 = VECTOR ( 'NONE', #62, 1000.000000000000000 ) ;
#72 = APPROVAL_PERSON_ORGANIZATION ( #135, #265, #45 ) ;
#73 = VERTEX_POINT ( 'NONE', #285 ) ;
#74 = DIRECTION ( 'NONE',  ( 0.0000000000000000000, 1.000000000000000000, -4.275844500770870700E-016 ) ) ;
#75 = CARTESIAN_POINT ( 'NONE',  ( -5.684341886080800200E-014, 4.284998055492962100, 0.05303371118060658900 ) ) ;
#76 = DIRECTION ( 'NONE',  ( 0.0000000000000000000, 0.0000000000000000000, 1.000000000000000000 ) ) ;
#77 = LOCAL_TIME ( 9, 40, 2.000000000000000000, #3 ) ;
#78 = ORIENTED_EDGE ( 'NONE', *, *, #91, .F. ) ;
#79 = DIRECTION ( 'NONE',  ( -0.0000000000000000000, -0.0000000000000000000, -1.000000000000000000 ) ) ;
#80 = CARTESIAN_POINT ( 'NONE',  ( 12.69999999999999900, 2.442490654175340100E-015, -0.1553188175766349900 ) ) ;
#81 = ADVANCED_FACE ( 'NONE', ( #174 ), #209, .F. ) ;
#82 = DIRECTION ( 'NONE',  ( -0.0000000000000000000, -0.0000000000000000000, -1.000000000000000000 ) ) ;
#83 = CARTESIAN_POINT ( 'NONE',  ( -1.838806884535415500E-013, -4.284998055493145900, 0.05303371118053969200 ) ) ;
#84 = APPLICATION_CONTEXT ( 'configuration controlled 3d designs of mechanical parts and assemblies' ) ;
#85 = CARTESIAN_POINT ( 'NONE',  ( -4.257960742068657800, -12.85236906026423900, -0.1590686436498517100 ) ) ;
#86 = DIRECTION ( 'NONE',  ( 1.000000000000000000, 0.0000000000000000000, 0.0000000000000000000 ) ) ;
#87 = APPROVAL_ROLE ( '' ) ;
#88 =( BOUNDED_SURFACE ( )  B_SPLINE_SURFACE ( 3, 3, ( 
 ( #269, #266, #244, #201 ),
 ( #176, #112, #133, #295 ),
 ( #159, #177, #196, #44 ),
 ( #157, #290, #197, #132 ) ),
 .UNSPECIFIED., .F., .F., .F. ) 
 B_SPLINE_SURFACE_WITH_KNOTS ( ( 4, 4 ),
 ( 4, 4 ),
 ( 0.0000000000000000000, 1.000000000000000000 ),
 ( 0.0000000000000000000, 1.000000000000000000 ),
 .UNSPECIFIED. ) 
 GEOMETRIC_REPRESENTATION_ITEM ( )  RATIONAL_B_SPLINE_SURFACE ( (
 ( 1.000000000000000000, 0.9999495493650248900, 0.9999495493650248900, 1.000000000000000000),
 ( 0.9997957909446695300, 0.9997453506121709600, 0.9997453506121709600, 0.9997957909446695300),
 ( 0.9997957909446695300, 0.9997453506121709600, 0.9997453506121709600, 0.9997957909446695300),
 ( 1.000000000000000000, 0.9999495493650248900, 0.9999495493650248900, 1.000000000000000000) ) ) 
 REPRESENTATION_ITEM ( '' )  SURFACE ( )  );
#89 = CARTESIAN_POINT ( 'NONE',  ( -5.684341886080800200E-014, -12.70000000000076700, -0.1553188175766616900 ) ) ;
#90 = CARTESIAN_POINT ( 'NONE',  ( 4.996003610813200500E-016, 2.442490654175340100E-015, -0.1553188175766349900 ) ) ;
#91 = EDGE_CURVE ( 'NONE', #24, #207, #264, .T. ) ;
#92 = CARTESIAN_POINT ( 'NONE',  ( 4.996003610813200500E-016, 2.442490654175340100E-015, -0.1553188175766349900 ) ) ;
#93 = COORDINATED_UNIVERSAL_TIME_OFFSET ( 2, 0, .AHEAD. ) ;
#94 = PRODUCT ( '114-0238E BK7 bi-cv 25.4 F-500', '114-0238E BK7 bi-cv 25.4 F-500', '', ( #231 ) ) ;
#95 = ORIENTED_EDGE ( 'NONE', *, *, #288, .F. ) ;
#96 = SECURITY_CLASSIFICATION ( '', '', #15 ) ;
#97 = PERSON_AND_ORGANIZATION_ROLE ( 'design_owner' ) ;
#98 = CARTESIAN_POINT ( 'NONE',  ( 8.519078427171509200, 4.284998055492963000, 0.0006296695472152477400 ) ) ;
#99 = AXIS2_PLACEMENT_3D ( 'NONE', #220, #188, #86 ) ;
#100 =( NAMED_UNIT ( * ) SI_UNIT ( $, .STERADIAN. ) SOLID_ANGLE_UNIT ( ) );
#101 = AXIS2_PLACEMENT_3D ( 'NONE', #30, #125, #74 ) ;
#102 = FACE_OUTER_BOUND ( 'NONE', #186, .T. ) ;
#103 = ORIENTED_EDGE ( 'NONE', *, *, #121, .T. ) ;
#104 = APPLICATION_PROTOCOL_DEFINITION ( 'international standard', 'config_control_design', 1994, #84 ) ;
#105 = CARTESIAN_POINT ( 'NONE',  ( -1.838806884535415500E-013, -12.85236906026423900, -0.1590686436498507100 ) ) ;
#106 = CARTESIAN_POINT ( 'NONE',  ( -12.77227114880148300, -12.85236906026423900, -0.3162086353368787100 ) ) ;
#107 = CARTESIAN_POINT ( 'NONE',  ( 5.684341886080800200E-014, 12.70000000000065500, 3.355318817576654800 ) ) ;
#108 = FACE_OUTER_BOUND ( 'NONE', #225, .T. ) ;
#109 = DIRECTION ( 'NONE',  ( 0.0000000000000000000, 0.0000000000000000000, 1.000000000000000000 ) ) ;
#110 = PERSON_AND_ORGANIZATION_ROLE ( 'creator' ) ;
#111 = DIRECTION ( 'NONE',  ( 1.000000000000000000, 0.0000000000000000000, 0.0000000000000000000 ) ) ;
#112 = CARTESIAN_POINT ( 'NONE',  ( -4.259700392027912000, 4.284998055492963000, 3.146966288819374100 ) ) ;
#113 = PERSON_AND_ORGANIZATION ( #255, #257 ) ;
#114 = DIRECTION ( 'NONE',  ( 1.000000000000000000, 0.0000000000000000000, 0.0000000000000000000 ) ) ;
#115 = APPROVAL_PERSON_ORGANIZATION ( #211, #283, #158 ) ;
#116 = CIRCLE ( 'NONE', #134, 12.69999999999999900 ) ;
#117 =( GEOMETRIC_REPRESENTATION_CONTEXT ( 3 ) GLOBAL_UNCERTAINTY_ASSIGNED_CONTEXT ( ( #59 ) ) GLOBAL_UNIT_ASSIGNED_CONTEXT ( ( #263, #190, #100 ) ) REPRESENTATION_CONTEXT ( 'NONE', 'WORKASPACE' ) );
#118 =( BOUNDED_SURFACE ( )  B_SPLINE_SURFACE ( 3, 3, ( 
 ( #137, #202, #136, #233 ),
 ( #75, #8, #98, #281 ),
 ( #161, #39, #127, #35 ),
 ( #167, #33, #219, #149 ) ),
 .UNSPECIFIED., .F., .F., .F. ) 
 B_SPLINE_SURFACE_WITH_KNOTS ( ( 4, 4 ),
 ( 4, 4 ),
 ( 0.0000000000000000000, 1.000000000000000000 ),
 ( 0.0000000000000000000, 1.000000000000000000 ),
 .UNSPECIFIED. ) 
 GEOMETRIC_REPRESENTATION_ITEM ( )  RATIONAL_B_SPLINE_SURFACE ( (
 ( 1.000000000000000000, 0.9999495493650248900, 0.9999495493650248900, 1.000000000000000000),
 ( 0.9997957909446695300, 0.9997453506121709600, 0.9997453506121709600, 0.9997957909446695300),
 ( 0.9997957909446695300, 0.9997453506121709600, 0.9997453506121709600, 0.9997957909446695300),
 ( 1.000000000000000000, 0.9999495493650248900, 0.9999495493650248900, 1.000000000000000000) ) ) 
 REPRESENTATION_ITEM ( '' )  SURFACE ( )  );
#119 = CC_DESIGN_APPROVAL ( #265, ( #67 ) ) ;
#120 = VERTEX_POINT ( 'NONE', #107 ) ;
#121 = EDGE_CURVE ( 'NONE', #261, #73, #4, .T. ) ;
#122 = APPLICATION_PROTOCOL_DEFINITION ( 'international standard', 'config_control_design', 1994, #259 ) ;
#123 = CARTESIAN_POINT ( 'NONE',  ( 4.996003610813200500E-016, 2.442490654175340100E-015, 3.355318817576640600 ) ) ;
#124 = DATE_AND_TIME ( #130, #249 ) ;
#125 = DIRECTION ( 'NONE',  ( 1.000000000000000000, 0.0000000000000000000, 0.0000000000000000000 ) ) ;
#126 = CARTESIAN_POINT ( 'NONE',  ( 0.0000000000000000000, 0.0000000000000000000, 0.0000000000000000000 ) ) ;
#127 = CARTESIAN_POINT ( 'NONE',  ( 8.519078427171509200, -4.284998055493145900, 0.0006296695472144889100 ) ) ;
#128 = DIRECTION ( 'NONE',  ( -0.0000000000000000000, -0.0000000000000000000, -1.000000000000000000 ) ) ;
#129 = PERSON_AND_ORGANIZATION_ROLE ( 'classification_officer' ) ;
#130 = CALENDAR_DATE ( 2019, 21, 1 ) ;
#131 = CARTESIAN_POINT ( 'NONE',  ( -4.259700392028079800, 4.284998055492963000, 0.05303371118053942800 ) ) ;
#132 = CARTESIAN_POINT ( 'NONE',  ( -12.77227114880146500, -12.85236906026423900, 3.516208635336842000 ) ) ;
#133 = CARTESIAN_POINT ( 'NONE',  ( -8.519078427171511000, 4.284998055492963000, 3.199370330452765200 ) ) ;
#134 = AXIS2_PLACEMENT_3D ( 'NONE', #123, #79, #52 ) ;
#135 = PERSON_AND_ORGANIZATION ( #255, #257 ) ;
#136 = CARTESIAN_POINT ( 'NONE',  ( 8.515599258902334200, 12.85236906026405600, -0.2114512836162718300 ) ) ;
#137 = CARTESIAN_POINT ( 'NONE',  ( -5.684341886080800200E-014, 12.85236906026405500, -0.1590686436497845700 ) ) ;
#138 = ORIENTED_EDGE ( 'NONE', *, *, #251, .T. ) ;
#139 = SHAPE_DEFINITION_REPRESENTATION ( #256, #12 ) ;
#140 = VERTEX_POINT ( 'NONE', #192 ) ;
#141 = AXIS2_PLACEMENT_3D ( 'NONE', #92, #250, #114 ) ;
#142 = CC_DESIGN_SECURITY_CLASSIFICATION ( #96, ( #275 ) ) ;
#143 = APPROVAL_STATUS ( 'not_yet_approved' ) ;
#144 = DATE_AND_TIME ( #272, #50 ) ;
#145 = ORIENTED_EDGE ( 'NONE', *, *, #251, .F. ) ;
#146 = CARTESIAN_POINT ( 'NONE',  ( 4.257960742068659600, -12.85236906026423900, 3.359068643649831400 ) ) ;
#147 = CARTESIAN_POINT ( 'NONE',  ( -1.838806884535415500E-013, 4.284998055492962100, 0.05303371118054048300 ) ) ;
#148 = CARTESIAN_POINT ( 'NONE',  ( 1.856154119295183800E-013, -4.284998055493145900, 3.146966288819441600 ) ) ;
#149 = CARTESIAN_POINT ( 'NONE',  ( 12.77227114880146400, -12.85236906026423900, -0.3162086353368614400 ) ) ;
#150 = CARTESIAN_POINT ( 'NONE',  ( -8.519078427171603400, 4.284998055492963000, 0.0006296695471954476100 ) ) ;
#151 = DIRECTION ( 'NONE',  ( 0.0000000000000000000, 0.0000000000000000000, 1.000000000000000000 ) ) ;
#152 = ORIENTED_EDGE ( 'NONE', *, *, #229, .F. ) ;
#153 = DATE_TIME_ROLE ( 'classification_date' ) ;
#154 = AXIS2_PLACEMENT_3D ( 'NONE', #65, #109, #111 ) ;
#155 = PERSON_AND_ORGANIZATION ( #255, #257 ) ;
#156 = ORIENTED_EDGE ( 'NONE', *, *, #91, .T. ) ;
#157 = CARTESIAN_POINT ( 'NONE',  ( 5.684341886080800200E-014, -12.85236906026423900, 3.359068643649765200 ) ) ;
#158 = APPROVAL_ROLE ( '' ) ;
#159 = CARTESIAN_POINT ( 'NONE',  ( 5.684341886080800200E-014, -4.284998055493145900, 3.146966288819375000 ) ) ;
#160 = EDGE_CURVE ( 'NONE', #24, #258, #170, .T. ) ;
#161 = CARTESIAN_POINT ( 'NONE',  ( -5.684341886080800200E-014, -4.284998055493145900, 0.05303371118060583300 ) ) ;
#162 = AXIS2_PLACEMENT_3D ( 'NONE', #126, #151, #210 ) ;
#163 = CIRCLE ( 'NONE', #46, 519.2999999999999500 ) ;
#164 = APPROVAL_DATE_TIME ( #248, #283 ) ;
#165 = CARTESIAN_POINT ( 'NONE',  ( 12.77748944045133500, -4.284998055493145900, 3.304170482267998000 ) ) ;
#166 = DIRECTION ( 'NONE',  ( 1.000000000000000000, 0.0000000000000000000, 0.0000000000000000000 ) ) ;
#167 = CARTESIAN_POINT ( 'NONE',  ( -5.684341886080800200E-014, -12.85236906026423900, -0.1590686436497845700 ) ) ;
#168 = CARTESIAN_POINT ( 'NONE',  ( 5.684341886080800200E-014, -1.136868377216160000E-013, 522.5000000000000000 ) ) ;
#169 = DATE_AND_TIME ( #41, #77 ) ;
#170 = LINE ( 'NONE', #224, #71 ) ;
#171 = CARTESIAN_POINT ( 'NONE',  ( -8.515599258902426500, -12.85236906026423900, -0.2114512836162916700 ) ) ;
#172 = ADVANCED_FACE ( 'NONE', ( #228 ), #1, .T. ) ;
#173 = CARTESIAN_POINT ( 'NONE',  ( 4.996003610813200500E-016, 2.442490654175340100E-015, -0.1553188175766349900 ) ) ;
#174 = FACE_OUTER_BOUND ( 'NONE', #218, .T. ) ;
#175 = CARTESIAN_POINT ( 'NONE',  ( -5.684341886080800200E-014, 12.70000000000065500, -0.1553188175766616900 ) ) ;
#176 = CARTESIAN_POINT ( 'NONE',  ( 5.684341886080800200E-014, 4.284998055492962100, 3.146966288819374100 ) ) ;
#177 = CARTESIAN_POINT ( 'NONE',  ( -4.259700392027912000, -4.284998055493145900, 3.146966288819375000 ) ) ;
#178 = CALENDAR_DATE ( 2019, 21, 1 ) ;
#179 = CIRCLE ( 'NONE', #101, 519.2999999999999500 ) ;
#180 = APPROVAL ( #61, 'UNSPECIFIED' ) ;
#181 = CARTESIAN_POINT ( 'NONE',  ( -12.77227114880148300, 12.85236906026405500, -0.3162086353368787100 ) ) ;
#182 = MANIFOLD_SOLID_BREP ( 'Imported1', #25 ) ;
#183 = CC_DESIGN_PERSON_AND_ORGANIZATION_ASSIGNMENT ( #66, #195, ( #67 ) ) ;
#184 = ORIENTED_EDGE ( 'NONE', *, *, #288, .T. ) ;
#185 = CARTESIAN_POINT ( 'NONE',  ( 8.519078427171603400, -4.284998055493145900, 3.199370330452786100 ) ) ;
#186 = EDGE_LOOP ( 'NONE', ( #241, #145, #19 ) ) ;
#187 = CARTESIAN_POINT ( 'NONE',  ( 4.259700392028081600, 4.284998055492963000, 3.146966288819441200 ) ) ;
#188 = DIRECTION ( 'NONE',  ( 0.0000000000000000000, 0.0000000000000000000, 1.000000000000000000 ) ) ;
#189 = DESIGN_CONTEXT ( 'detailed design', #259, 'design' ) ;
#190 =( NAMED_UNIT ( * ) PLANE_ANGLE_UNIT ( ) SI_UNIT ( $, .RADIAN. ) );
#191 = ADVANCED_FACE ( 'NONE', ( #18 ), #217, .T. ) ;
#192 = CARTESIAN_POINT ( 'NONE',  ( 5.684341886080800200E-014, -12.70000000000076700, 3.355318817576654800 ) ) ;
#193 = PERSON_AND_ORGANIZATION ( #255, #257 ) ;
#194 = ORIENTED_EDGE ( 'NONE', *, *, #54, .T. ) ;
#195 = PERSON_AND_ORGANIZATION_ROLE ( 'creator' ) ;
#196 = CARTESIAN_POINT ( 'NONE',  ( -8.519078427171511000, -4.284998055493145900, 3.199370330452766100 ) ) ;
#197 = CARTESIAN_POINT ( 'NONE',  ( -8.515599258902334200, -12.85236906026423900, 3.411451283616252300 ) ) ;
#198 = ADVANCED_FACE ( 'NONE', ( #102 ), #88, .F. ) ;
#199 = APPROVAL_DATE_TIME ( #124, #265 ) ;
#200 = ORIENTED_EDGE ( 'NONE', *, *, #160, .F. ) ;
#201 = CARTESIAN_POINT ( 'NONE',  ( -12.77227114880146500, 12.85236906026405500, 3.516208635336842000 ) ) ;
#202 = CARTESIAN_POINT ( 'NONE',  ( 4.257960742068491700, 12.85236906026405600, -0.1590686436497845400 ) ) ;
#203 = EDGE_LOOP ( 'NONE', ( #22, #230, #6, #138, #194, #274 ) ) ;
#204 = VERTEX_POINT ( 'NONE', #175 ) ;
#205 = COORDINATED_UNIVERSAL_TIME_OFFSET ( 2, 0, .AHEAD. ) ;
#206 = CC_DESIGN_APPROVAL ( #283, ( #96 ) ) ;
#207 = VERTEX_POINT ( 'NONE', #89 ) ;
#208 = CC_DESIGN_PERSON_AND_ORGANIZATION_ASSIGNMENT ( #113, #293, ( #275 ) ) ;
#209 =( BOUNDED_SURFACE ( )  B_SPLINE_SURFACE ( 3, 3, ( 
 ( #181, #239, #31, #235 ),
 ( #215, #150, #131, #147 ),
 ( #10, #242, #287, #83 ),
 ( #106, #171, #85, #105 ) ),
 .UNSPECIFIED., .F., .F., .T. ) 
 B_SPLINE_SURFACE_WITH_KNOTS ( ( 4, 4 ),
 ( 4, 4 ),
 ( 0.0000000000000000000, 1.000000000000000000 ),
 ( 0.0000000000000000000, 1.000000000000000000 ),
 .UNSPECIFIED. ) 
 GEOMETRIC_REPRESENTATION_ITEM ( )  RATIONAL_B_SPLINE_SURFACE ( (
 ( 1.000000000000000000, 0.9999495493650248900, 0.9999495493650248900, 1.000000000000000000),
 ( 0.9997957909446695300, 0.9997453506121709600, 0.9997453506121709600, 0.9997957909446695300),
 ( 0.9997957909446695300, 0.9997453506121709600, 0.9997453506121709600, 0.9997957909446695300),
 ( 1.000000000000000000, 0.9999495493650248900, 0.9999495493650248900, 1.000000000000000000) ) ) 
 REPRESENTATION_ITEM ( '' )  SURFACE ( )  );
#210 = DIRECTION ( 'NONE',  ( 1.000000000000000000, 0.0000000000000000000, 0.0000000000000000000 ) ) ;
#211 = PERSON_AND_ORGANIZATION ( #255, #257 ) ;
#212 = ORIENTED_EDGE ( 'NONE', *, *, #222, .T. ) ;
#213 = EDGE_CURVE ( 'NONE', #140, #258, #240, .T. ) ;
#214 = CARTESIAN_POINT ( 'NONE',  ( 4.996003610813200500E-016, 2.442490654175340100E-015, -0.1553188175766349900 ) ) ;
#215 = CARTESIAN_POINT ( 'NONE',  ( -12.77748944045133500, 4.284998055492962100, -0.1041704822680164900 ) ) ;
#216 = DIRECTION ( 'NONE',  ( 1.000000000000000000, 0.0000000000000000000, 0.0000000000000000000 ) ) ;
#217 = CYLINDRICAL_SURFACE ( 'NONE', #2, 12.69999999999999900 ) ;
#218 = EDGE_LOOP ( 'NONE', ( #152, #184, #78 ) ) ;
#219 = CARTESIAN_POINT ( 'NONE',  ( 8.515599258902334200, -12.85236906026423900, -0.2114512836162718300 ) ) ;
#220 = CARTESIAN_POINT ( 'NONE',  ( 4.996003610813200500E-016, 2.442490654175340100E-015, -0.1553188175766349900 ) ) ;
#221 = DIRECTION ( 'NONE',  ( -0.0000000000000000000, -0.0000000000000000000, -1.000000000000000000 ) ) ;
#222 = EDGE_CURVE ( 'NONE', #120, #140, #163, .T. ) ;
#223 = DATE_TIME_ROLE ( 'creation_date' ) ;
#224 = CARTESIAN_POINT ( 'NONE',  ( -12.69999999999999900, 3.997792089092478900E-015, -0.1553188175766349900 ) ) ;
#225 = EDGE_LOOP ( 'NONE', ( #95, #253, #42 ) ) ;
#226 =( BOUNDED_SURFACE ( )  B_SPLINE_SURFACE ( 3, 3, ( 
 ( #284, #280, #55, #286 ),
 ( #34, #282, #187, #279 ),
 ( #165, #185, #37, #148 ),
 ( #58, #53, #146, #29 ) ),
 .UNSPECIFIED., .F., .F., .F. ) 
 B_SPLINE_SURFACE_WITH_KNOTS ( ( 4, 4 ),
 ( 4, 4 ),
 ( 0.0000000000000000000, 1.000000000000000000 ),
 ( 0.0000000000000000000, 1.000000000000000000 ),
 .UNSPECIFIED. ) 
 GEOMETRIC_REPRESENTATION_ITEM ( )  RATIONAL_B_SPLINE_SURFACE ( (
 ( 1.000000000000000000, 0.9999495493650248900, 0.9999495493650248900, 1.000000000000000000),
 ( 0.9997957909446695300, 0.9997453506121709600, 0.9997453506121709600, 0.9997957909446695300),
 ( 0.9997957909446695300, 0.9997453506121709600, 0.9997453506121709600, 0.9997957909446695300),
 ( 1.000000000000000000, 0.9999495493650248900, 0.9999495493650248900, 1.000000000000000000) ) ) 
 REPRESENTATION_ITEM ( '' )  SURFACE ( )  );
#227 = CC_DESIGN_DATE_AND_TIME_ASSIGNMENT ( #169, #223, ( #67 ) ) ;
#228 = FACE_OUTER_BOUND ( 'NONE', #203, .T. ) ;
#229 = EDGE_CURVE ( 'NONE', #204, #24, #49, .T. ) ;
#230 = ORIENTED_EDGE ( 'NONE', *, *, #229, .T. ) ;
#231 = MECHANICAL_CONTEXT ( 'NONE', #84, 'mechanical' ) ;
#232 = PRODUCT_RELATED_PRODUCT_CATEGORY ( 'detail', '', ( #94 ) ) ;
#233 = CARTESIAN_POINT ( 'NONE',  ( 12.77227114880146400, 12.85236906026405500, -0.3162086353368614400 ) ) ;
#234 = PERSON_AND_ORGANIZATION ( #255, #257 ) ;
#235 = CARTESIAN_POINT ( 'NONE',  ( -1.838806884535415500E-013, 12.85236906026405500, -0.1590686436498507100 ) ) ;
#236 = DIRECTION ( 'NONE',  ( 1.000000000000000000, 0.0000000000000000000, 0.0000000000000000000 ) ) ;
#237 = CARTESIAN_POINT ( 'NONE',  ( 4.996003610813200500E-016, 2.442490654175340100E-015, 3.355318817576640600 ) ) ;
#238 = DIRECTION ( 'NONE',  ( 1.000000000000000000, 0.0000000000000000000, 0.0000000000000000000 ) ) ;
#239 = CARTESIAN_POINT ( 'NONE',  ( -8.515599258902426500, 12.85236906026405600, -0.2114512836162916700 ) ) ;
#240 = CIRCLE ( 'NONE', #294, 12.69999999999999900 ) ;
#241 = ORIENTED_EDGE ( 'NONE', *, *, #222, .F. ) ;
#242 = CARTESIAN_POINT ( 'NONE',  ( -8.519078427171603400, -4.284998055493145900, 0.0006296695471946615600 ) ) ;
#243 = APPROVAL_STATUS ( 'not_yet_approved' ) ;
#244 = CARTESIAN_POINT ( 'NONE',  ( -8.515599258902334200, 12.85236906026405600, 3.411451283616252300 ) ) ;
#245 = ADVANCED_FACE ( 'NONE', ( #277 ), #226, .F. ) ;
#246 = LOCAL_TIME ( 9, 40, 2.000000000000000000, #21 ) ;
#247 = ORIENTED_EDGE ( 'NONE', *, *, #54, .F. ) ;
#248 = DATE_AND_TIME ( #70, #260 ) ;
#249 = LOCAL_TIME ( 9, 40, 2.000000000000000000, #13 ) ;
#250 = DIRECTION ( 'NONE',  ( 0.0000000000000000000, 0.0000000000000000000, 1.000000000000000000 ) ) ;
#251 = EDGE_CURVE ( 'NONE', #258, #120, #116, .T. ) ;
#252 = APPROVAL_DATE_TIME ( #267, #180 ) ;
#253 = ORIENTED_EDGE ( 'NONE', *, *, #69, .F. ) ;
#254 = CC_DESIGN_DATE_AND_TIME_ASSIGNMENT ( #144, #153, ( #96 ) ) ;
#255 = PERSON ( 'UNSPECIFIED', 'UNSPECIFIED', 'UNSPECIFIED', ('UNSPECIFIED'), ('UNSPECIFIED'), ('UNSPECIFIED') ) ;
#256 = PRODUCT_DEFINITION_SHAPE ( 'NONE', 'NONE',  #67 ) ;
#257 = ORGANIZATION ( 'UNSPECIFIED', 'UNSPECIFIED', '' ) ;
#258 = VERTEX_POINT ( 'NONE', #268 ) ;
#259 = APPLICATION_CONTEXT ( 'configuration controlled 3d designs of mechanical parts and assemblies' ) ;
#260 = LOCAL_TIME ( 9, 40, 2.000000000000000000, #93 ) ;
#261 = VERTEX_POINT ( 'NONE', #262 ) ;
#262 = CARTESIAN_POINT ( 'NONE',  ( 12.69999999999999900, 2.442490654175340100E-015, -0.1553188175766349900 ) ) ;
#263 =( LENGTH_UNIT ( ) NAMED_UNIT ( * ) SI_UNIT ( .MILLI., .METRE. ) );
#264 = CIRCLE ( 'NONE', #276, 12.69999999999999900 ) ;
#265 = APPROVAL ( #143, 'UNSPECIFIED' ) ;
#266 = CARTESIAN_POINT ( 'NONE',  ( -4.257960742068491700, 12.85236906026405600, 3.359068643649764800 ) ) ;
#267 = DATE_AND_TIME ( #178, #246 ) ;
#268 = CARTESIAN_POINT ( 'NONE',  ( -12.69999999999999900, 3.997792089092478900E-015, 3.355318817576640600 ) ) ;
#269 = CARTESIAN_POINT ( 'NONE',  ( 5.684341886080800200E-014, 12.85236906026405500, 3.359068643649765200 ) ) ;
#270 = EDGE_CURVE ( 'NONE', #73, #140, #57, .T. ) ;
#271 = CC_DESIGN_APPROVAL ( #180, ( #275 ) ) ;
#272 = CALENDAR_DATE ( 2019, 21, 1 ) ;
#273 = ORIENTED_EDGE ( 'NONE', *, *, #270, .T. ) ;
#274 = ORIENTED_EDGE ( 'NONE', *, *, #121, .F. ) ;
#275 = PRODUCT_DEFINITION_FORMATION_WITH_SPECIFIED_SOURCE ( 'ANY', '', #94, .NOT_KNOWN. ) ;
#276 = AXIS2_PLACEMENT_3D ( 'NONE', #173, #38, #60 ) ;
#277 = FACE_OUTER_BOUND ( 'NONE', #28, .T. ) ;
#278 = ORIENTED_EDGE ( 'NONE', *, *, #23, .T. ) ;
#279 = CARTESIAN_POINT ( 'NONE',  ( 1.856154119295183800E-013, 4.284998055492962100, 3.146966288819440700 ) ) ;
#280 = CARTESIAN_POINT ( 'NONE',  ( 8.515599258902426500, 12.85236906026405600, 3.411451283616272300 ) ) ;
#281 = CARTESIAN_POINT ( 'NONE',  ( 12.77748944045131700, 4.284998055492962100, -0.1041704822679992800 ) ) ;
#282 = CARTESIAN_POINT ( 'NONE',  ( 8.519078427171603400, 4.284998055492963000, 3.199370330452785200 ) ) ;
#283 = APPROVAL ( #243, 'UNSPECIFIED' ) ;
#284 = CARTESIAN_POINT ( 'NONE',  ( 12.77227114880148300, 12.85236906026405500, 3.516208635336859300 ) ) ;
#285 = CARTESIAN_POINT ( 'NONE',  ( 12.69999999999999900, 2.442490654175340100E-015, 3.355318817576640600 ) ) ;
#286 = CARTESIAN_POINT ( 'NONE',  ( 1.856154119295183600E-013, 12.85236906026405500, 3.359068643649830900 ) ) ;
#287 = CARTESIAN_POINT ( 'NONE',  ( -4.259700392028079800, -4.284998055493145900, 0.05303371118053864400 ) ) ;
#288 = EDGE_CURVE ( 'NONE', #204, #207, #179, .T. ) ;
#289 = CARTESIAN_POINT ( 'NONE',  ( 4.996003610813200500E-016, 2.442490654175340100E-015, 3.355318817576640600 ) ) ;
#290 = CARTESIAN_POINT ( 'NONE',  ( -4.257960742068491700, -12.85236906026423900, 3.359068643649764800 ) ) ;
#291 = VECTOR ( 'NONE', #40, 1000.000000000000000 ) ;
#292 = CC_DESIGN_PERSON_AND_ORGANIZATION_ASSIGNMENT ( #155, #110, ( #275 ) ) ;
#293 = PERSON_AND_ORGANIZATION_ROLE ( 'design_supplier' ) ;
#294 = AXIS2_PLACEMENT_3D ( 'NONE', #7, #128, #216 ) ;
#295 = CARTESIAN_POINT ( 'NONE',  ( -12.77748944045131900, 4.284998055492962100, 3.304170482267979800 ) ) ;
ENDSEC;
END-ISO-10303-21;
