ISO-10303-21;
HEADER;
FILE_DESCRIPTION (( 'STEP AP203' ),
    '1' );
FILE_NAME ('114-0234E BK7 bi-cv 25.4 F-400.STEP',
    '2019-01-21T07:30:31',
    ( '' ),
    ( '' ),
    'SwSTEP 2.0',
    'SolidWorks 2017',
    '' );
FILE_SCHEMA (( 'CONFIG_CONTROL_DESIGN' ));
ENDSEC;

DATA;
#1 = CARTESIAN_POINT ( 'NONE',  ( 4.996003610813200500E-016, 2.442490654175340100E-015, 3.394136809989159800 ) ) ;
#2 = CIRCLE ( 'NONE', #23, 12.69999999999999900 ) ;
#3 = DATE_AND_TIME ( #63, #253 ) ;
#4 = EDGE_CURVE ( 'NONE', #280, #236, #259, .T. ) ;
#5 = ORIENTED_EDGE ( 'NONE', *, *, #185, .T. ) ;
#6 = CARTESIAN_POINT ( 'NONE',  ( -4.260244240351427800, 4.285484338502036500, 0.06629570749197810600 ) ) ;
#7 = DIRECTION ( 'NONE',  ( 0.0000000000000000000, 0.0000000000000000000, 1.000000000000000000 ) ) ;
#8 = CARTESIAN_POINT ( 'NONE',  ( 4.260244240351224400, 4.285484338502036500, 0.06629570749197766200 ) ) ;
#9 = DIRECTION ( 'NONE',  ( 1.000000000000000000, 0.0000000000000000000, 0.0000000000000000000 ) ) ;
#10 = CARTESIAN_POINT ( 'NONE',  ( 4.257526326663083600, -12.85235166413913700, -0.1988236752737959100 ) ) ;
#11 = CARTESIAN_POINT ( 'NONE',  ( -8.519984826346789200, -4.285484338502084400, 0.0007890095913336498200 ) ) ;
#12 = DIRECTION ( 'NONE',  ( 1.000000000000000000, 0.0000000000000000000, 0.0000000000000000000 ) ) ;
#13 =( BOUNDED_SURFACE ( )  B_SPLINE_SURFACE ( 3, 3, ( 
 ( #178, #225, #38, #201 ),
 ( #64, #8, #172, #30 ),
 ( #196, #81, #242, #284 ),
 ( #149, #10, #173, #32 ) ),
 .UNSPECIFIED., .F., .F., .T. ) 
 B_SPLINE_SURFACE_WITH_KNOTS ( ( 4, 4 ),
 ( 4, 4 ),
 ( 0.0000000000000000000, 1.000000000000000000 ),
 ( 0.0000000000000000000, 1.000000000000000000 ),
 .UNSPECIFIED. ) 
 GEOMETRIC_REPRESENTATION_ITEM ( )  RATIONAL_B_SPLINE_SURFACE ( (
 ( 1.000000000000000000, 0.9999211853706864200, 0.9999211853706864200, 1.000000000000000000),
 ( 0.9996809888884495800, 0.9996021994018785600, 0.9996021994018785600, 0.9996809888884495800),
 ( 0.9996809888884495800, 0.9996021994018785600, 0.9996021994018785600, 0.9996809888884495800),
 ( 1.000000000000000000, 0.9999211853706864200, 0.9999211853706864200, 1.000000000000000000) ) ) 
 REPRESENTATION_ITEM ( '' )  SURFACE ( )  );
#14 = CARTESIAN_POINT ( 'NONE',  ( -4.257526326663287000, -12.85235166413913700, -0.1988236752737955500 ) ) ;
#15 = VERTEX_POINT ( 'NONE', #140 ) ;
#16 = DATE_TIME_ROLE ( 'creation_date' ) ;
#17 = PRODUCT_DEFINITION ( 'UNKNOWN', '', #139, #186 ) ;
#18 = SECURITY_CLASSIFICATION_LEVEL ( 'unclassified' ) ;
#19 = VECTOR ( 'NONE', #121, 1000.000000000000000 ) ;
#20 = PERSON_AND_ORGANIZATION ( #93, #266 ) ;
#21 = DIRECTION ( 'NONE',  ( 0.0000000000000000000, 1.000000000000000000, 0.0000000000000000000 ) ) ;
#22 =( BOUNDED_SURFACE ( )  B_SPLINE_SURFACE ( 3, 3, ( 
 ( #28, #143, #31, #195 ),
 ( #219, #59, #6, #165 ),
 ( #285, #11, #222, #151 ),
 ( #244, #199, #14, #99 ) ),
 .UNSPECIFIED., .F., .F., .F. ) 
 B_SPLINE_SURFACE_WITH_KNOTS ( ( 4, 4 ),
 ( 4, 4 ),
 ( 0.0000000000000000000, 1.000000000000000000 ),
 ( 0.0000000000000000000, 1.000000000000000000 ),
 .UNSPECIFIED. ) 
 GEOMETRIC_REPRESENTATION_ITEM ( )  RATIONAL_B_SPLINE_SURFACE ( (
 ( 1.000000000000000000, 0.9999211853706864200, 0.9999211853706864200, 1.000000000000000000),
 ( 0.9996809888884495800, 0.9996021994018785600, 0.9996021994018785600, 0.9996809888884495800),
 ( 0.9996809888884495800, 0.9996021994018785600, 0.9996021994018785600, 0.9996809888884495800),
 ( 1.000000000000000000, 0.9999211853706864200, 0.9999211853706864200, 1.000000000000000000) ) ) 
 REPRESENTATION_ITEM ( '' )  SURFACE ( )  );
#23 = AXIS2_PLACEMENT_3D ( 'NONE', #123, #262, #289 ) ;
#24 = CARTESIAN_POINT ( 'NONE',  ( 8.526512829121199700E-014, -1.136868377216160000E-013, 418.6999999999999900 ) ) ;
#25 = FACE_OUTER_BOUND ( 'NONE', #215, .T. ) ;
#26 = CARTESIAN_POINT ( 'NONE',  ( -4.257526326663084500, -12.85235166414035600, 3.398823675273832100 ) ) ;
#27 = ORIENTED_EDGE ( 'NONE', *, *, #189, .T. ) ;
#28 = CARTESIAN_POINT ( 'NONE',  ( -12.77006243380529700, 12.85235166413908900, -0.3952029160129710800 ) ) ;
#29 = CARTESIAN_POINT ( 'NONE',  ( 4.996003610813200500E-016, 2.442490654175340100E-015, 3.394136809989159800 ) ) ;
#30 = CARTESIAN_POINT ( 'NONE',  ( 12.77821456836042200, 4.285484338502036500, -0.1302088975516184900 ) ) ;
#31 = CARTESIAN_POINT ( 'NONE',  ( -4.257526326663287000, 12.85235166413908700, -0.1988236752737955500 ) ) ;
#32 = CARTESIAN_POINT ( 'NONE',  ( 12.77006243380522600, -12.85235166413913700, -0.3952029160129768600 ) ) ;
#33 = CARTESIAN_POINT ( 'NONE',  ( 8.526512829121199700E-014, -12.70000000000076700, 3.394136809989141600 ) ) ;
#34 = CARTESIAN_POINT ( 'NONE',  ( 12.77006243380529500, 12.85235166414027000, 3.595202916013007200 ) ) ;
#35 = CLOSED_SHELL ( 'NONE', ( #228, #291, #184, #294, #292, #176 ) ) ;
#36 = CARTESIAN_POINT ( 'NONE',  ( 1.856154119295183600E-013, -12.85235166414035600, 3.398823675273830300 ) ) ;
#37 = APPROVAL_PERSON_ORGANIZATION ( #86, #243, #132 ) ;
#38 = CARTESIAN_POINT ( 'NONE',  ( 8.514549320287411400, 12.85235166413908700, -0.2642885817791937900 ) ) ;
#39 = APPROVAL_STATUS ( 'not_yet_approved' ) ;
#40 = DATE_AND_TIME ( #160, #230 ) ;
#41 = DATE_TIME_ROLE ( 'classification_date' ) ;
#42 =( LENGTH_UNIT ( ) NAMED_UNIT ( * ) SI_UNIT ( .MILLI., .METRE. ) );
#43 = ORIENTED_EDGE ( 'NONE', *, *, #232, .F. ) ;
#44 = CIRCLE ( 'NONE', #79, 12.69999999999999900 ) ;
#45 = COORDINATED_UNIVERSAL_TIME_OFFSET ( 2, 0, .AHEAD. ) ;
#46 = ORIENTED_EDGE ( 'NONE', *, *, #239, .F. ) ;
#47 = EDGE_CURVE ( 'NONE', #236, #15, #67, .T. ) ;
#48 = COORDINATED_UNIVERSAL_TIME_OFFSET ( 2, 0, .AHEAD. ) ;
#49 = VERTEX_POINT ( 'NONE', #161 ) ;
#50 = APPROVAL_PERSON_ORGANIZATION ( #20, #190, #207 ) ;
#51 = DIRECTION ( 'NONE',  ( 1.000000000000000000, 0.0000000000000000000, 0.0000000000000000000 ) ) ;
#52 = DIRECTION ( 'NONE',  ( -0.0000000000000000000, -0.0000000000000000000, -1.000000000000000000 ) ) ;
#53 = EDGE_CURVE ( 'NONE', #15, #280, #136, .T. ) ;
#54 = CARTESIAN_POINT ( 'NONE',  ( -4.260244240351226200, 4.285484338502419300, 3.133704292508008700 ) ) ;
#55 =( BOUNDED_SURFACE ( )  B_SPLINE_SURFACE ( 3, 3, ( 
 ( #116, #193, #197, #119 ),
 ( #57, #54, #169, #78 ),
 ( #240, #122, #194, #255 ),
 ( #282, #26, #220, #95 ) ),
 .UNSPECIFIED., .F., .F., .F. ) 
 B_SPLINE_SURFACE_WITH_KNOTS ( ( 4, 4 ),
 ( 4, 4 ),
 ( 0.0000000000000000000, 1.000000000000000000 ),
 ( 0.0000000000000000000, 1.000000000000000000 ),
 .UNSPECIFIED. ) 
 GEOMETRIC_REPRESENTATION_ITEM ( )  RATIONAL_B_SPLINE_SURFACE ( (
 ( 1.000000000000000000, 0.9999211853706864200, 0.9999211853706864200, 1.000000000000000000),
 ( 0.9996809888884494700, 0.9996021994018784400, 0.9996021994018784400, 0.9996809888884494700),
 ( 0.9996809888884494700, 0.9996021994018784400, 0.9996021994018784400, 0.9996809888884494700),
 ( 1.000000000000000000, 0.9999211853706864200, 0.9999211853706864200, 1.000000000000000000) ) ) 
 REPRESENTATION_ITEM ( '' )  SURFACE ( )  );
#56 = SHAPE_DEFINITION_REPRESENTATION ( #295, #74 ) ;
#57 = CARTESIAN_POINT ( 'NONE',  ( 8.526512829121199700E-014, 4.285484338502419300, 3.133704292508009200 ) ) ;
#58 = CARTESIAN_POINT ( 'NONE',  ( 1.856154119295183600E-013, 12.85235166414027000, 3.398823675273830300 ) ) ;
#59 = CARTESIAN_POINT ( 'NONE',  ( -8.519984826346789200, 4.285484338502036500, 0.0007890095913373361100 ) ) ;
#60 = ORIENTED_EDGE ( 'NONE', *, *, #232, .T. ) ;
#61 = CARTESIAN_POINT ( 'NONE',  ( 4.260244240351427800, 4.285484338502419300, 3.133704292508007900 ) ) ;
#62 = CYLINDRICAL_SURFACE ( 'NONE', #109, 12.69999999999999900 ) ;
#63 = CALENDAR_DATE ( 2019, 21, 1 ) ;
#64 = CARTESIAN_POINT ( 'NONE',  ( -8.526512829121199700E-014, 4.285484338502036500, 0.06629570749197764800 ) ) ;
#65 = VERTEX_POINT ( 'NONE', #115 ) ;
#66 = APPLICATION_PROTOCOL_DEFINITION ( 'international standard', 'config_control_design', 1994, #70 ) ;
#67 = CIRCLE ( 'NONE', #111, 12.69999999999999900 ) ;
#68 = EDGE_CURVE ( 'NONE', #280, #218, #110, .T. ) ;
#69 = PERSON_AND_ORGANIZATION_ROLE ( 'creator' ) ;
#70 = APPLICATION_CONTEXT ( 'configuration controlled 3d designs of mechanical parts and assemblies' ) ;
#71 = PERSON_AND_ORGANIZATION ( #93, #266 ) ;
#72 = VERTEX_POINT ( 'NONE', #75 ) ;
#73 = FACE_OUTER_BOUND ( 'NONE', #276, .T. ) ;
#74 = ADVANCED_BREP_SHAPE_REPRESENTATION ( '114-0234E BK7 bi-cv 25.4 F-400', ( #180, #181 ), #76 ) ;
#75 = CARTESIAN_POINT ( 'NONE',  ( -8.526512829121199700E-014, 12.69999999999956200, -0.1941368099891503700 ) ) ;
#76 =( GEOMETRIC_REPRESENTATION_CONTEXT ( 3 ) GLOBAL_UNCERTAINTY_ASSIGNED_CONTEXT ( ( #270 ) ) GLOBAL_UNIT_ASSIGNED_CONTEXT ( ( #42, #108, #91 ) ) REPRESENTATION_CONTEXT ( 'NONE', 'WORKASPACE' ) );
#77 = CARTESIAN_POINT ( 'NONE',  ( 12.69999999999999900, 2.442490654175340100E-015, -0.1941368099891580000 ) ) ;
#78 = CARTESIAN_POINT ( 'NONE',  ( -12.77821456836043100, 4.285484338502419300, 3.330208897551605800 ) ) ;
#79 = AXIS2_PLACEMENT_3D ( 'NONE', #241, #146, #171 ) ;
#80 = DIRECTION ( 'NONE',  ( -0.0000000000000000000, -0.0000000000000000000, -1.000000000000000000 ) ) ;
#81 = CARTESIAN_POINT ( 'NONE',  ( 4.260244240351224400, -4.285484338502084400, 0.06629570749197392900 ) ) ;
#82 = DIRECTION ( 'NONE',  ( 1.000000000000000000, 1.776356839400250500E-015, 0.0000000000000000000 ) ) ;
#83 = DIRECTION ( 'NONE',  ( 0.0000000000000000000, 0.0000000000000000000, 1.000000000000000000 ) ) ;
#84 = CARTESIAN_POINT ( 'NONE',  ( 8.526512829121199700E-014, 12.70000000000065500, 3.394136809989141600 ) ) ;
#85 = EDGE_LOOP ( 'NONE', ( #43, #238, #246 ) ) ;
#86 = PERSON_AND_ORGANIZATION ( #93, #266 ) ;
#87 = CALENDAR_DATE ( 2019, 21, 1 ) ;
#88 = CARTESIAN_POINT ( 'NONE',  ( 1.873501354054951900E-013, -4.285484338502504500, 3.133704292508010500 ) ) ;
#89 = PERSON_AND_ORGANIZATION_ROLE ( 'design_owner' ) ;
#90 = PERSON_AND_ORGANIZATION_ROLE ( 'classification_officer' ) ;
#91 =( NAMED_UNIT ( * ) SI_UNIT ( $, .STERADIAN. ) SOLID_ANGLE_UNIT ( ) );
#92 = EDGE_CURVE ( 'NONE', #157, #218, #191, .T. ) ;
#93 = PERSON ( 'UNSPECIFIED', 'UNSPECIFIED', 'UNSPECIFIED', ('UNSPECIFIED'), ('UNSPECIFIED'), ('UNSPECIFIED') ) ;
#94 = DIRECTION ( 'NONE',  ( -1.000000000000000000, 0.0000000000000000000, 0.0000000000000000000 ) ) ;
#95 = CARTESIAN_POINT ( 'NONE',  ( -12.77006243380522800, -12.85235166414035600, 3.595202916013013000 ) ) ;
#96 = ORIENTED_EDGE ( 'NONE', *, *, #247, .T. ) ;
#97 = CARTESIAN_POINT ( 'NONE',  ( 4.996003610813200500E-016, 2.442490654175340100E-015, 3.394136809989159800 ) ) ;
#98 = DIRECTION ( 'NONE',  ( 1.000000000000000000, 0.0000000000000000000, 0.0000000000000000000 ) ) ;
#99 = CARTESIAN_POINT ( 'NONE',  ( -1.856154119295183600E-013, -12.85235166413913700, -0.1988236752737945500 ) ) ;
#100 = ORIENTED_EDGE ( 'NONE', *, *, #68, .F. ) ;
#101 = CARTESIAN_POINT ( 'NONE',  ( 12.77821456836049700, 4.285484338502419300, 3.330208897551600000 ) ) ;
#102 = CYLINDRICAL_SURFACE ( 'NONE', #258, 12.69999999999999900 ) ;
#103 = DIRECTION ( 'NONE',  ( 1.000000000000000000, 0.0000000000000000000, 0.0000000000000000000 ) ) ;
#104 = CARTESIAN_POINT ( 'NONE',  ( 12.77006243380529500, -12.85235166414035600, 3.595202916013007200 ) ) ;
#105 = EDGE_LOOP ( 'NONE', ( #263, #60, #46 ) ) ;
#106 = MECHANICAL_CONTEXT ( 'NONE', #70, 'mechanical' ) ;
#107 = COORDINATED_UNIVERSAL_TIME_OFFSET ( 2, 0, .AHEAD. ) ;
#108 =( NAMED_UNIT ( * ) PLANE_ANGLE_UNIT ( ) SI_UNIT ( $, .RADIAN. ) );
#109 = AXIS2_PLACEMENT_3D ( 'NONE', #283, #287, #126 ) ;
#110 = CIRCLE ( 'NONE', #144, 12.69999999999999900 ) ;
#111 = AXIS2_PLACEMENT_3D ( 'NONE', #1, #237, #51 ) ;
#112 = ORIENTED_EDGE ( 'NONE', *, *, #4, .F. ) ;
#113 = FACE_OUTER_BOUND ( 'NONE', #141, .T. ) ;
#114 = PERSON_AND_ORGANIZATION ( #93, #266 ) ;
#115 = CARTESIAN_POINT ( 'NONE',  ( -12.69999999999999900, 3.997792089092478900E-015, -0.1941368099891580000 ) ) ;
#116 = CARTESIAN_POINT ( 'NONE',  ( 8.526512829121199700E-014, 12.85235166414027000, 3.398823675273832100 ) ) ;
#117 = CC_DESIGN_APPROVAL ( #155, ( #17 ) ) ;
#118 = ORIENTED_EDGE ( 'NONE', *, *, #53, .T. ) ;
#119 = CARTESIAN_POINT ( 'NONE',  ( -12.77006243380522800, 12.85235166414027000, 3.595202916013013000 ) ) ;
#120 = CALENDAR_DATE ( 2019, 21, 1 ) ;
#121 = DIRECTION ( 'NONE',  ( 0.0000000000000000000, 0.0000000000000000000, 1.000000000000000000 ) ) ;
#122 = CARTESIAN_POINT ( 'NONE',  ( -4.260244240351226200, -4.285484338502504500, 3.133704292508011900 ) ) ;
#123 = CARTESIAN_POINT ( 'NONE',  ( 4.996003610813200500E-016, 2.442490654175340100E-015, -0.1941368099891580000 ) ) ;
#124 = DIRECTION ( 'NONE',  ( -0.0000000000000000000, -0.0000000000000000000, -1.000000000000000000 ) ) ;
#125 = CC_DESIGN_PERSON_AND_ORGANIZATION_ASSIGNMENT ( #114, #209, ( #17 ) ) ;
#126 = DIRECTION ( 'NONE',  ( 1.000000000000000000, 0.0000000000000000000, 0.0000000000000000000 ) ) ;
#127 = LINE ( 'NONE', #256, #19 ) ;
#128 = CARTESIAN_POINT ( 'NONE',  ( 8.519984826346791000, 4.285484338502419300, 3.199210990408649600 ) ) ;
#129 = CARTESIAN_POINT ( 'NONE',  ( 12.77821456836049700, -4.285484338502504500, 3.330208897551603100 ) ) ;
#130 = CARTESIAN_POINT ( 'NONE',  ( 4.257526326663286100, -12.85235166414035600, 3.398823675273831200 ) ) ;
#131 = APPROVAL_DATE_TIME ( #192, #243 ) ;
#132 = APPROVAL_ROLE ( '' ) ;
#133 = ORIENTED_EDGE ( 'NONE', *, *, #4, .T. ) ;
#134 = CIRCLE ( 'NONE', #170, 12.69999999999999900 ) ;
#135 = ORIENTED_EDGE ( 'NONE', *, *, #226, .F. ) ;
#136 = CIRCLE ( 'NONE', #213, 12.69999999999999900 ) ;
#137 = CC_DESIGN_PERSON_AND_ORGANIZATION_ASSIGNMENT ( #224, #69, ( #139 ) ) ;
#138 = COORDINATED_UNIVERSAL_TIME_OFFSET ( 2, 0, .AHEAD. ) ;
#139 = PRODUCT_DEFINITION_FORMATION_WITH_SPECIFIED_SOURCE ( 'ANY', '', #251, .NOT_KNOWN. ) ;
#140 = CARTESIAN_POINT ( 'NONE',  ( -12.69999999999999900, 3.997792089092478900E-015, 3.394136809989159800 ) ) ;
#141 = EDGE_LOOP ( 'NONE', ( #100, #133, #135 ) ) ;
#142 = CC_DESIGN_APPROVAL ( #243, ( #203 ) ) ;
#143 = CARTESIAN_POINT ( 'NONE',  ( -8.514549320287546400, 12.85235166413908700, -0.2642885817791912300 ) ) ;
#144 = AXIS2_PLACEMENT_3D ( 'NONE', #97, #80, #82 ) ;
#145 = ORIENTED_EDGE ( 'NONE', *, *, #92, .F. ) ;
#146 = DIRECTION ( 'NONE',  ( 0.0000000000000000000, 0.0000000000000000000, 1.000000000000000000 ) ) ;
#147 = CARTESIAN_POINT ( 'NONE',  ( 8.514549320287546400, 12.85235166414027000, 3.464288581779226800 ) ) ;
#148 = DIRECTION ( 'NONE',  ( 1.000000000000000000, 0.0000000000000000000, 0.0000000000000000000 ) ) ;
#149 = CARTESIAN_POINT ( 'NONE',  ( -8.526512829121199700E-014, -12.85235166413913700, -0.1988236752737959600 ) ) ;
#150 = CARTESIAN_POINT ( 'NONE',  ( 8.519984826346791000, -4.285484338502504500, 3.199210990408652800 ) ) ;
#151 = CARTESIAN_POINT ( 'NONE',  ( -1.856154119295183600E-013, -4.285484338502084400, 0.06629570749197542800 ) ) ;
#152 = CARTESIAN_POINT ( 'NONE',  ( 4.996003610813200500E-016, 2.442490654175340100E-015, -0.1941368099891580000 ) ) ;
#153 = CIRCLE ( 'NONE', #254, 415.5000000000000600 ) ;
#154 = LOCAL_TIME ( 9, 30, 31.00000000000000000, #107 ) ;
#155 = APPROVAL ( #269, 'UNSPECIFIED' ) ;
#156 = CC_DESIGN_PERSON_AND_ORGANIZATION_ASSIGNMENT ( #211, #90, ( #203 ) ) ;
#157 = VERTEX_POINT ( 'NONE', #168 ) ;
#158 = CC_DESIGN_APPROVAL ( #190, ( #139 ) ) ;
#159 = DATE_AND_TIME ( #202, #278 ) ;
#160 = CALENDAR_DATE ( 2019, 21, 1 ) ;
#161 = CARTESIAN_POINT ( 'NONE',  ( -8.526512829121199700E-014, -12.69999999999967400, -0.1941368099891503700 ) ) ;
#162 = ORIENTED_EDGE ( 'NONE', *, *, #53, .F. ) ;
#163 = DIRECTION ( 'NONE',  ( 1.000000000000000000, -8.881784197001252300E-016, 0.0000000000000000000 ) ) ;
#164 = VECTOR ( 'NONE', #281, 1000.000000000000000 ) ;
#165 = CARTESIAN_POINT ( 'NONE',  ( -1.856154119295183600E-013, 4.285484338502036500, 0.06629570749197911900 ) ) ;
#166 = CC_DESIGN_DATE_AND_TIME_ASSIGNMENT ( #177, #16, ( #17 ) ) ;
#167 = ORIENTED_EDGE ( 'NONE', *, *, #47, .T. ) ;
#168 = CARTESIAN_POINT ( 'NONE',  ( 12.69999999999999900, 2.442490654175340100E-015, -0.1941368099891580000 ) ) ;
#169 = CARTESIAN_POINT ( 'NONE',  ( -8.519984826346654200, 4.285484338502419300, 3.199210990408652300 ) ) ;
#170 = AXIS2_PLACEMENT_3D ( 'NONE', #264, #221, #98 ) ;
#171 = DIRECTION ( 'NONE',  ( 1.000000000000000000, 0.0000000000000000000, 0.0000000000000000000 ) ) ;
#172 = CARTESIAN_POINT ( 'NONE',  ( 8.519984826346650700, 4.285484338502036500, 0.0007890095913346529200 ) ) ;
#173 = CARTESIAN_POINT ( 'NONE',  ( 8.514549320287411400, -12.85235166413913700, -0.2642885817791937900 ) ) ;
#174 = ORIENTED_EDGE ( 'NONE', *, *, #226, .T. ) ;
#175 = DIRECTION ( 'NONE',  ( 0.0000000000000000000, 1.000000000000000000, -2.672016906438402900E-016 ) ) ;
#176 = ADVANCED_FACE ( 'NONE', ( #272 ), #55, .F. ) ;
#177 = DATE_AND_TIME ( #87, #154 ) ;
#178 = CARTESIAN_POINT ( 'NONE',  ( -8.526512829121199700E-014, 12.85235166413908900, -0.1988236752737959600 ) ) ;
#179 = PRODUCT_RELATED_PRODUCT_CATEGORY ( 'detail', '', ( #251 ) ) ;
#180 = MANIFOLD_SOLID_BREP ( 'Imported1', #35 ) ;
#181 = AXIS2_PLACEMENT_3D ( 'NONE', #183, #182, #290 ) ;
#182 = DIRECTION ( 'NONE',  ( 0.0000000000000000000, 0.0000000000000000000, 1.000000000000000000 ) ) ;
#183 = CARTESIAN_POINT ( 'NONE',  ( 0.0000000000000000000, 0.0000000000000000000, 0.0000000000000000000 ) ) ;
#184 = ADVANCED_FACE ( 'NONE', ( #73 ), #102, .T. ) ;
#185 = EDGE_CURVE ( 'NONE', #65, #15, #127, .T. ) ;
#186 = DESIGN_CONTEXT ( 'detailed design', #204, 'design' ) ;
#187 = CC_DESIGN_PERSON_AND_ORGANIZATION_ASSIGNMENT ( #265, #231, ( #139 ) ) ;
#188 = LOCAL_TIME ( 9, 30, 31.00000000000000000, #138 ) ;
#189 = EDGE_CURVE ( 'NONE', #72, #65, #44, .T. ) ;
#190 = APPROVAL ( #39, 'UNSPECIFIED' ) ;
#191 = LINE ( 'NONE', #77, #164 ) ;
#192 = DATE_AND_TIME ( #120, #188 ) ;
#193 = CARTESIAN_POINT ( 'NONE',  ( -4.257526326663084500, 12.85235166414027000, 3.398823675273832100 ) ) ;
#194 = CARTESIAN_POINT ( 'NONE',  ( -8.519984826346654200, -4.285484338502504500, 3.199210990408655400 ) ) ;
#195 = CARTESIAN_POINT ( 'NONE',  ( -1.856154119295183600E-013, 12.85235166413908900, -0.1988236752737945500 ) ) ;
#196 = CARTESIAN_POINT ( 'NONE',  ( -8.526512829121199700E-014, -4.285484338502084400, 0.06629570749197391500 ) ) ;
#197 = CARTESIAN_POINT ( 'NONE',  ( -8.514549320287411400, 12.85235166414027000, 3.464288581779229000 ) ) ;
#198 = CARTESIAN_POINT ( 'NONE',  ( 1.856154119295183600E-013, 4.285484338502419300, 3.133704292508007400 ) ) ;
#199 = CARTESIAN_POINT ( 'NONE',  ( -8.514549320287546400, -12.85235166413913700, -0.2642885817791912300 ) ) ;
#200 = CARTESIAN_POINT ( 'NONE',  ( 8.514549320287546400, -12.85235166414035600, 3.464288581779226800 ) ) ;
#201 = CARTESIAN_POINT ( 'NONE',  ( 12.77006243380522600, 12.85235166413908900, -0.3952029160129768600 ) ) ;
#202 = CALENDAR_DATE ( 2019, 21, 1 ) ;
#203 = SECURITY_CLASSIFICATION ( '', '', #18 ) ;
#204 = APPLICATION_CONTEXT ( 'configuration controlled 3d designs of mechanical parts and assemblies' ) ;
#205 = CC_DESIGN_DATE_AND_TIME_ASSIGNMENT ( #159, #41, ( #203 ) ) ;
#206 = AXIS2_PLACEMENT_3D ( 'NONE', #29, #124, #148 ) ;
#207 = APPROVAL_ROLE ( '' ) ;
#208 = CIRCLE ( 'NONE', #206, 12.69999999999999900 ) ;
#209 = PERSON_AND_ORGANIZATION_ROLE ( 'creator' ) ;
#210 = ORIENTED_EDGE ( 'NONE', *, *, #288, .T. ) ;
#211 = PERSON_AND_ORGANIZATION ( #93, #266 ) ;
#212 = APPROVAL_PERSON_ORGANIZATION ( #71, #155, #268 ) ;
#213 = AXIS2_PLACEMENT_3D ( 'NONE', #214, #52, #163 ) ;
#214 = CARTESIAN_POINT ( 'NONE',  ( 4.996003610813200500E-016, 2.442490654175340100E-015, 3.394136809989159800 ) ) ;
#215 = EDGE_LOOP ( 'NONE', ( #271, #233, #96, #227, #174, #167 ) ) ;
#216 = FACE_OUTER_BOUND ( 'NONE', #105, .T. ) ;
#217 = APPROVAL_DATE_TIME ( #3, #155 ) ;
#218 = VERTEX_POINT ( 'NONE', #260 ) ;
#219 = CARTESIAN_POINT ( 'NONE',  ( -12.77821456836049100, 4.285484338502036500, -0.1302088975516126900 ) ) ;
#220 = CARTESIAN_POINT ( 'NONE',  ( -8.514549320287411400, -12.85235166414035600, 3.464288581779229000 ) ) ;
#221 = DIRECTION ( 'NONE',  ( 0.0000000000000000000, 0.0000000000000000000, 1.000000000000000000 ) ) ;
#222 = CARTESIAN_POINT ( 'NONE',  ( -4.260244240351427800, -4.285484338502084400, 0.06629570749197441500 ) ) ;
#223 = FACE_OUTER_BOUND ( 'NONE', #85, .T. ) ;
#224 = PERSON_AND_ORGANIZATION ( #93, #266 ) ;
#225 = CARTESIAN_POINT ( 'NONE',  ( 4.257526326663083600, 12.85235166413908700, -0.1988236752737959100 ) ) ;
#226 = EDGE_CURVE ( 'NONE', #218, #236, #208, .T. ) ;
#227 = ORIENTED_EDGE ( 'NONE', *, *, #92, .T. ) ;
#228 = ADVANCED_FACE ( 'NONE', ( #216 ), #22, .F. ) ;
#229 = CC_DESIGN_PERSON_AND_ORGANIZATION_ASSIGNMENT ( #273, #89, ( #251 ) ) ;
#230 = LOCAL_TIME ( 9, 30, 31.00000000000000000, #48 ) ;
#231 = PERSON_AND_ORGANIZATION_ROLE ( 'design_supplier' ) ;
#232 = EDGE_CURVE ( 'NONE', #72, #49, #153, .T. ) ;
#233 = ORIENTED_EDGE ( 'NONE', *, *, #239, .T. ) ;
#234 = CC_DESIGN_SECURITY_CLASSIFICATION ( #203, ( #139 ) ) ;
#235 = COORDINATED_UNIVERSAL_TIME_OFFSET ( 2, 0, .AHEAD. ) ;
#236 = VERTEX_POINT ( 'NONE', #33 ) ;
#237 = DIRECTION ( 'NONE',  ( -0.0000000000000000000, -0.0000000000000000000, -1.000000000000000000 ) ) ;
#238 = ORIENTED_EDGE ( 'NONE', *, *, #288, .F. ) ;
#239 = EDGE_CURVE ( 'NONE', #65, #49, #134, .T. ) ;
#240 = CARTESIAN_POINT ( 'NONE',  ( 8.526512829121199700E-014, -4.285484338502504500, 3.133704292508012300 ) ) ;
#241 = CARTESIAN_POINT ( 'NONE',  ( 4.996003610813200500E-016, 2.442490654175340100E-015, -0.1941368099891580000 ) ) ;
#242 = CARTESIAN_POINT ( 'NONE',  ( 8.519984826346650700, -4.285484338502084400, 0.0007890095913309123200 ) ) ;
#243 = APPROVAL ( #248, 'UNSPECIFIED' ) ;
#244 = CARTESIAN_POINT ( 'NONE',  ( -12.77006243380529700, -12.85235166413913700, -0.3952029160129710800 ) ) ;
#245 = CARTESIAN_POINT ( 'NONE',  ( 4.257526326663286100, 12.85235166414027000, 3.398823675273831200 ) ) ;
#246 = ORIENTED_EDGE ( 'NONE', *, *, #247, .F. ) ;
#247 = EDGE_CURVE ( 'NONE', #49, #157, #2, .T. ) ;
#248 = APPROVAL_STATUS ( 'not_yet_approved' ) ;
#249 = CIRCLE ( 'NONE', #250, 12.69999999999999900 ) ;
#250 = AXIS2_PLACEMENT_3D ( 'NONE', #152, #83, #103 ) ;
#251 = PRODUCT ( '114-0234E BK7 bi-cv 25.4 F-400', '114-0234E BK7 bi-cv 25.4 F-400', '', ( #106 ) ) ;
#252 = ORIENTED_EDGE ( 'NONE', *, *, #68, .T. ) ;
#253 = LOCAL_TIME ( 9, 30, 31.00000000000000000, #235 ) ;
#254 = AXIS2_PLACEMENT_3D ( 'NONE', #261, #12, #175 ) ;
#255 = CARTESIAN_POINT ( 'NONE',  ( -12.77821456836043100, -4.285484338502504500, 3.330208897551608400 ) ) ;
#256 = CARTESIAN_POINT ( 'NONE',  ( -12.69999999999999900, 3.997792089092478900E-015, -0.1941368099891580000 ) ) ;
#257 = CARTESIAN_POINT ( 'NONE',  ( 4.996003610813200500E-016, 2.442490654175340100E-015, -0.1941368099891580000 ) ) ;
#258 = AXIS2_PLACEMENT_3D ( 'NONE', #257, #7, #9 ) ;
#259 = CIRCLE ( 'NONE', #293, 415.5000000000000600 ) ;
#260 = CARTESIAN_POINT ( 'NONE',  ( 12.69999999999999900, 2.442490654175340100E-015, 3.394136809989159800 ) ) ;
#261 = CARTESIAN_POINT ( 'NONE',  ( -8.526512829121199700E-014, -1.136868377216160000E-013, -415.5000000000000600 ) ) ;
#262 = DIRECTION ( 'NONE',  ( 0.0000000000000000000, 0.0000000000000000000, 1.000000000000000000 ) ) ;
#263 = ORIENTED_EDGE ( 'NONE', *, *, #189, .F. ) ;
#264 = CARTESIAN_POINT ( 'NONE',  ( 4.996003610813200500E-016, 2.442490654175340100E-015, -0.1941368099891580000 ) ) ;
#265 = PERSON_AND_ORGANIZATION ( #93, #266 ) ;
#266 = ORGANIZATION ( 'UNSPECIFIED', 'UNSPECIFIED', '' ) ;
#267 = APPLICATION_PROTOCOL_DEFINITION ( 'international standard', 'config_control_design', 1994, #204 ) ;
#268 = APPROVAL_ROLE ( '' ) ;
#269 = APPROVAL_STATUS ( 'not_yet_approved' ) ;
#270 = UNCERTAINTY_MEASURE_WITH_UNIT (LENGTH_MEASURE( 1.000000000000000100E-005 ), #42, 'distance_accuracy_value', 'NONE');
#271 = ORIENTED_EDGE ( 'NONE', *, *, #185, .F. ) ;
#272 = FACE_OUTER_BOUND ( 'NONE', #277, .T. ) ;
#273 = PERSON_AND_ORGANIZATION ( #93, #266 ) ;
#274 = ORIENTED_EDGE ( 'NONE', *, *, #47, .F. ) ;
#275 = APPROVAL_DATE_TIME ( #40, #190 ) ;
#276 = EDGE_LOOP ( 'NONE', ( #210, #27, #5, #118, #252, #145 ) ) ;
#277 = EDGE_LOOP ( 'NONE', ( #112, #162, #274 ) ) ;
#278 = LOCAL_TIME ( 9, 30, 31.00000000000000000, #45 ) ;
#279 =( BOUNDED_SURFACE ( )  B_SPLINE_SURFACE ( 3, 3, ( 
 ( #34, #147, #245, #58 ),
 ( #101, #128, #61, #198 ),
 ( #129, #150, #286, #88 ),
 ( #104, #200, #130, #36 ) ),
 .UNSPECIFIED., .F., .F., .F. ) 
 B_SPLINE_SURFACE_WITH_KNOTS ( ( 4, 4 ),
 ( 4, 4 ),
 ( 0.0000000000000000000, 1.000000000000000000 ),
 ( 0.0000000000000000000, 1.000000000000000000 ),
 .UNSPECIFIED. ) 
 GEOMETRIC_REPRESENTATION_ITEM ( )  RATIONAL_B_SPLINE_SURFACE ( (
 ( 1.000000000000000000, 0.9999211853706864200, 0.9999211853706864200, 1.000000000000000000),
 ( 0.9996809888884494700, 0.9996021994018784400, 0.9996021994018784400, 0.9996809888884494700),
 ( 0.9996809888884494700, 0.9996021994018784400, 0.9996021994018784400, 0.9996809888884494700),
 ( 1.000000000000000000, 0.9999211853706864200, 0.9999211853706864200, 1.000000000000000000) ) ) 
 REPRESENTATION_ITEM ( '' )  SURFACE ( )  );
#280 = VERTEX_POINT ( 'NONE', #84 ) ;
#281 = DIRECTION ( 'NONE',  ( 0.0000000000000000000, 0.0000000000000000000, 1.000000000000000000 ) ) ;
#282 = CARTESIAN_POINT ( 'NONE',  ( 8.526512829121199700E-014, -12.85235166414035600, 3.398823675273832100 ) ) ;
#283 = CARTESIAN_POINT ( 'NONE',  ( 4.996003610813200500E-016, 2.442490654175340100E-015, -0.1941368099891580000 ) ) ;
#284 = CARTESIAN_POINT ( 'NONE',  ( 12.77821456836042200, -4.285484338502084400, -0.1302088975516222400 ) ) ;
#285 = CARTESIAN_POINT ( 'NONE',  ( -12.77821456836049100, -4.285484338502084400, -0.1302088975516163800 ) ) ;
#286 = CARTESIAN_POINT ( 'NONE',  ( 4.260244240351429600, -4.285484338502504500, 3.133704292508011000 ) ) ;
#287 = DIRECTION ( 'NONE',  ( 0.0000000000000000000, 0.0000000000000000000, 1.000000000000000000 ) ) ;
#288 = EDGE_CURVE ( 'NONE', #157, #72, #249, .T. ) ;
#289 = DIRECTION ( 'NONE',  ( 1.000000000000000000, 0.0000000000000000000, 0.0000000000000000000 ) ) ;
#290 = DIRECTION ( 'NONE',  ( 1.000000000000000000, 0.0000000000000000000, 0.0000000000000000000 ) ) ;
#291 = ADVANCED_FACE ( 'NONE', ( #113 ), #279, .F. ) ;
#292 = ADVANCED_FACE ( 'NONE', ( #25 ), #62, .T. ) ;
#293 = AXIS2_PLACEMENT_3D ( 'NONE', #24, #94, #21 ) ;
#294 = ADVANCED_FACE ( 'NONE', ( #223 ), #13, .F. ) ;
#295 = PRODUCT_DEFINITION_SHAPE ( 'NONE', 'NONE',  #17 ) ;
ENDSEC;
END-ISO-10303-21;
