ISO-10303-21;
HEADER;
FILE_DESCRIPTION (( 'STEP AP203' ),
    '1' );
FILE_NAME ('114-0228E BK7 bi-cv 25.4 F-250.STEP',
    '2019-01-21T07:05:08',
    ( '' ),
    ( '' ),
    'SwSTEP 2.0',
    'SolidWorks 2017',
    '' );
FILE_SCHEMA (( 'CONFIG_CONTROL_DESIGN' ));
ENDSEC;

DATA;
#1 = PERSON_AND_ORGANIZATION ( #45, #291 ) ;
#2 = PERSON_AND_ORGANIZATION_ROLE ( 'creator' ) ;
#3 = UNCERTAINTY_MEASURE_WITH_UNIT (LENGTH_MEASURE( 1.000000000000000100E-005 ), #40, 'distance_accuracy_value', 'NONE');
#4 = PERSON_AND_ORGANIZATION ( #45, #291 ) ;
#5 = EDGE_CURVE ( 'NONE', #214, #294, #261, .T. ) ;
#6 = CARTESIAN_POINT ( 'NONE',  ( 4.262598409324277200, 4.287589207423122800, 0.1060773590395035100 ) ) ;
#7 = CARTESIAN_POINT ( 'NONE',  ( -12.69999999999999900, 3.997792089092478900E-015, 3.210477869387029900 ) ) ;
#8 = CARTESIAN_POINT ( 'NONE',  ( -4.262598409324386500, -4.287589207423137000, 0.1060773590395660100 ) ) ;
#9 = CARTESIAN_POINT ( 'NONE',  ( -1.136868377216160000E-013, -2.842170943040400100E-014, -259.8999999999999800 ) ) ;
#10 = CC_DESIGN_SECURITY_CLASSIFICATION ( #167, ( #213 ) ) ;
#11 = CARTESIAN_POINT ( 'NONE',  ( 6.068189800164789800E-014, 12.69999999999933100, 3.210477869387013100 ) ) ;
#12 = DIRECTION ( 'NONE',  ( 1.000000000000000000, 0.0000000000000000000, 0.0000000000000000000 ) ) ;
#13 = CARTESIAN_POINT ( 'NONE',  ( 8.510006436739377700, -12.85227639074054000, -0.4226034725894447000 ) ) ;
#14 = CARTESIAN_POINT ( 'NONE',  ( 12.78135328535382200, -4.287589207422958500, 3.108264914283759500 ) ) ;
#15 = ADVANCED_FACE ( 'NONE', ( #227 ), #86, .F. ) ;
#16 = CARTESIAN_POINT ( 'NONE',  ( 1.249000902703301100E-013, -12.85227639074001600, 3.217972518172898900 ) ) ;
#17 = CARTESIAN_POINT ( 'NONE',  ( 8.523908274318781500, 4.287589207422953100, 2.898724519164792100 ) ) ;
#18 = FACE_OUTER_BOUND ( 'NONE', #263, .T. ) ;
#19 = CARTESIAN_POINT ( 'NONE',  ( 4.262598409324382900, 4.287589207422952200, 2.793922640960536900 ) ) ;
#20 = DIRECTION ( 'NONE',  ( 1.000000000000000000, -8.881784197001252300E-016, 0.0000000000000000000 ) ) ;
#21 = EDGE_CURVE ( 'NONE', #46, #161, #226, .T. ) ;
#22 = LINE ( 'NONE', #140, #90 ) ;
#23 = ORIENTED_EDGE ( 'NONE', *, *, #256, .F. ) ;
#24 = APPROVAL ( #109, 'UNSPECIFIED' ) ;
#25 =( BOUNDED_SURFACE ( )  B_SPLINE_SURFACE ( 3, 3, ( 
 ( #123, #119, #74, #57 ),
 ( #193, #212, #239, #236 ),
 ( #262, #95, #76, #283 ),
 ( #170, #59, #264, #241 ) ),
 .UNSPECIFIED., .F., .F., .F. ) 
 B_SPLINE_SURFACE_WITH_KNOTS ( ( 4, 4 ),
 ( 4, 4 ),
 ( 0.0000000000000000000, 1.000000000000000000 ),
 ( 0.0000000000000000000, 1.000000000000000000 ),
 .UNSPECIFIED. ) 
 GEOMETRIC_REPRESENTATION_ITEM ( )  RATIONAL_B_SPLINE_SURFACE ( (
 ( 1.000000000000000000, 0.9997984727927072800, 0.9997984727927072800, 1.000000000000000000),
 ( 0.9991843721478185200, 0.9989830093117290100, 0.9989830093117290100, 0.9991843721478185200),
 ( 0.9991843721478185200, 0.9989830093117290100, 0.9989830093117290100, 0.9991843721478185200),
 ( 1.000000000000000000, 0.9997984727927072800, 0.9997984727927072800, 1.000000000000000000) ) ) 
 REPRESENTATION_ITEM ( '' )  SURFACE ( )  );
#26 = APPROVAL_STATUS ( 'not_yet_approved' ) ;
#27 = CIRCLE ( 'NONE', #133, 12.69999999999999900 ) ;
#28 = ORIENTED_EDGE ( 'NONE', *, *, #255, .F. ) ;
#29 = CARTESIAN_POINT ( 'NONE',  ( 8.510006436739384800, 12.85227639074051900, -0.4226034725894447000 ) ) ;
#30 = COORDINATED_UNIVERSAL_TIME_OFFSET ( 2, 0, .AHEAD. ) ;
#31 = PERSON_AND_ORGANIZATION ( #45, #291 ) ;
#32 = ORIENTED_EDGE ( 'NONE', *, *, #238, .T. ) ;
#33 = CC_DESIGN_PERSON_AND_ORGANIZATION_ASSIGNMENT ( #1, #182, ( #213 ) ) ;
#34 = CARTESIAN_POINT ( 'NONE',  ( -6.248252843836334200E-014, 4.287589207423123700, 0.1060773590395043400 ) ) ;
#35 = DIRECTION ( 'NONE',  ( 1.000000000000000000, -2.236135127959369900E-016, -1.932475844776940100E-016 ) ) ;
#36 = CARTESIAN_POINT ( 'NONE',  ( 8.523908274318754900, -4.287589207423140500, 0.001275480835241865700 ) ) ;
#37 = CARTESIAN_POINT ( 'NONE',  ( -8.523908274318786800, -4.287589207423136100, 0.001275480835310577300 ) ) ;
#38 = CARTESIAN_POINT ( 'NONE',  ( -6.068189800164777200E-014, 12.69999999999987800, -0.3104778693870067800 ) ) ;
#39 = VERTEX_POINT ( 'NONE', #7 ) ;
#40 =( LENGTH_UNIT ( ) NAMED_UNIT ( * ) SI_UNIT ( .MILLI., .METRE. ) );
#41 = DATE_AND_TIME ( #51, #186 ) ;
#42 = CIRCLE ( 'NONE', #245, 12.69999999999999900 ) ;
#43 = FACE_OUTER_BOUND ( 'NONE', #177, .T. ) ;
#44 = PERSON_AND_ORGANIZATION_ROLE ( 'classification_officer' ) ;
#45 = PERSON ( 'UNSPECIFIED', 'UNSPECIFIED', 'UNSPECIFIED', ('UNSPECIFIED'), ('UNSPECIFIED'), ('UNSPECIFIED') ) ;
#46 = VERTEX_POINT ( 'NONE', #11 ) ;
#47 = CARTESIAN_POINT ( 'NONE',  ( -8.510006436739409700, 12.85227639074052400, -0.4226034725893760300 ) ) ;
#48 = DIRECTION ( 'NONE',  ( 0.0000000000000000000, 0.0000000000000000000, 1.000000000000000000 ) ) ;
#49 = EDGE_CURVE ( 'NONE', #294, #273, #197, .T. ) ;
#50 = CARTESIAN_POINT ( 'NONE',  ( -6.440005420655901100E-014, -4.287589207423137000, 0.1060773590395029200 ) ) ;
#51 = CALENDAR_DATE ( 2019, 21, 1 ) ;
#52 = DIRECTION ( 'NONE',  ( 0.0000000000000000000, 0.0000000000000000000, 1.000000000000000000 ) ) ;
#53 =( BOUNDED_SURFACE ( )  B_SPLINE_SURFACE ( 3, 3, ( 
 ( #188, #116, #72, #139 ),
 ( #92, #17, #19, #244 ),
 ( #14, #250, #246, #174 ),
 ( #104, #157, #106, #16 ) ),
 .UNSPECIFIED., .F., .F., .F. ) 
 B_SPLINE_SURFACE_WITH_KNOTS ( ( 4, 4 ),
 ( 4, 4 ),
 ( 0.0000000000000000000, 1.000000000000000000 ),
 ( 0.0000000000000000000, 1.000000000000000000 ),
 .UNSPECIFIED. ) 
 GEOMETRIC_REPRESENTATION_ITEM ( )  RATIONAL_B_SPLINE_SURFACE ( (
 ( 1.000000000000000000, 0.9997984727927072800, 0.9997984727927072800, 1.000000000000000000),
 ( 0.9991843721478185200, 0.9989830093117290100, 0.9989830093117290100, 0.9991843721478185200),
 ( 0.9991843721478185200, 0.9989830093117290100, 0.9989830093117290100, 0.9991843721478185200),
 ( 1.000000000000000000, 0.9997984727927072800, 0.9997984727927072800, 1.000000000000000000) ) ) 
 REPRESENTATION_ITEM ( '' )  SURFACE ( )  );
#54 = CARTESIAN_POINT ( 'NONE',  ( 4.262598409324275500, -4.287589207423139600, 0.1060773590395021100 ) ) ;
#55 = CALENDAR_DATE ( 2019, 21, 1 ) ;
#56 = ORIENTED_EDGE ( 'NONE', *, *, #284, .T. ) ;
#57 = CARTESIAN_POINT ( 'NONE',  ( -12.76050788302206100, 12.85227639073999800, 3.531802123470395100 ) ) ;
#58 = DIRECTION ( 'NONE',  ( 0.0000000000000000000, 0.0000000000000000000, 1.000000000000000000 ) ) ;
#59 = CARTESIAN_POINT ( 'NONE',  ( -4.255646439776333200, -12.85227639074002000, 3.217972518172963700 ) ) ;
#60 = CARTESIAN_POINT ( 'NONE',  ( -12.78135328535382200, -4.287589207423134300, -0.2082649142837114700 ) ) ;
#61 = EDGE_LOOP ( 'NONE', ( #281, #221, #85 ) ) ;
#62 = APPLICATION_CONTEXT ( 'configuration controlled 3d designs of mechanical parts and assemblies' ) ;
#63 = DIRECTION ( 'NONE',  ( 1.000000000000000000, 0.0000000000000000000, 0.0000000000000000000 ) ) ;
#64 = APPROVAL_DATE_TIME ( #108, #24 ) ;
#65 = AXIS2_PLACEMENT_3D ( 'NONE', #155, #270, #268 ) ;
#66 = DIRECTION ( 'NONE',  ( 1.000000000000000000, 0.0000000000000000000, 0.0000000000000000000 ) ) ;
#67 = CARTESIAN_POINT ( 'NONE',  ( 6.636168122666440200E-014, -12.69999999999936000, 3.210477869387013100 ) ) ;
#68 = APPROVAL_ROLE ( '' ) ;
#69 = FACE_OUTER_BOUND ( 'NONE', #189, .T. ) ;
#70 = COORDINATED_UNIVERSAL_TIME_OFFSET ( 2, 0, .AHEAD. ) ;
#71 = CARTESIAN_POINT ( 'NONE',  ( -12.78135328535381800, 4.287589207423127200, -0.2082649142837101100 ) ) ;
#72 = CARTESIAN_POINT ( 'NONE',  ( 4.255646439776439700, 12.85227639074000500, 3.217972518172955300 ) ) ;
#73 = CIRCLE ( 'NONE', #120, 12.69999999999999900 ) ;
#74 = CARTESIAN_POINT ( 'NONE',  ( -8.510006436739381300, 12.85227639074000000, 3.322603472589514600 ) ) ;
#75 = AXIS2_PLACEMENT_3D ( 'NONE', #117, #58, #216 ) ;
#76 = CARTESIAN_POINT ( 'NONE',  ( -8.523908274318751300, -4.287589207422964700, 2.898724519164806800 ) ) ;
#77 = DIRECTION ( 'NONE',  ( 0.0000000000000000000, 0.0000000000000000000, 1.000000000000000000 ) ) ;
#78 =( BOUNDED_SURFACE ( )  B_SPLINE_SURFACE ( 3, 3, ( 
 ( #233, #47, #207, #97 ),
 ( #71, #287, #243, #149 ),
 ( #60, #37, #8, #99 ),
 ( #192, #285, #125, #215 ) ),
 .UNSPECIFIED., .F., .F., .F. ) 
 B_SPLINE_SURFACE_WITH_KNOTS ( ( 4, 4 ),
 ( 4, 4 ),
 ( 0.0000000000000000000, 1.000000000000000000 ),
 ( 0.0000000000000000000, 1.000000000000000000 ),
 .UNSPECIFIED. ) 
 GEOMETRIC_REPRESENTATION_ITEM ( )  RATIONAL_B_SPLINE_SURFACE ( (
 ( 1.000000000000000000, 0.9997984727927072800, 0.9997984727927072800, 1.000000000000000000),
 ( 0.9991843721478185200, 0.9989830093117290100, 0.9989830093117290100, 0.9991843721478185200),
 ( 0.9991843721478185200, 0.9989830093117290100, 0.9989830093117290100, 0.9991843721478185200),
 ( 1.000000000000000000, 0.9997984727927072800, 0.9997984727927072800, 1.000000000000000000) ) ) 
 REPRESENTATION_ITEM ( '' )  SURFACE ( )  );
#79 = CARTESIAN_POINT ( 'NONE',  ( 12.76050788302206000, -12.85227639074053800, -0.6318021234703256100 ) ) ;
#80 = MECHANICAL_CONTEXT ( 'NONE', #62, 'mechanical' ) ;
#81 = CIRCLE ( 'NONE', #65, 12.69999999999999900 ) ;
#82 = DIRECTION ( 'NONE',  ( 0.0000000000000000000, 0.0000000000000000000, 1.000000000000000000 ) ) ;
#83 = APPLICATION_PROTOCOL_DEFINITION ( 'international standard', 'config_control_design', 1994, #62 ) ;
#84 = CIRCLE ( 'NONE', #253, 12.69999999999999900 ) ;
#85 = ORIENTED_EDGE ( 'NONE', *, *, #271, .F. ) ;
#86 =( BOUNDED_SURFACE ( )  B_SPLINE_SURFACE ( 3, 3, ( 
 ( #143, #259, #29, #166 ),
 ( #34, #6, #190, #210 ),
 ( #50, #54, #36, #286 ),
 ( #150, #191, #13, #79 ) ),
 .UNSPECIFIED., .F., .F., .F. ) 
 B_SPLINE_SURFACE_WITH_KNOTS ( ( 4, 4 ),
 ( 4, 4 ),
 ( 0.0000000000000000000, 1.000000000000000000 ),
 ( 0.0000000000000000000, 1.000000000000000000 ),
 .UNSPECIFIED. ) 
 GEOMETRIC_REPRESENTATION_ITEM ( )  RATIONAL_B_SPLINE_SURFACE ( (
 ( 1.000000000000000000, 0.9997984727927072800, 0.9997984727927072800, 1.000000000000000000),
 ( 0.9991843721478185200, 0.9989830093117290100, 0.9989830093117290100, 0.9991843721478185200),
 ( 0.9991843721478185200, 0.9989830093117290100, 0.9989830093117290100, 0.9991843721478185200),
 ( 1.000000000000000000, 0.9997984727927072800, 0.9997984727927072800, 1.000000000000000000) ) ) 
 REPRESENTATION_ITEM ( '' )  SURFACE ( )  );
#87 = APPROVAL ( #26, 'UNSPECIFIED' ) ;
#88 = ADVANCED_FACE ( 'NONE', ( #18 ), #25, .F. ) ;
#89 = CALENDAR_DATE ( 2019, 21, 1 ) ;
#90 = VECTOR ( 'NONE', #52, 1000.000000000000000 ) ;
#91 = DESIGN_CONTEXT ( 'detailed design', #152, 'design' ) ;
#92 = CARTESIAN_POINT ( 'NONE',  ( 12.78135328535381600, 4.287589207422953100, 3.108264914283813700 ) ) ;
#93 = CC_DESIGN_APPROVAL ( #24, ( #205 ) ) ;
#94 = CLOSED_SHELL ( 'NONE', ( #202, #229, #158, #15, #217, #88 ) ) ;
#95 = CARTESIAN_POINT ( 'NONE',  ( -4.262598409324274600, -4.287589207422963800, 2.793922640960546200 ) ) ;
#96 = ORIENTED_EDGE ( 'NONE', *, *, #295, .F. ) ;
#97 = CARTESIAN_POINT ( 'NONE',  ( -1.179611963664228800E-013, 12.85227639074052100, -0.3179725181728856300 ) ) ;
#98 = CC_DESIGN_PERSON_AND_ORGANIZATION_ASSIGNMENT ( #196, #126, ( #220 ) ) ;
#99 = CARTESIAN_POINT ( 'NONE',  ( -1.231653667943533000E-013, -4.287589207423136100, 0.1060773590395661400 ) ) ;
#100 = AXIS2_PLACEMENT_3D ( 'NONE', #9, #35, #144 ) ;
#101 = DIRECTION ( 'NONE',  ( -0.0000000000000000000, -0.0000000000000000000, -1.000000000000000000 ) ) ;
#102 = CC_DESIGN_PERSON_AND_ORGANIZATION_ASSIGNMENT ( #288, #2, ( #205 ) ) ;
#103 = CARTESIAN_POINT ( 'NONE',  ( 4.996003610813200500E-016, 2.442490654175340100E-015, -0.3104778693870309800 ) ) ;
#104 = CARTESIAN_POINT ( 'NONE',  ( 12.76050788302202000, -12.85227639074001300, 3.531802123470262300 ) ) ;
#105 = ORIENTED_EDGE ( 'NONE', *, *, #256, .T. ) ;
#106 = CARTESIAN_POINT ( 'NONE',  ( 4.255646439776447700, -12.85227639074001600, 3.217972518172899800 ) ) ;
#107 = APPROVAL_DATE_TIME ( #41, #87 ) ;
#108 = DATE_AND_TIME ( #280, #118 ) ;
#109 = APPROVAL_STATUS ( 'not_yet_approved' ) ;
#110 = ORIENTED_EDGE ( 'NONE', *, *, #21, .F. ) ;
#111 = EDGE_CURVE ( 'NONE', #294, #209, #292, .T. ) ;
#112 = LOCAL_TIME ( 9, 5, 8.000000000000000000, #219 ) ;
#113 = ORIENTED_EDGE ( 'NONE', *, *, #255, .T. ) ;
#114 = LOCAL_TIME ( 9, 5, 8.000000000000000000, #30 ) ;
#115 = ORIENTED_EDGE ( 'NONE', *, *, #21, .T. ) ;
#116 = CARTESIAN_POINT ( 'NONE',  ( 8.510006436739409700, 12.85227639074000500, 3.322603472589445800 ) ) ;
#117 = CARTESIAN_POINT ( 'NONE',  ( 4.996003610813200500E-016, 2.442490654175340100E-015, -0.3104778693870309800 ) ) ;
#118 = LOCAL_TIME ( 9, 5, 8.000000000000000000, #172 ) ;
#119 = CARTESIAN_POINT ( 'NONE',  ( -4.255646439776338500, 12.85227639074000200, 3.217972518173019200 ) ) ;
#120 = AXIS2_PLACEMENT_3D ( 'NONE', #103, #127, #195 ) ;
#121 = CARTESIAN_POINT ( 'NONE',  ( 4.996003610813200500E-016, 2.442490654175340100E-015, -0.3104778693870309800 ) ) ;
#122 = DIRECTION ( 'NONE',  ( 0.0000000000000000000, 0.0000000000000000000, 1.000000000000000000 ) ) ;
#123 = CARTESIAN_POINT ( 'NONE',  ( 6.064929526577287400E-014, 12.85227639074000200, 3.217972518173017900 ) ) ;
#124 = EDGE_LOOP ( 'NONE', ( #138, #115, #187 ) ) ;
#125 = CARTESIAN_POINT ( 'NONE',  ( -4.255646439776446900, -12.85227639074053500, -0.3179725181728856900 ) ) ;
#126 = PERSON_AND_ORGANIZATION_ROLE ( 'design_owner' ) ;
#127 = DIRECTION ( 'NONE',  ( 0.0000000000000000000, 0.0000000000000000000, 1.000000000000000000 ) ) ;
#128 = COORDINATED_UNIVERSAL_TIME_OFFSET ( 2, 0, .AHEAD. ) ;
#129 = CARTESIAN_POINT ( 'NONE',  ( 4.996003610813200500E-016, 2.442490654175340100E-015, -0.3104778693870309800 ) ) ;
#130 = CARTESIAN_POINT ( 'NONE',  ( -12.69999999999999900, 3.997792089092478900E-015, -0.3104778693870309800 ) ) ;
#131 = ORIENTED_EDGE ( 'NONE', *, *, #223, .T. ) ;
#132 = SECURITY_CLASSIFICATION_LEVEL ( 'unclassified' ) ;
#133 = AXIS2_PLACEMENT_3D ( 'NONE', #272, #175, #293 ) ;
#134 = VECTOR ( 'NONE', #289, 1000.000000000000000 ) ;
#135 = ADVANCED_BREP_SHAPE_REPRESENTATION ( '114-0228E BK7 bi-cv 25.4 F-250', ( #137, #248 ), #159 ) ;
#136 = CC_DESIGN_DATE_AND_TIME_ASSIGNMENT ( #231, #179, ( #205 ) ) ;
#137 = MANIFOLD_SOLID_BREP ( 'Imported1', #94 ) ;
#138 = ORIENTED_EDGE ( 'NONE', *, *, #284, .F. ) ;
#139 = CARTESIAN_POINT ( 'NONE',  ( 1.179611963664228800E-013, 12.85227639074000200, 3.217972518172954800 ) ) ;
#140 = CARTESIAN_POINT ( 'NONE',  ( 12.69999999999999900, 2.442490654175340100E-015, -0.3104778693870309800 ) ) ;
#141 = APPROVAL ( #180, 'UNSPECIFIED' ) ;
#142 = PERSON_AND_ORGANIZATION ( #45, #291 ) ;
#143 = CARTESIAN_POINT ( 'NONE',  ( -6.064929526577277300E-014, 12.85227639074052100, -0.3179725181729486900 ) ) ;
#144 = DIRECTION ( 'NONE',  ( 2.236135127959370300E-016, 1.000000000000000000, 4.271731529915954600E-016 ) ) ;
#145 = DIRECTION ( 'NONE',  ( -1.000000000000000000, -2.236135127959369900E-016, 1.932475844776940100E-016 ) ) ;
#146 = PERSON_AND_ORGANIZATION ( #45, #291 ) ;
#147 = ORIENTED_EDGE ( 'NONE', *, *, #111, .T. ) ;
#148 = CARTESIAN_POINT ( 'NONE',  ( 1.136868377216160000E-013, -2.842170943040400100E-014, 262.8000000000000100 ) ) ;
#149 = CARTESIAN_POINT ( 'NONE',  ( -1.196959198423996900E-013, 4.287589207423124500, 0.1060773590395673300 ) ) ;
#150 = CARTESIAN_POINT ( 'NONE',  ( -6.639718060808832000E-014, -12.85227639074053500, -0.3179725181729486900 ) ) ;
#151 = AXIS2_PLACEMENT_3D ( 'NONE', #121, #122, #12 ) ;
#152 = APPLICATION_CONTEXT ( 'configuration controlled 3d designs of mechanical parts and assemblies' ) ;
#153 = DIRECTION ( 'NONE',  ( 1.000000000000000000, 0.0000000000000000000, 0.0000000000000000000 ) ) ;
#154 = ORIENTED_EDGE ( 'NONE', *, *, #232, .T. ) ;
#155 = CARTESIAN_POINT ( 'NONE',  ( 4.996003610813200500E-016, 2.442490654175340100E-015, 3.210477869387029900 ) ) ;
#156 = CARTESIAN_POINT ( 'NONE',  ( 4.996003610813200500E-016, 2.442490654175340100E-015, 3.210477869387029900 ) ) ;
#157 = CARTESIAN_POINT ( 'NONE',  ( 8.510006436739416800, -12.85227639074001600, 3.322603472589390300 ) ) ;
#158 = ADVANCED_FACE ( 'NONE', ( #69 ), #234, .T. ) ;
#159 =( GEOMETRIC_REPRESENTATION_CONTEXT ( 3 ) GLOBAL_UNCERTAINTY_ASSIGNED_CONTEXT ( ( #3 ) ) GLOBAL_UNIT_ASSIGNED_CONTEXT ( ( #40, #198, #224 ) ) REPRESENTATION_CONTEXT ( 'NONE', 'WORKASPACE' ) );
#160 = APPROVAL_DATE_TIME ( #162, #141 ) ;
#161 = VERTEX_POINT ( 'NONE', #67 ) ;
#162 = DATE_AND_TIME ( #55, #112 ) ;
#163 = DIRECTION ( 'NONE',  ( 1.000000000000000000, 0.0000000000000000000, 0.0000000000000000000 ) ) ;
#164 = APPROVAL_PERSON_ORGANIZATION ( #237, #141, #68 ) ;
#165 = AXIS2_PLACEMENT_3D ( 'NONE', #129, #82, #66 ) ;
#166 = CARTESIAN_POINT ( 'NONE',  ( 12.76050788302206500, 12.85227639074051700, -0.6318021234703256100 ) ) ;
#167 = SECURITY_CLASSIFICATION ( '', '', #132 ) ;
#168 = CARTESIAN_POINT ( 'NONE',  ( 4.996003610813200500E-016, 2.442490654175340100E-015, -0.3104778693870309800 ) ) ;
#169 = LINE ( 'NONE', #130, #134 ) ;
#170 = CARTESIAN_POINT ( 'NONE',  ( 6.639718060808819300E-014, -12.85227639074001600, 3.217972518172962400 ) ) ;
#171 = VERTEX_POINT ( 'NONE', #183 ) ;
#172 = COORDINATED_UNIVERSAL_TIME_OFFSET ( 2, 0, .AHEAD. ) ;
#173 = ORIENTED_EDGE ( 'NONE', *, *, #49, .F. ) ;
#174 = CARTESIAN_POINT ( 'NONE',  ( 1.214306433183764500E-013, -4.287589207422961100, 2.793922640960480900 ) ) ;
#175 = DIRECTION ( 'NONE',  ( -0.0000000000000000000, -0.0000000000000000000, -1.000000000000000000 ) ) ;
#176 = ORIENTED_EDGE ( 'NONE', *, *, #5, .F. ) ;
#177 = EDGE_LOOP ( 'NONE', ( #96, #235, #113, #131, #32, #154 ) ) ;
#178 = DIRECTION ( 'NONE',  ( 1.000000000000000000, 0.0000000000000000000, 0.0000000000000000000 ) ) ;
#179 = DATE_TIME_ROLE ( 'creation_date' ) ;
#180 = APPROVAL_STATUS ( 'not_yet_approved' ) ;
#181 = CC_DESIGN_APPROVAL ( #141, ( #213 ) ) ;
#182 = PERSON_AND_ORGANIZATION_ROLE ( 'design_supplier' ) ;
#183 = CARTESIAN_POINT ( 'NONE',  ( 12.69999999999999900, 2.442490654175340100E-015, 3.210477869387029900 ) ) ;
#184 = APPROVAL_ROLE ( '' ) ;
#185 = CARTESIAN_POINT ( 'NONE',  ( 4.996003610813200500E-016, 2.442490654175340100E-015, -0.3104778693870309800 ) ) ;
#186 = LOCAL_TIME ( 9, 5, 8.000000000000000000, #70 ) ;
#187 = ORIENTED_EDGE ( 'NONE', *, *, #238, .F. ) ;
#188 = CARTESIAN_POINT ( 'NONE',  ( 12.76050788302201200, 12.85227639074000500, 3.531802123470317900 ) ) ;
#189 = EDGE_LOOP ( 'NONE', ( #211, #147, #257, #105, #56, #274 ) ) ;
#190 = CARTESIAN_POINT ( 'NONE',  ( 8.523908274318754900, 4.287589207423121900, 0.001275480835243275400 ) ) ;
#191 = CARTESIAN_POINT ( 'NONE',  ( 4.255646439776333200, -12.85227639074053800, -0.3179725181729495800 ) ) ;
#192 = CARTESIAN_POINT ( 'NONE',  ( -12.76050788302201900, -12.85227639074053100, -0.6318021234702486700 ) ) ;
#193 = CARTESIAN_POINT ( 'NONE',  ( 6.248252843836338000E-014, 4.287589207422950500, 2.793922640960599500 ) ) ;
#194 = CC_DESIGN_APPROVAL ( #87, ( #167 ) ) ;
#195 = DIRECTION ( 'NONE',  ( 1.000000000000000000, 0.0000000000000000000, 0.0000000000000000000 ) ) ;
#196 = PERSON_AND_ORGANIZATION ( #45, #291 ) ;
#197 = CIRCLE ( 'NONE', #100, 259.8999999999999800 ) ;
#198 =( NAMED_UNIT ( * ) PLANE_ANGLE_UNIT ( ) SI_UNIT ( $, .RADIAN. ) );
#199 = CC_DESIGN_DATE_AND_TIME_ASSIGNMENT ( #230, #254, ( #167 ) ) ;
#200 = CARTESIAN_POINT ( 'NONE',  ( -6.636168122666452800E-014, -12.69999999999990500, -0.3104778693870067800 ) ) ;
#201 = APPROVAL_PERSON_ORGANIZATION ( #146, #24, #228 ) ;
#202 = ADVANCED_FACE ( 'NONE', ( #247 ), #78, .F. ) ;
#203 = APPLICATION_PROTOCOL_DEFINITION ( 'international standard', 'config_control_design', 1994, #152 ) ;
#204 = CALENDAR_DATE ( 2019, 21, 1 ) ;
#205 = PRODUCT_DEFINITION ( 'UNKNOWN', '', #213, #91 ) ;
#206 = PERSON_AND_ORGANIZATION_ROLE ( 'creator' ) ;
#207 = CARTESIAN_POINT ( 'NONE',  ( -4.255646439776439700, 12.85227639074052400, -0.3179725181728857400 ) ) ;
#208 = FACE_OUTER_BOUND ( 'NONE', #124, .T. ) ;
#209 = VERTEX_POINT ( 'NONE', #275 ) ;
#210 = CARTESIAN_POINT ( 'NONE',  ( 12.78135328535386800, 4.287589207423121000, -0.2082649142837871600 ) ) ;
#211 = ORIENTED_EDGE ( 'NONE', *, *, #5, .T. ) ;
#212 = CARTESIAN_POINT ( 'NONE',  ( -4.262598409324275500, 4.287589207422949600, 2.793922640960599500 ) ) ;
#213 = PRODUCT_DEFINITION_FORMATION_WITH_SPECIFIED_SOURCE ( 'ANY', '', #220, .NOT_KNOWN. ) ;
#214 = VERTEX_POINT ( 'NONE', #258 ) ;
#215 = CARTESIAN_POINT ( 'NONE',  ( -1.249000902703301100E-013, -12.85227639074053500, -0.3179725181728855200 ) ) ;
#216 = DIRECTION ( 'NONE',  ( 1.000000000000000000, 0.0000000000000000000, 0.0000000000000000000 ) ) ;
#217 = ADVANCED_FACE ( 'NONE', ( #43 ), #278, .T. ) ;
#218 = DIRECTION ( 'NONE',  ( 0.0000000000000000000, 0.0000000000000000000, 1.000000000000000000 ) ) ;
#219 = COORDINATED_UNIVERSAL_TIME_OFFSET ( 2, 0, .AHEAD. ) ;
#220 = PRODUCT ( '114-0228E BK7 bi-cv 25.4 F-250', '114-0228E BK7 bi-cv 25.4 F-250', '', ( #80 ) ) ;
#221 = ORIENTED_EDGE ( 'NONE', *, *, #49, .T. ) ;
#222 = CC_DESIGN_PERSON_AND_ORGANIZATION_ASSIGNMENT ( #31, #206, ( #213 ) ) ;
#223 = EDGE_CURVE ( 'NONE', #214, #171, #22, .T. ) ;
#224 =( NAMED_UNIT ( * ) SI_UNIT ( $, .STERADIAN. ) SOLID_ANGLE_UNIT ( ) );
#225 = CIRCLE ( 'NONE', #165, 12.69999999999999900 ) ;
#226 = CIRCLE ( 'NONE', #276, 259.8999999999999800 ) ;
#227 = FACE_OUTER_BOUND ( 'NONE', #279, .T. ) ;
#228 = APPROVAL_ROLE ( '' ) ;
#229 = ADVANCED_FACE ( 'NONE', ( #208 ), #53, .F. ) ;
#230 = DATE_AND_TIME ( #204, #114 ) ;
#231 = DATE_AND_TIME ( #89, #266 ) ;
#232 = EDGE_CURVE ( 'NONE', #161, #39, #81, .T. ) ;
#233 = CARTESIAN_POINT ( 'NONE',  ( -12.76050788302201200, 12.85227639074052400, -0.6318021234702486700 ) ) ;
#234 = CYLINDRICAL_SURFACE ( 'NONE', #75, 12.69999999999999900 ) ;
#235 = ORIENTED_EDGE ( 'NONE', *, *, #271, .T. ) ;
#236 = CARTESIAN_POINT ( 'NONE',  ( -12.78135328535386100, 4.287589207422947800, 3.108264914283890100 ) ) ;
#237 = PERSON_AND_ORGANIZATION ( #45, #291 ) ;
#238 = EDGE_CURVE ( 'NONE', #171, #161, #42, .T. ) ;
#239 = CARTESIAN_POINT ( 'NONE',  ( -8.523908274318751300, 4.287589207422948700, 2.898724519164861000 ) ) ;
#240 = ORIENTED_EDGE ( 'NONE', *, *, #232, .F. ) ;
#241 = CARTESIAN_POINT ( 'NONE',  ( -12.76050788302205800, -12.85227639074002000, 3.531802123470339600 ) ) ;
#242 = DIRECTION ( 'NONE',  ( -2.236135127959370300E-016, 1.000000000000000000, -4.271731529915954600E-016 ) ) ;
#243 = CARTESIAN_POINT ( 'NONE',  ( -4.262598409324382900, 4.287589207423125400, 0.1060773590395672500 ) ) ;
#244 = CARTESIAN_POINT ( 'NONE',  ( 1.196959198423996900E-013, 4.287589207422951400, 2.793922640960535600 ) ) ;
#245 = AXIS2_PLACEMENT_3D ( 'NONE', #156, #267, #63 ) ;
#246 = CARTESIAN_POINT ( 'NONE',  ( 4.262598409324385600, -4.287589207422961100, 2.793922640960482300 ) ) ;
#247 = FACE_OUTER_BOUND ( 'NONE', #61, .T. ) ;
#248 = AXIS2_PLACEMENT_3D ( 'NONE', #290, #218, #178 ) ;
#249 = CARTESIAN_POINT ( 'NONE',  ( 4.996003610813200500E-016, 2.442490654175340100E-015, 3.210477869387029900 ) ) ;
#250 = CARTESIAN_POINT ( 'NONE',  ( 8.523908274318786800, -4.287589207422960200, 2.898724519164737500 ) ) ;
#251 = PRODUCT_RELATED_PRODUCT_CATEGORY ( 'detail', '', ( #220 ) ) ;
#252 = APPROVAL_PERSON_ORGANIZATION ( #142, #87, #184 ) ;
#253 = AXIS2_PLACEMENT_3D ( 'NONE', #249, #101, #20 ) ;
#254 = DATE_TIME_ROLE ( 'classification_date' ) ;
#255 = EDGE_CURVE ( 'NONE', #273, #214, #73, .T. ) ;
#256 = EDGE_CURVE ( 'NONE', #39, #46, #27, .T. ) ;
#257 = ORIENTED_EDGE ( 'NONE', *, *, #295, .T. ) ;
#258 = CARTESIAN_POINT ( 'NONE',  ( 12.69999999999999900, 2.442490654175340100E-015, -0.3104778693870309800 ) ) ;
#259 = CARTESIAN_POINT ( 'NONE',  ( 4.255646439776339400, 12.85227639074052100, -0.3179725181729495800 ) ) ;
#260 = SHAPE_DEFINITION_REPRESENTATION ( #277, #135 ) ;
#261 = CIRCLE ( 'NONE', #269, 12.69999999999999900 ) ;
#262 = CARTESIAN_POINT ( 'NONE',  ( 6.440005420655897300E-014, -4.287589207422962000, 2.793922640960544400 ) ) ;
#263 = EDGE_LOOP ( 'NONE', ( #110, #23, #240 ) ) ;
#264 = CARTESIAN_POINT ( 'NONE',  ( -8.510006436739377700, -12.85227639074002100, 3.322603472589459100 ) ) ;
#265 = AXIS2_PLACEMENT_3D ( 'NONE', #168, #77, #153 ) ;
#266 = LOCAL_TIME ( 9, 5, 8.000000000000000000, #128 ) ;
#267 = DIRECTION ( 'NONE',  ( -0.0000000000000000000, -0.0000000000000000000, -1.000000000000000000 ) ) ;
#268 = DIRECTION ( 'NONE',  ( 1.000000000000000000, 0.0000000000000000000, 0.0000000000000000000 ) ) ;
#269 = AXIS2_PLACEMENT_3D ( 'NONE', #185, #48, #163 ) ;
#270 = DIRECTION ( 'NONE',  ( -0.0000000000000000000, -0.0000000000000000000, -1.000000000000000000 ) ) ;
#271 = EDGE_CURVE ( 'NONE', #209, #273, #225, .T. ) ;
#272 = CARTESIAN_POINT ( 'NONE',  ( 4.996003610813200500E-016, 2.442490654175340100E-015, 3.210477869387029900 ) ) ;
#273 = VERTEX_POINT ( 'NONE', #200 ) ;
#274 = ORIENTED_EDGE ( 'NONE', *, *, #223, .F. ) ;
#275 = CARTESIAN_POINT ( 'NONE',  ( -12.69999999999999900, 3.997792089092478900E-015, -0.3104778693870309800 ) ) ;
#276 = AXIS2_PLACEMENT_3D ( 'NONE', #148, #145, #242 ) ;
#277 = PRODUCT_DEFINITION_SHAPE ( 'NONE', 'NONE',  #205 ) ;
#278 = CYLINDRICAL_SURFACE ( 'NONE', #151, 12.69999999999999900 ) ;
#279 = EDGE_LOOP ( 'NONE', ( #173, #176, #28 ) ) ;
#280 = CALENDAR_DATE ( 2019, 21, 1 ) ;
#281 = ORIENTED_EDGE ( 'NONE', *, *, #111, .F. ) ;
#282 = CC_DESIGN_PERSON_AND_ORGANIZATION_ASSIGNMENT ( #4, #44, ( #167 ) ) ;
#283 = CARTESIAN_POINT ( 'NONE',  ( -12.78135328535386300, -4.287589207422964700, 3.108264914283835900 ) ) ;
#284 = EDGE_CURVE ( 'NONE', #46, #171, #84, .T. ) ;
#285 = CARTESIAN_POINT ( 'NONE',  ( -8.510006436739416800, -12.85227639074053500, -0.4226034725893759700 ) ) ;
#286 = CARTESIAN_POINT ( 'NONE',  ( 12.78135328535386600, -4.287589207423139600, -0.2082649142837885400 ) ) ;
#287 = CARTESIAN_POINT ( 'NONE',  ( -8.523908274318783300, 4.287589207423127200, 0.001275480835311905400 ) ) ;
#288 = PERSON_AND_ORGANIZATION ( #45, #291 ) ;
#289 = DIRECTION ( 'NONE',  ( 0.0000000000000000000, 0.0000000000000000000, 1.000000000000000000 ) ) ;
#290 = CARTESIAN_POINT ( 'NONE',  ( 0.0000000000000000000, 0.0000000000000000000, 0.0000000000000000000 ) ) ;
#291 = ORGANIZATION ( 'UNSPECIFIED', 'UNSPECIFIED', '' ) ;
#292 = CIRCLE ( 'NONE', #265, 12.69999999999999900 ) ;
#293 = DIRECTION ( 'NONE',  ( 1.000000000000000000, 0.0000000000000000000, 0.0000000000000000000 ) ) ;
#294 = VERTEX_POINT ( 'NONE', #38 ) ;
#295 = EDGE_CURVE ( 'NONE', #209, #39, #169, .T. ) ;
ENDSEC;
END-ISO-10303-21;
