ISO-10303-21;
HEADER;
FILE_DESCRIPTION (( 'STEP AP203' ),
    '1' );
FILE_NAME ('114-0224E BK7 bi-cv 25.4 F-200.STEP',
    '2019-01-21T06:58:05',
    ( '' ),
    ( '' ),
    'SwSTEP 2.0',
    'SolidWorks 2017',
    '' );
FILE_SCHEMA (( 'CONFIG_CONTROL_DESIGN' ));
ENDSEC;

DATA;
#1 = APPROVAL_PERSON_ORGANIZATION ( #221, #131, #134 ) ;
#2 = PERSON_AND_ORGANIZATION ( #121, #208 ) ;
#3 = VERTEX_POINT ( 'NONE', #278 ) ;
#4 = CARTESIAN_POINT ( 'NONE',  ( 8.527532096660259200, 4.289533244869476300, 0.001610018949824545100 ) ) ;
#5 = DIRECTION ( 'NONE',  ( -0.0000000000000000000, -0.0000000000000000000, -1.000000000000000000 ) ) ;
#6 = EDGE_LOOP ( 'NONE', ( #250, #36, #222, #76, #85, #86 ) ) ;
#7 = CARTESIAN_POINT ( 'NONE',  ( -4.264772884730564200, 4.289533244869476300, 0.1326506975215736300 ) ) ;
#8 = CARTESIAN_POINT ( 'NONE',  ( -8.527532096660319600, 4.289533244869476300, 0.001610018949835983500 ) ) ;
#9 = CARTESIAN_POINT ( 'NONE',  ( 4.253910877179719400, 12.85220690565916800, 3.197445156245431800 ) ) ;
#10 = VECTOR ( 'NONE', #189, 1000.000000000000000 ) ;
#11 = DIRECTION ( 'NONE',  ( 0.0000000000000000000, 0.0000000000000000000, 1.000000000000000000 ) ) ;
#12 = CARTESIAN_POINT ( 'NONE',  ( -8.527532096660257500, -4.289533244869481600, 2.798389981050199100 ) ) ;
#13 = CARTESIAN_POINT ( 'NONE',  ( 12.75169180751232600, 12.85220690565916600, 3.589442513900004400 ) ) ;
#14 = DATE_AND_TIME ( #240, #112 ) ;
#15 = LOCAL_TIME ( 8, 58, 4.000000000000000000, #171 ) ;
#16 = CARTESIAN_POINT ( 'NONE',  ( 4.264772884730562400, 4.289533244869488700, 2.667349302478449600 ) ) ;
#17 = VERTEX_POINT ( 'NONE', #89 ) ;
#18 = PRODUCT_DEFINITION ( 'UNKNOWN', '', #162, #148 ) ;
#19 = DATE_TIME_ROLE ( 'classification_date' ) ;
#20 = APPROVAL_ROLE ( '' ) ;
#21 = ORIENTED_EDGE ( 'NONE', *, *, #291, .F. ) ;
#22 = UNCERTAINTY_MEASURE_WITH_UNIT (LENGTH_MEASURE( 1.000000000000000100E-005 ), #219, 'distance_accuracy_value', 'NONE');
#23 = CARTESIAN_POINT ( 'NONE',  ( 1.421085471520200100E-014, 0.0000000000000000000, 210.8000000000000100 ) ) ;
#24 = ORIENTED_EDGE ( 'NONE', *, *, #56, .T. ) ;
#25 = DIRECTION ( 'NONE',  ( 1.000000000000000000, 0.0000000000000000000, 0.0000000000000000000 ) ) ;
#26 =( BOUNDED_SURFACE ( )  B_SPLINE_SURFACE ( 3, 3, ( 
 ( #145, #63, #74, #194 ),
 ( #30, #8, #7, #93 ),
 ( #149, #124, #263, #261 ),
 ( #126, #173, #192, #236 ) ),
 .UNSPECIFIED., .F., .F., .F. ) 
 B_SPLINE_SURFACE_WITH_KNOTS ( ( 4, 4 ),
 ( 4, 4 ),
 ( 0.0000000000000000000, 1.000000000000000000 ),
 ( 0.0000000000000000000, 1.000000000000000000 ),
 .UNSPECIFIED. ) 
 GEOMETRIC_REPRESENTATION_ITEM ( )  RATIONAL_B_SPLINE_SURFACE ( (
 ( 1.000000000000000000, 0.9996852239098972200, 0.9996852239098972200, 1.000000000000000000),
 ( 0.9987261373197260400, 0.9984117622111370300, 0.9984117622111370300, 0.9987261373197260400),
 ( 0.9987261373197260400, 0.9984117622111370300, 0.9984117622111370300, 0.9987261373197260400),
 ( 1.000000000000000000, 0.9996852239098972200, 0.9996852239098972200, 1.000000000000000000) ) ) 
 REPRESENTATION_ITEM ( '' )  SURFACE ( )  );
#27 = CARTESIAN_POINT ( 'NONE',  ( 12.69999999999999900, 2.442490654175340100E-015, -0.3880783769872209700 ) ) ;
#28 = EDGE_CURVE ( 'NONE', #113, #227, #137, .T. ) ;
#29 = APPROVAL ( #202, 'UNSPECIFIED' ) ;
#30 = CARTESIAN_POINT ( 'NONE',  ( -12.78425219175598400, 4.289533244869477200, -0.2603475927763214100 ) ) ;
#31 = CARTESIAN_POINT ( 'NONE',  ( 8.527532096660317900, 4.289533244869488700, 2.798389981050187100 ) ) ;
#32 = PRODUCT ( '114-0224E BK7 bi-cv 25.4 F-200', '114-0224E BK7 bi-cv 25.4 F-200', '', ( #78 ) ) ;
#33 = DIRECTION ( 'NONE',  ( 1.000000000000000000, 0.0000000000000000000, 0.0000000000000000000 ) ) ;
#34 = CARTESIAN_POINT ( 'NONE',  ( -12.78425219175592700, -4.289533244869482500, 3.060347592776355700 ) ) ;
#35 = CARTESIAN_POINT ( 'NONE',  ( 12.75169180751232600, -12.85220690565915900, 3.589442513900004400 ) ) ;
#36 = ORIENTED_EDGE ( 'NONE', *, *, #291, .T. ) ;
#37 = APPROVAL_STATUS ( 'not_yet_approved' ) ;
#38 = DATE_TIME_ROLE ( 'creation_date' ) ;
#39 = VECTOR ( 'NONE', #154, 1000.000000000000000 ) ;
#40 = EDGE_CURVE ( 'NONE', #114, #255, #284, .T. ) ;
#41 = ORIENTED_EDGE ( 'NONE', *, *, #88, .T. ) ;
#42 = DIRECTION ( 'NONE',  ( 0.0000000000000000000, 0.0000000000000000000, 1.000000000000000000 ) ) ;
#43 = CARTESIAN_POINT ( 'NONE',  ( 8.527532096660257500, -4.289533244869476300, 0.001610018949796898000 ) ) ;
#44 = CARTESIAN_POINT ( 'NONE',  ( 12.78425219175592700, -4.289533244869477200, -0.2603475927763605500 ) ) ;
#45 = CARTESIAN_POINT ( 'NONE',  ( 4.996003610813200500E-016, 2.442490654175340100E-015, 3.188078376987220100 ) ) ;
#46 = AXIS2_PLACEMENT_3D ( 'NONE', #53, #220, #82 ) ;
#47 = CARTESIAN_POINT ( 'NONE',  ( 1.421085471520200100E-014, 12.85220690565916600, 3.197445156245426500 ) ) ;
#48 = CARTESIAN_POINT ( 'NONE',  ( 12.69999999999999900, 2.442490654175340100E-015, 3.188078376987220100 ) ) ;
#49 = CARTESIAN_POINT ( 'NONE',  ( 0.0000000000000000000, 0.0000000000000000000, 0.0000000000000000000 ) ) ;
#50 = ADVANCED_FACE ( 'NONE', ( #242 ), #204, .F. ) ;
#51 = SHAPE_DEFINITION_REPRESENTATION ( #136, #244 ) ;
#52 = FACE_OUTER_BOUND ( 'NONE', #293, .T. ) ;
#53 = CARTESIAN_POINT ( 'NONE',  ( 4.996003610813200500E-016, 2.442490654175340100E-015, -0.3880783769872209700 ) ) ;
#54 = CARTESIAN_POINT ( 'NONE',  ( 6.245004513516505500E-014, 12.85220690565916600, 3.197445156245430900 ) ) ;
#55 = APPROVAL_DATE_TIME ( #14, #131 ) ;
#56 = EDGE_CURVE ( 'NONE', #158, #255, #104, .T. ) ;
#57 = PERSON_AND_ORGANIZATION_ROLE ( 'creator' ) ;
#58 = APPLICATION_PROTOCOL_DEFINITION ( 'international standard', 'config_control_design', 1994, #183 ) ;
#59 = CIRCLE ( 'NONE', #247, 12.69999999999999900 ) ;
#60 = EDGE_LOOP ( 'NONE', ( #110, #41, #155, #207, #163, #287 ) ) ;
#61 = CC_DESIGN_APPROVAL ( #125, ( #18 ) ) ;
#62 = CARTESIAN_POINT ( 'NONE',  ( -1.421085471520199700E-014, 12.85220690565913900, -0.3974451562454017800 ) ) ;
#63 = CARTESIAN_POINT ( 'NONE',  ( -8.505813210209030500, 12.85220690565914300, -0.5281520855464132400 ) ) ;
#64 = CARTESIAN_POINT ( 'NONE',  ( 4.264772884730494900, 4.289533244869476300, 0.1326506975215789600 ) ) ;
#65 = DIRECTION ( 'NONE',  ( 1.000000000000000000, 0.0000000000000000000, 0.0000000000000000000 ) ) ;
#66 = CARTESIAN_POINT ( 'NONE',  ( 12.75169180751227800, 12.85220690565913900, -0.7894425138999909800 ) ) ;
#67 = DATE_AND_TIME ( #282, #140 ) ;
#68 = DIRECTION ( 'NONE',  ( 1.000000000000000000, 0.0000000000000000000, 0.0000000000000000000 ) ) ;
#69 = COORDINATED_UNIVERSAL_TIME_OFFSET ( 2, 0, .AHEAD. ) ;
#70 = CARTESIAN_POINT ( 'NONE',  ( -4.253910877179651900, 12.85220690565916800, 3.197445156245426500 ) ) ;
#71 = EDGE_CURVE ( 'NONE', #172, #17, #275, .T. ) ;
#72 = DIRECTION ( 'NONE',  ( 1.000000000000000000, -8.881784197001252300E-016, 0.0000000000000000000 ) ) ;
#73 = CARTESIAN_POINT ( 'NONE',  ( -12.69999999999999900, 3.997792089092478900E-015, -0.3880783769872209700 ) ) ;
#74 = CARTESIAN_POINT ( 'NONE',  ( -4.253910877179719400, 12.85220690565914300, -0.3974451562454069900 ) ) ;
#75 = ORIENTED_EDGE ( 'NONE', *, *, #40, .F. ) ;
#76 = ORIENTED_EDGE ( 'NONE', *, *, #161, .T. ) ;
#77 =( NAMED_UNIT ( * ) PLANE_ANGLE_UNIT ( ) SI_UNIT ( $, .RADIAN. ) );
#78 = MECHANICAL_CONTEXT ( 'NONE', #177, 'mechanical' ) ;
#79 = MANIFOLD_SOLID_BREP ( 'Imported1', #188 ) ;
#80 = CARTESIAN_POINT ( 'NONE',  ( 6.245004513516505500E-014, 4.289533244869489600, 2.667349302478447800 ) ) ;
#81 = SECURITY_CLASSIFICATION ( '', '', #138 ) ;
#82 = DIRECTION ( 'NONE',  ( 1.000000000000000000, 0.0000000000000000000, 0.0000000000000000000 ) ) ;
#83 = CALENDAR_DATE ( 2019, 21, 1 ) ;
#84 = AXIS2_PLACEMENT_3D ( 'NONE', #283, #238, #193 ) ;
#85 = ORIENTED_EDGE ( 'NONE', *, *, #141, .T. ) ;
#86 = ORIENTED_EDGE ( 'NONE', *, *, #143, .F. ) ;
#87 = ORIENTED_EDGE ( 'NONE', *, *, #123, .T. ) ;
#88 = EDGE_CURVE ( 'NONE', #172, #113, #128, .T. ) ;
#89 = CARTESIAN_POINT ( 'NONE',  ( -12.69999999999999900, 3.997792089092478900E-015, 3.188078376987220100 ) ) ;
#90 = ORIENTED_EDGE ( 'NONE', *, *, #109, .F. ) ;
#91 = FACE_OUTER_BOUND ( 'NONE', #6, .T. ) ;
#92 = CARTESIAN_POINT ( 'NONE',  ( 8.505813210208973600, -12.85220690565914300, -0.5281520855464524300 ) ) ;
#93 = CARTESIAN_POINT ( 'NONE',  ( -6.418476861114185000E-014, 4.289533244869477200, 0.1326506975215747100 ) ) ;
#94 = CC_DESIGN_DATE_AND_TIME_ASSIGNMENT ( #67, #19, ( #81 ) ) ;
#95 = DIRECTION ( 'NONE',  ( 0.0000000000000000000, 1.000000000000000000, -2.668805347656625700E-016 ) ) ;
#96 = COORDINATED_UNIVERSAL_TIME_OFFSET ( 2, 0, .AHEAD. ) ;
#97 = LINE ( 'NONE', #170, #39 ) ;
#98 = ADVANCED_FACE ( 'NONE', ( #52 ), #26, .F. ) ;
#99 = AXIS2_PLACEMENT_3D ( 'NONE', #45, #214, #68 ) ;
#100 = CARTESIAN_POINT ( 'NONE',  ( 4.996003610813200500E-016, 2.442490654175340100E-015, -0.3880783769872209700 ) ) ;
#101 =( NAMED_UNIT ( * ) SI_UNIT ( $, .STERADIAN. ) SOLID_ANGLE_UNIT ( ) );
#102 = APPROVAL_PERSON_ORGANIZATION ( #226, #125, #20 ) ;
#103 = CARTESIAN_POINT ( 'NONE',  ( 1.421085471520200100E-014, -12.70000000000016300, 3.188078376987238700 ) ) ;
#104 = CIRCLE ( 'NONE', #206, 208.0000000000000300 ) ;
#105 = CARTESIAN_POINT ( 'NONE',  ( -8.527532096660257500, 4.289533244869488700, 2.798389981050198200 ) ) ;
#106 = AXIS2_PLACEMENT_3D ( 'NONE', #258, #42, #262 ) ;
#107 = CARTESIAN_POINT ( 'NONE',  ( -12.78425219175592700, 4.289533244869489600, 3.060347592776355300 ) ) ;
#108 = CARTESIAN_POINT ( 'NONE',  ( 4.253910877179719400, -12.85220690565916100, 3.197445156245431800 ) ) ;
#109 = EDGE_CURVE ( 'NONE', #227, #3, #118, .T. ) ;
#110 = ORIENTED_EDGE ( 'NONE', *, *, #71, .F. ) ;
#111 = EDGE_LOOP ( 'NONE', ( #272, #270, #178 ) ) ;
#112 = LOCAL_TIME ( 8, 58, 4.000000000000000000, #232 ) ;
#113 = VERTEX_POINT ( 'NONE', #152 ) ;
#114 = VERTEX_POINT ( 'NONE', #48 ) ;
#115 = CC_DESIGN_PERSON_AND_ORGANIZATION_ASSIGNMENT ( #153, #273, ( #32 ) ) ;
#116 = CARTESIAN_POINT ( 'NONE',  ( -1.421085471520199400E-014, -4.289533244869477200, 0.1326506975215511800 ) ) ;
#117 = CARTESIAN_POINT ( 'NONE',  ( 12.75169180751227700, -12.85220690565913900, -0.7894425139000187400 ) ) ;
#118 = CIRCLE ( 'NONE', #84, 12.69999999999999900 ) ;
#119 = CARTESIAN_POINT ( 'NONE',  ( 4.996003610813200500E-016, 2.442490654175340100E-015, 3.188078376987220100 ) ) ;
#120 = CARTESIAN_POINT ( 'NONE',  ( -1.421085471520199700E-014, -12.85220690565913900, -0.3974451562454295300 ) ) ;
#121 = PERSON ( 'UNSPECIFIED', 'UNSPECIFIED', 'UNSPECIFIED', ('UNSPECIFIED'), ('UNSPECIFIED'), ('UNSPECIFIED') ) ;
#122 = DIRECTION ( 'NONE',  ( 1.000000000000000000, 0.0000000000000000000, 0.0000000000000000000 ) ) ;
#123 = EDGE_CURVE ( 'NONE', #3, #113, #279, .T. ) ;
#124 = CARTESIAN_POINT ( 'NONE',  ( -8.527532096660317900, -4.289533244869476300, 0.001610018949808173900 ) ) ;
#125 = APPROVAL ( #37, 'UNSPECIFIED' ) ;
#126 = CARTESIAN_POINT ( 'NONE',  ( -12.75169180751232600, -12.85220690565913900, -0.7894425139000071900 ) ) ;
#127 = PERSON_AND_ORGANIZATION ( #121, #208 ) ;
#128 = CIRCLE ( 'NONE', #106, 12.69999999999999900 ) ;
#129 = CARTESIAN_POINT ( 'NONE',  ( 8.527532096660317900, -4.289533244869481600, 2.798389981050187100 ) ) ;
#130 = CARTESIAN_POINT ( 'NONE',  ( 6.245004513516505500E-014, -12.85220690565915900, 3.197445156245430900 ) ) ;
#131 = APPROVAL ( #182, 'UNSPECIFIED' ) ;
#132 = CARTESIAN_POINT ( 'NONE',  ( -4.264772884730494900, -4.289533244869481600, 2.667349302478444300 ) ) ;
#133 = CALENDAR_DATE ( 2019, 21, 1 ) ;
#134 = APPROVAL_ROLE ( '' ) ;
#135 = APPROVAL_DATE_TIME ( #181, #29 ) ;
#136 = PRODUCT_DEFINITION_SHAPE ( 'NONE', 'NONE',  #18 ) ;
#137 = CIRCLE ( 'NONE', #164, 12.69999999999999900 ) ;
#138 = SECURITY_CLASSIFICATION_LEVEL ( 'unclassified' ) ;
#139 =( BOUNDED_SURFACE ( )  B_SPLINE_SURFACE ( 3, 3, ( 
 ( #47, #70, #159, #156 ),
 ( #271, #285, #105, #107 ),
 ( #157, #132, #12, #34 ),
 ( #199, #243, #179, #289 ) ),
 .UNSPECIFIED., .F., .F., .T. ) 
 B_SPLINE_SURFACE_WITH_KNOTS ( ( 4, 4 ),
 ( 4, 4 ),
 ( 0.0000000000000000000, 1.000000000000000000 ),
 ( 0.0000000000000000000, 1.000000000000000000 ),
 .UNSPECIFIED. ) 
 GEOMETRIC_REPRESENTATION_ITEM ( )  RATIONAL_B_SPLINE_SURFACE ( (
 ( 1.000000000000000000, 0.9996852239098972200, 0.9996852239098972200, 1.000000000000000000),
 ( 0.9987261373197260400, 0.9984117622111370300, 0.9984117622111370300, 0.9987261373197260400),
 ( 0.9987261373197260400, 0.9984117622111370300, 0.9984117622111370300, 0.9987261373197260400),
 ( 1.000000000000000000, 0.9996852239098972200, 0.9996852239098972200, 1.000000000000000000) ) ) 
 REPRESENTATION_ITEM ( '' )  SURFACE ( )  );
#140 = LOCAL_TIME ( 8, 58, 4.000000000000000000, #96 ) ;
#141 = EDGE_CURVE ( 'NONE', #158, #114, #59, .T. ) ;
#142 = CC_DESIGN_PERSON_AND_ORGANIZATION_ASSIGNMENT ( #184, #57, ( #18 ) ) ;
#143 = EDGE_CURVE ( 'NONE', #227, #114, #97, .T. ) ;
#144 = CYLINDRICAL_SURFACE ( 'NONE', #168, 12.69999999999999900 ) ;
#145 = CARTESIAN_POINT ( 'NONE',  ( -12.75169180751232800, 12.85220690565913900, -0.7894425138999794400 ) ) ;
#146 = DIRECTION ( 'NONE',  ( 0.0000000000000000000, 0.0000000000000000000, 1.000000000000000000 ) ) ;
#147 = CARTESIAN_POINT ( 'NONE',  ( -1.421085471520199400E-014, 4.289533244869477200, 0.1326506975215788800 ) ) ;
#148 = DESIGN_CONTEXT ( 'detailed design', #183, 'design' ) ;
#149 = CARTESIAN_POINT ( 'NONE',  ( -12.78425219175598200, -4.289533244869477200, -0.2603475927763492800 ) ) ;
#150 = FACE_OUTER_BOUND ( 'NONE', #60, .T. ) ;
#151 = CARTESIAN_POINT ( 'NONE',  ( 4.996003610813200500E-016, 2.442490654175340100E-015, 3.188078376987220100 ) ) ;
#152 = CARTESIAN_POINT ( 'NONE',  ( -1.421085471520199700E-014, -12.70000000000016300, -0.3880783769872409600 ) ) ;
#153 = PERSON_AND_ORGANIZATION ( #121, #208 ) ;
#154 = DIRECTION ( 'NONE',  ( 0.0000000000000000000, 0.0000000000000000000, 1.000000000000000000 ) ) ;
#155 = ORIENTED_EDGE ( 'NONE', *, *, #28, .T. ) ;
#156 = CARTESIAN_POINT ( 'NONE',  ( -12.75169180751227500, 12.85220690565916600, 3.589442513900015900 ) ) ;
#157 = CARTESIAN_POINT ( 'NONE',  ( 1.421085471520199700E-014, -4.289533244869482500, 2.667349302478443800 ) ) ;
#158 = VERTEX_POINT ( 'NONE', #239 ) ;
#159 = CARTESIAN_POINT ( 'NONE',  ( -8.505813210208971900, 12.85220690565916800, 3.328152085546450100 ) ) ;
#160 = PERSON_AND_ORGANIZATION_ROLE ( 'classification_officer' ) ;
#161 = EDGE_CURVE ( 'NONE', #17, #158, #265, .T. ) ;
#162 = PRODUCT_DEFINITION_FORMATION_WITH_SPECIFIED_SOURCE ( 'ANY', '', #32, .NOT_KNOWN. ) ;
#163 = ORIENTED_EDGE ( 'NONE', *, *, #40, .T. ) ;
#164 = AXIS2_PLACEMENT_3D ( 'NONE', #211, #146, #25 ) ;
#165 = CYLINDRICAL_SURFACE ( 'NONE', #224, 12.69999999999999900 ) ;
#166 = PRODUCT_RELATED_PRODUCT_CATEGORY ( 'detail', '', ( #32 ) ) ;
#167 = DIRECTION ( 'NONE',  ( 0.0000000000000000000, 1.000000000000000000, -2.668805347656625700E-016 ) ) ;
#168 = AXIS2_PLACEMENT_3D ( 'NONE', #100, #11, #218 ) ;
#169 = PERSON_AND_ORGANIZATION ( #121, #208 ) ;
#170 = CARTESIAN_POINT ( 'NONE',  ( 12.69999999999999900, 2.442490654175340100E-015, -0.3880783769872209700 ) ) ;
#171 = COORDINATED_UNIVERSAL_TIME_OFFSET ( 2, 0, .AHEAD. ) ;
#172 = VERTEX_POINT ( 'NONE', #73 ) ;
#173 = CARTESIAN_POINT ( 'NONE',  ( -8.505813210209030500, -12.85220690565914300, -0.5281520855464410000 ) ) ;
#174 = COORDINATED_UNIVERSAL_TIME_OFFSET ( 2, 0, .AHEAD. ) ;
#175 = CARTESIAN_POINT ( 'NONE',  ( 4.996003610813200500E-016, 2.442490654175340100E-015, -0.3880783769872209700 ) ) ;
#176 = AXIS2_PLACEMENT_3D ( 'NONE', #119, #231, #65 ) ;
#177 = APPLICATION_CONTEXT ( 'configuration controlled 3d designs of mechanical parts and assemblies' ) ;
#178 = ORIENTED_EDGE ( 'NONE', *, *, #228, .F. ) ;
#179 = CARTESIAN_POINT ( 'NONE',  ( -8.505813210208973600, -12.85220690565916100, 3.328152085546450100 ) ) ;
#180 = CARTESIAN_POINT ( 'NONE',  ( 12.78425219175598200, -4.289533244869482500, 3.060347592776343700 ) ) ;
#181 = DATE_AND_TIME ( #133, #235 ) ;
#182 = APPROVAL_STATUS ( 'not_yet_approved' ) ;
#183 = APPLICATION_CONTEXT ( 'configuration controlled 3d designs of mechanical parts and assemblies' ) ;
#184 = PERSON_AND_ORGANIZATION ( #121, #208 ) ;
#185 =( GEOMETRIC_REPRESENTATION_CONTEXT ( 3 ) GLOBAL_UNCERTAINTY_ASSIGNED_CONTEXT ( ( #22 ) ) GLOBAL_UNIT_ASSIGNED_CONTEXT ( ( #219, #77, #101 ) ) REPRESENTATION_CONTEXT ( 'NONE', 'WORKASPACE' ) );
#186 = CARTESIAN_POINT ( 'NONE',  ( -12.69999999999999900, 3.997792089092478900E-015, -0.3880783769872209700 ) ) ;
#187 = CARTESIAN_POINT ( 'NONE',  ( 4.264772884730494900, -4.289533244869476300, 0.1326506975215511500 ) ) ;
#188 = CLOSED_SHELL ( 'NONE', ( #98, #280, #267, #50, #200, #233 ) ) ;
#189 = DIRECTION ( 'NONE',  ( 0.0000000000000000000, 0.0000000000000000000, 1.000000000000000000 ) ) ;
#190 = CARTESIAN_POINT ( 'NONE',  ( 12.78425219175592900, 4.289533244869477200, -0.2603475927763329600 ) ) ;
#191 = DATE_AND_TIME ( #251, #15 ) ;
#192 = CARTESIAN_POINT ( 'NONE',  ( -4.253910877179719400, -12.85220690565914300, -0.3974451562454349200 ) ) ;
#193 = DIRECTION ( 'NONE',  ( 1.000000000000000000, 0.0000000000000000000, 0.0000000000000000000 ) ) ;
#194 = CARTESIAN_POINT ( 'NONE',  ( -6.245004513516505500E-014, 12.85220690565913900, -0.3974451562454059900 ) ) ;
#195 = APPROVAL_DATE_TIME ( #292, #125 ) ;
#196 = CIRCLE ( 'NONE', #286, 12.69999999999999900 ) ;
#197 = ORIENTED_EDGE ( 'NONE', *, *, #88, .F. ) ;
#198 = CC_DESIGN_DATE_AND_TIME_ASSIGNMENT ( #191, #38, ( #18 ) ) ;
#199 = CARTESIAN_POINT ( 'NONE',  ( 1.421085471520200100E-014, -12.85220690565915900, 3.197445156245426500 ) ) ;
#200 = ADVANCED_FACE ( 'NONE', ( #150 ), #165, .T. ) ;
#201 = CARTESIAN_POINT ( 'NONE',  ( 12.78425219175598200, 4.289533244869489600, 3.060347592776343700 ) ) ;
#202 = APPROVAL_STATUS ( 'not_yet_approved' ) ;
#203 = APPROVAL_PERSON_ORGANIZATION ( #249, #29, #205 ) ;
#204 =( BOUNDED_SURFACE ( )  B_SPLINE_SURFACE ( 3, 3, ( 
 ( #62, #253, #276, #66 ),
 ( #147, #64, #4, #190 ),
 ( #116, #187, #43, #44 ),
 ( #120, #256, #92, #117 ) ),
 .UNSPECIFIED., .F., .F., .T. ) 
 B_SPLINE_SURFACE_WITH_KNOTS ( ( 4, 4 ),
 ( 4, 4 ),
 ( 0.0000000000000000000, 1.000000000000000000 ),
 ( 0.0000000000000000000, 1.000000000000000000 ),
 .UNSPECIFIED. ) 
 GEOMETRIC_REPRESENTATION_ITEM ( )  RATIONAL_B_SPLINE_SURFACE ( (
 ( 1.000000000000000000, 0.9996852239098972200, 0.9996852239098972200, 1.000000000000000000),
 ( 0.9987261373197260400, 0.9984117622111370300, 0.9984117622111370300, 0.9987261373197260400),
 ( 0.9987261373197260400, 0.9984117622111370300, 0.9984117622111370300, 0.9987261373197260400),
 ( 1.000000000000000000, 0.9996852239098972200, 0.9996852239098972200, 1.000000000000000000) ) ) 
 REPRESENTATION_ITEM ( '' )  SURFACE ( )  );
#205 = APPROVAL_ROLE ( '' ) ;
#206 = AXIS2_PLACEMENT_3D ( 'NONE', #23, #295, #167 ) ;
#207 = ORIENTED_EDGE ( 'NONE', *, *, #143, .T. ) ;
#208 = ORGANIZATION ( 'UNSPECIFIED', 'UNSPECIFIED', '' ) ;
#209 = EDGE_LOOP ( 'NONE', ( #210, #90, #294 ) ) ;
#210 = ORIENTED_EDGE ( 'NONE', *, *, #123, .F. ) ;
#211 = CARTESIAN_POINT ( 'NONE',  ( 4.996003610813200500E-016, 2.442490654175340100E-015, -0.3880783769872209700 ) ) ;
#212 = AXIS2_PLACEMENT_3D ( 'NONE', #49, #241, #33 ) ;
#213 = CIRCLE ( 'NONE', #46, 12.69999999999999900 ) ;
#214 = DIRECTION ( 'NONE',  ( -0.0000000000000000000, -0.0000000000000000000, -1.000000000000000000 ) ) ;
#215 = CARTESIAN_POINT ( 'NONE',  ( 4.996003610813200500E-016, 2.442490654175340100E-015, 3.188078376987220100 ) ) ;
#216 = APPLICATION_PROTOCOL_DEFINITION ( 'international standard', 'config_control_design', 1994, #177 ) ;
#217 = FACE_OUTER_BOUND ( 'NONE', #111, .T. ) ;
#218 = DIRECTION ( 'NONE',  ( 1.000000000000000000, 0.0000000000000000000, 0.0000000000000000000 ) ) ;
#219 =( LENGTH_UNIT ( ) NAMED_UNIT ( * ) SI_UNIT ( .MILLI., .METRE. ) );
#220 = DIRECTION ( 'NONE',  ( 0.0000000000000000000, 0.0000000000000000000, 1.000000000000000000 ) ) ;
#221 = PERSON_AND_ORGANIZATION ( #121, #208 ) ;
#222 = ORIENTED_EDGE ( 'NONE', *, *, #71, .T. ) ;
#223 = PERSON_AND_ORGANIZATION_ROLE ( 'creator' ) ;
#224 = AXIS2_PLACEMENT_3D ( 'NONE', #175, #260, #122 ) ;
#225 = CC_DESIGN_APPROVAL ( #29, ( #162 ) ) ;
#226 = PERSON_AND_ORGANIZATION ( #121, #208 ) ;
#227 = VERTEX_POINT ( 'NONE', #27 ) ;
#228 = EDGE_CURVE ( 'NONE', #255, #17, #196, .T. ) ;
#229 = AXIS2_PLACEMENT_3D ( 'NONE', #234, #266, #95 ) ;
#230 = CC_DESIGN_PERSON_AND_ORGANIZATION_ASSIGNMENT ( #127, #223, ( #162 ) ) ;
#231 = DIRECTION ( 'NONE',  ( -0.0000000000000000000, -0.0000000000000000000, -1.000000000000000000 ) ) ;
#232 = COORDINATED_UNIVERSAL_TIME_OFFSET ( 2, 0, .AHEAD. ) ;
#233 = ADVANCED_FACE ( 'NONE', ( #217 ), #139, .F. ) ;
#234 = CARTESIAN_POINT ( 'NONE',  ( -1.421085471520200100E-014, 0.0000000000000000000, -208.0000000000000300 ) ) ;
#235 = LOCAL_TIME ( 8, 58, 4.000000000000000000, #174 ) ;
#236 = CARTESIAN_POINT ( 'NONE',  ( -6.245004513516505500E-014, -12.85220690565913900, -0.3974451562454338600 ) ) ;
#237 =( BOUNDED_SURFACE ( )  B_SPLINE_SURFACE ( 3, 3, ( 
 ( #13, #246, #9, #54 ),
 ( #201, #31, #16, #80 ),
 ( #180, #129, #288, #245 ),
 ( #35, #269, #108, #130 ) ),
 .UNSPECIFIED., .F., .F., .T. ) 
 B_SPLINE_SURFACE_WITH_KNOTS ( ( 4, 4 ),
 ( 4, 4 ),
 ( 0.0000000000000000000, 1.000000000000000000 ),
 ( 0.0000000000000000000, 1.000000000000000000 ),
 .UNSPECIFIED. ) 
 GEOMETRIC_REPRESENTATION_ITEM ( )  RATIONAL_B_SPLINE_SURFACE ( (
 ( 1.000000000000000000, 0.9996852239098972200, 0.9996852239098972200, 1.000000000000000000),
 ( 0.9987261373197260400, 0.9984117622111370300, 0.9984117622111370300, 0.9987261373197260400),
 ( 0.9987261373197260400, 0.9984117622111370300, 0.9984117622111370300, 0.9987261373197260400),
 ( 1.000000000000000000, 0.9996852239098972200, 0.9996852239098972200, 1.000000000000000000) ) ) 
 REPRESENTATION_ITEM ( '' )  SURFACE ( )  );
#238 = DIRECTION ( 'NONE',  ( 0.0000000000000000000, 0.0000000000000000000, 1.000000000000000000 ) ) ;
#239 = CARTESIAN_POINT ( 'NONE',  ( 1.421085471520200100E-014, 12.70000000000016400, 3.188078376987238700 ) ) ;
#240 = CALENDAR_DATE ( 2019, 21, 1 ) ;
#241 = DIRECTION ( 'NONE',  ( 0.0000000000000000000, 0.0000000000000000000, 1.000000000000000000 ) ) ;
#242 = FACE_OUTER_BOUND ( 'NONE', #209, .T. ) ;
#243 = CARTESIAN_POINT ( 'NONE',  ( -4.253910877179651900, -12.85220690565916100, 3.197445156245426500 ) ) ;
#244 = ADVANCED_BREP_SHAPE_REPRESENTATION ( '114-0224E BK7 bi-cv 25.4 F-200', ( #79, #212 ), #185 ) ;
#245 = CARTESIAN_POINT ( 'NONE',  ( 6.245004513516505500E-014, -4.289533244869482500, 2.667349302478447800 ) ) ;
#246 = CARTESIAN_POINT ( 'NONE',  ( 8.505813210209030500, 12.85220690565916800, 3.328152085546438600 ) ) ;
#247 = AXIS2_PLACEMENT_3D ( 'NONE', #151, #5, #72 ) ;
#248 = CC_DESIGN_PERSON_AND_ORGANIZATION_ASSIGNMENT ( #2, #160, ( #81 ) ) ;
#249 = PERSON_AND_ORGANIZATION ( #121, #208 ) ;
#250 = ORIENTED_EDGE ( 'NONE', *, *, #109, .T. ) ;
#251 = CALENDAR_DATE ( 2019, 21, 1 ) ;
#252 = ORIENTED_EDGE ( 'NONE', *, *, #141, .F. ) ;
#253 = CARTESIAN_POINT ( 'NONE',  ( 4.253910877179652800, 12.85220690565914300, -0.3974451562454017800 ) ) ;
#254 = LOCAL_TIME ( 8, 58, 4.000000000000000000, #69 ) ;
#255 = VERTEX_POINT ( 'NONE', #103 ) ;
#256 = CARTESIAN_POINT ( 'NONE',  ( 4.253910877179651900, -12.85220690565914300, -0.3974451562454295900 ) ) ;
#257 = CC_DESIGN_PERSON_AND_ORGANIZATION_ASSIGNMENT ( #169, #290, ( #162 ) ) ;
#258 = CARTESIAN_POINT ( 'NONE',  ( 4.996003610813200500E-016, 2.442490654175340100E-015, -0.3880783769872209700 ) ) ;
#259 = EDGE_LOOP ( 'NONE', ( #252, #24, #75 ) ) ;
#260 = DIRECTION ( 'NONE',  ( 0.0000000000000000000, 0.0000000000000000000, 1.000000000000000000 ) ) ;
#261 = CARTESIAN_POINT ( 'NONE',  ( -6.418476861114185000E-014, -4.289533244869477200, 0.1326506975215468200 ) ) ;
#262 = DIRECTION ( 'NONE',  ( 1.000000000000000000, 0.0000000000000000000, 0.0000000000000000000 ) ) ;
#263 = CARTESIAN_POINT ( 'NONE',  ( -4.264772884730564200, -4.289533244869476300, 0.1326506975215458200 ) ) ;
#264 = CC_DESIGN_APPROVAL ( #131, ( #81 ) ) ;
#265 = CIRCLE ( 'NONE', #99, 12.69999999999999900 ) ;
#266 = DIRECTION ( 'NONE',  ( 1.000000000000000000, 0.0000000000000000000, 0.0000000000000000000 ) ) ;
#267 = ADVANCED_FACE ( 'NONE', ( #91 ), #144, .T. ) ;
#268 = DIRECTION ( 'NONE',  ( 1.000000000000000000, 0.0000000000000000000, 0.0000000000000000000 ) ) ;
#269 = CARTESIAN_POINT ( 'NONE',  ( 8.505813210209030500, -12.85220690565916100, 3.328152085546438600 ) ) ;
#270 = ORIENTED_EDGE ( 'NONE', *, *, #161, .F. ) ;
#271 = CARTESIAN_POINT ( 'NONE',  ( 1.421085471520199700E-014, 4.289533244869489600, 2.667349302478443400 ) ) ;
#272 = ORIENTED_EDGE ( 'NONE', *, *, #56, .F. ) ;
#273 = PERSON_AND_ORGANIZATION_ROLE ( 'design_owner' ) ;
#274 = FACE_OUTER_BOUND ( 'NONE', #259, .T. ) ;
#275 = LINE ( 'NONE', #186, #10 ) ;
#276 = CARTESIAN_POINT ( 'NONE',  ( 8.505813210208975400, 12.85220690565914300, -0.5281520855464245700 ) ) ;
#277 = CC_DESIGN_SECURITY_CLASSIFICATION ( #81, ( #162 ) ) ;
#278 = CARTESIAN_POINT ( 'NONE',  ( -1.421085471520199700E-014, 12.70000000000016300, -0.3880783769872409600 ) ) ;
#279 = CIRCLE ( 'NONE', #229, 208.0000000000000300 ) ;
#280 = ADVANCED_FACE ( 'NONE', ( #274 ), #237, .F. ) ;
#281 = DIRECTION ( 'NONE',  ( -0.0000000000000000000, -0.0000000000000000000, -1.000000000000000000 ) ) ;
#282 = CALENDAR_DATE ( 2019, 21, 1 ) ;
#283 = CARTESIAN_POINT ( 'NONE',  ( 4.996003610813200500E-016, 2.442490654175340100E-015, -0.3880783769872209700 ) ) ;
#284 = CIRCLE ( 'NONE', #176, 12.69999999999999900 ) ;
#285 = CARTESIAN_POINT ( 'NONE',  ( -4.264772884730494900, 4.289533244869488700, 2.667349302478443800 ) ) ;
#286 = AXIS2_PLACEMENT_3D ( 'NONE', #215, #281, #268 ) ;
#287 = ORIENTED_EDGE ( 'NONE', *, *, #228, .T. ) ;
#288 = CARTESIAN_POINT ( 'NONE',  ( 4.264772884730562400, -4.289533244869481600, 2.667349302478449600 ) ) ;
#289 = CARTESIAN_POINT ( 'NONE',  ( -12.75169180751227700, -12.85220690565915900, 3.589442513900015900 ) ) ;
#290 = PERSON_AND_ORGANIZATION_ROLE ( 'design_supplier' ) ;
#291 = EDGE_CURVE ( 'NONE', #3, #172, #213, .T. ) ;
#292 = DATE_AND_TIME ( #83, #254 ) ;
#293 = EDGE_LOOP ( 'NONE', ( #21, #87, #197 ) ) ;
#294 = ORIENTED_EDGE ( 'NONE', *, *, #28, .F. ) ;
#295 = DIRECTION ( 'NONE',  ( -1.000000000000000000, 0.0000000000000000000, 0.0000000000000000000 ) ) ;
ENDSEC;
END-ISO-10303-21;
