ISO-10303-21;
HEADER;
FILE_DESCRIPTION (( 'STEP AP203' ),
    '1' );
FILE_NAME ('114-0220E BK7 bi-cv 25.4 F-150.STEP',
    '2019-01-21T06:49:20',
    ( '' ),
    ( '' ),
    'SwSTEP 2.0',
    'SolidWorks 2017',
    '' );
FILE_SCHEMA (( 'CONFIG_CONTROL_DESIGN' ));
ENDSEC;

DATA;
#1 = EDGE_LOOP ( 'NONE', ( #235, #46, #101 ) ) ;
#2 = DATE_AND_TIME ( #215, #289 ) ;
#3 =( BOUNDED_SURFACE ( )  B_SPLINE_SURFACE ( 3, 3, ( 
 ( #214, #58, #284, #148 ),
 ( #194, #262, #125, #5 ),
 ( #59, #196, #60, #103 ),
 ( #170, #213, #104, #126 ) ),
 .UNSPECIFIED., .F., .F., .F. ) 
 B_SPLINE_SURFACE_WITH_KNOTS ( ( 4, 4 ),
 ( 4, 4 ),
 ( 0.0000000000000000000, 1.000000000000000000 ),
 ( 0.0000000000000000000, 1.000000000000000000 ),
 .UNSPECIFIED. ) 
 GEOMETRIC_REPRESENTATION_ITEM ( )  RATIONAL_B_SPLINE_SURFACE ( (
 ( 1.000000000000000000, 0.9994406081179202400, 0.9994406081179202400, 1.000000000000000000),
 ( 0.9977366273516841100, 0.9971785015818899200, 0.9971785015818899200, 0.9977366273516841100),
 ( 0.9977366273516841100, 0.9971785015818899200, 0.9971785015818899200, 0.9977366273516841100),
 ( 1.000000000000000000, 0.9994406081179202400, 0.9994406081179202400, 1.000000000000000000) ) ) 
 REPRESENTATION_ITEM ( '' )  SURFACE ( )  );
#4 = FACE_OUTER_BOUND ( 'NONE', #146, .T. ) ;
#5 = CARTESIAN_POINT ( 'NONE',  ( -12.79052116491258100, 4.293737248720382200, 3.347243661586944500 ) ) ;
#6 = CARTESIAN_POINT ( 'NONE',  ( 4.996003610813200500E-016, 2.442490654175340100E-015, -0.5174817018312940500 ) ) ;
#7 = PERSON_AND_ORGANIZATION ( #28, #43 ) ;
#8 =( GEOMETRIC_REPRESENTATION_CONTEXT ( 3 ) GLOBAL_UNCERTAINTY_ASSIGNED_CONTEXT ( ( #275 ) ) GLOBAL_UNIT_ASSIGNED_CONTEXT ( ( #76, #277, #163 ) ) REPRESENTATION_CONTEXT ( 'NONE', 'WORKASPACE' ) );
#9 = CARTESIAN_POINT ( 'NONE',  ( 4.263256414560599900E-014, -1.421085471520200100E-014, 159.0999999999999900 ) ) ;
#10 = EDGE_CURVE ( 'NONE', #266, #276, #32, .T. ) ;
#11 = COORDINATED_UNIVERSAL_TIME_OFFSET ( 2, 0, .AHEAD. ) ;
#12 = LOCAL_TIME ( 8, 49, 20.00000000000000000, #264 ) ;
#13 = CARTESIAN_POINT ( 'NONE',  ( -4.263256414560599200E-014, -4.293737248720438200, 0.1770569811293540900 ) ) ;
#14 = CC_DESIGN_DATE_AND_TIME_ASSIGNMENT ( #270, #234, ( #156 ) ) ;
#15 = CARTESIAN_POINT ( 'NONE',  ( 4.996003610813200500E-016, 2.442490654175340100E-015, 3.517481701831290500 ) ) ;
#16 = ORIENTED_EDGE ( 'NONE', *, *, #44, .T. ) ;
#17 = CARTESIAN_POINT ( 'NONE',  ( 8.535369187350649900, 4.293737248720430200, 0.002192282330957965300 ) ) ;
#18 = DATE_AND_TIME ( #230, #113 ) ;
#19 = AXIS2_PLACEMENT_3D ( 'NONE', #6, #102, #54 ) ;
#20 = ADVANCED_BREP_SHAPE_REPRESENTATION ( '114-0220E BK7 bi-cv 25.4 F-150', ( #256, #85 ), #8 ) ;
#21 = DIRECTION ( 'NONE',  ( 0.0000000000000000000, 0.0000000000000000000, 1.000000000000000000 ) ) ;
#22 = VERTEX_POINT ( 'NONE', #192 ) ;
#23 = PRODUCT_DEFINITION_FORMATION_WITH_SPECIFIED_SOURCE ( 'ANY', '', #118, .NOT_KNOWN. ) ;
#24 = CARTESIAN_POINT ( 'NONE',  ( 8.535369187350692500, 4.293737248720383100, 2.997807717669056100 ) ) ;
#25 = CARTESIAN_POINT ( 'NONE',  ( 8.496753632529165000, -12.85205676381774300, 3.704042284859516700 ) ) ;
#26 = PERSON_AND_ORGANIZATION_ROLE ( 'design_owner' ) ;
#27 = AXIS2_PLACEMENT_3D ( 'NONE', #9, #263, #124 ) ;
#28 = PERSON ( 'UNSPECIFIED', 'UNSPECIFIED', 'UNSPECIFIED', ('UNSPECIFIED'), ('UNSPECIFIED'), ('UNSPECIFIED') ) ;
#29 = APPROVAL_PERSON_ORGANIZATION ( #93, #79, #98 ) ;
#30 = DIRECTION ( 'NONE',  ( 1.000000000000000000, 0.0000000000000000000, 0.0000000000000000000 ) ) ;
#31 = ORIENTED_EDGE ( 'NONE', *, *, #130, .F. ) ;
#32 = CIRCLE ( 'NONE', #19, 12.69999999999999900 ) ;
#33 = CARTESIAN_POINT ( 'NONE',  ( 4.996003610813200500E-016, 2.442490654175340100E-015, 3.517481701831290500 ) ) ;
#34 = AXIS2_PLACEMENT_3D ( 'NONE', #149, #285, #83 ) ;
#35 = CARTESIAN_POINT ( 'NONE',  ( 4.996003610813200500E-016, 2.442490654175340100E-015, -0.5174817018312940500 ) ) ;
#36 = LOCAL_TIME ( 8, 49, 20.00000000000000000, #190 ) ;
#37 = DIRECTION ( 'NONE',  ( 1.000000000000000000, 0.0000000000000000000, 0.0000000000000000000 ) ) ;
#38 = ORIENTED_EDGE ( 'NONE', *, *, #185, .F. ) ;
#39 = VECTOR ( 'NONE', #252, 1000.000000000000000 ) ;
#40 = DESIGN_CONTEXT ( 'detailed design', #189, 'design' ) ;
#41 = CARTESIAN_POINT ( 'NONE',  ( 12.79052116491258500, 4.293737248720429300, -0.3472436615869272100 ) ) ;
#42 = CARTESIAN_POINT ( 'NONE',  ( 4.269475826263846600, 4.293737248720383100, 2.822943018870652600 ) ) ;
#43 = ORGANIZATION ( 'UNSPECIFIED', 'UNSPECIFIED', '' ) ;
#44 = EDGE_CURVE ( 'NONE', #22, #273, #69, .T. ) ;
#45 = CARTESIAN_POINT ( 'NONE',  ( 8.535369187350692500, -4.293737248720392000, 2.997807717669057400 ) ) ;
#46 = ORIENTED_EDGE ( 'NONE', *, *, #130, .T. ) ;
#47 = CYLINDRICAL_SURFACE ( 'NONE', #282, 12.69999999999999900 ) ;
#48 = CARTESIAN_POINT ( 'NONE',  ( -8.153200337090993300E-014, -12.85205676381788100, -0.5299687056031683300 ) ) ;
#49 = PERSON_AND_ORGANIZATION_ROLE ( 'creator' ) ;
#50 = APPLICATION_PROTOCOL_DEFINITION ( 'international standard', 'config_control_design', 1994, #189 ) ;
#51 = APPROVAL_STATUS ( 'not_yet_approved' ) ;
#52 = DIRECTION ( 'NONE',  ( 1.000000000000000000, 0.0000000000000000000, 0.0000000000000000000 ) ) ;
#53 = VERTEX_POINT ( 'NONE', #253 ) ;
#54 = DIRECTION ( 'NONE',  ( 1.000000000000000000, 0.0000000000000000000, 0.0000000000000000000 ) ) ;
#55 = DIRECTION ( 'NONE',  ( 0.0000000000000000000, 0.0000000000000000000, 1.000000000000000000 ) ) ;
#56 = DIRECTION ( 'NONE',  ( -0.0000000000000000000, -0.0000000000000000000, -1.000000000000000000 ) ) ;
#57 = CC_DESIGN_PERSON_AND_ORGANIZATION_ASSIGNMENT ( #7, #208, ( #23 ) ) ;
#58 = CARTESIAN_POINT ( 'NONE',  ( -4.250159944992614000, 12.85205676381773400, 3.529968705603181400 ) ) ;
#59 = CARTESIAN_POINT ( 'NONE',  ( 4.263256414560599200E-014, -4.293737248720391100, 2.822943018870664100 ) ) ;
#60 = CARTESIAN_POINT ( 'NONE',  ( -8.535369187350648100, -4.293737248720392000, 2.997807717669061000 ) ) ;
#61 = COORDINATED_UNIVERSAL_TIME_OFFSET ( 2, 0, .AHEAD. ) ;
#62 = CARTESIAN_POINT ( 'NONE',  ( -12.79052116491258700, 4.293737248720429300, -0.3472436615869181100 ) ) ;
#63 = LINE ( 'NONE', #72, #84 ) ;
#64 = DIRECTION ( 'NONE',  ( 1.000000000000000000, 0.0000000000000000000, 0.0000000000000000000 ) ) ;
#65 = DIRECTION ( 'NONE',  ( 0.0000000000000000000, 0.0000000000000000000, 1.000000000000000000 ) ) ;
#66 = ORIENTED_EDGE ( 'NONE', *, *, #92, .F. ) ;
#67 = CARTESIAN_POINT ( 'NONE',  ( 4.250159944992696600, -12.85205676381774300, 3.529968705603171200 ) ) ;
#68 = APPROVAL_DATE_TIME ( #2, #217 ) ;
#69 = CIRCLE ( 'NONE', #142, 12.69999999999999900 ) ;
#70 = PRODUCT_DEFINITION_SHAPE ( 'NONE', 'NONE',  #281 ) ;
#71 = CARTESIAN_POINT ( 'NONE',  ( 12.69999999999999900, 2.442490654175340100E-015, 3.517481701831290500 ) ) ;
#72 = CARTESIAN_POINT ( 'NONE',  ( 12.69999999999999900, 2.442490654175340100E-015, -0.5174817018312940500 ) ) ;
#73 = ADVANCED_FACE ( 'NONE', ( #271 ), #47, .T. ) ;
#74 = LOCAL_TIME ( 8, 49, 20.00000000000000000, #250 ) ;
#75 = APPROVAL_ROLE ( '' ) ;
#76 =( LENGTH_UNIT ( ) NAMED_UNIT ( * ) SI_UNIT ( .MILLI., .METRE. ) );
#77 = PERSON_AND_ORGANIZATION_ROLE ( 'design_supplier' ) ;
#78 = PERSON_AND_ORGANIZATION ( #28, #43 ) ;
#79 = APPROVAL ( #51, 'UNSPECIFIED' ) ;
#80 = ORIENTED_EDGE ( 'NONE', *, *, #232, .T. ) ;
#81 = APPROVAL_PERSON_ORGANIZATION ( #117, #227, #115 ) ;
#82 = AXIS2_PLACEMENT_3D ( 'NONE', #220, #109, #198 ) ;
#83 = DIRECTION ( 'NONE',  ( 0.0000000000000000000, 1.000000000000000000, 0.0000000000000000000 ) ) ;
#84 = VECTOR ( 'NONE', #21, 1000.000000000000000 ) ;
#85 = AXIS2_PLACEMENT_3D ( 'NONE', #119, #136, #188 ) ;
#86 = CARTESIAN_POINT ( 'NONE',  ( -4.263256414560599900E-014, -12.70000000000003500, -0.5174817018312978200 ) ) ;
#87 = EDGE_CURVE ( 'NONE', #279, #22, #162, .T. ) ;
#88 = ORIENTED_EDGE ( 'NONE', *, *, #236, .F. ) ;
#89 = CARTESIAN_POINT ( 'NONE',  ( 4.269475826263764900, -4.293737248720439000, 0.1770569811293540600 ) ) ;
#90 = CARTESIAN_POINT ( 'NONE',  ( -12.73265453250357400, 12.85205676381787200, -1.051897317330824400 ) ) ;
#91 = PERSON_AND_ORGANIZATION ( #28, #43 ) ;
#92 = EDGE_CURVE ( 'NONE', #53, #266, #231, .T. ) ;
#93 = PERSON_AND_ORGANIZATION ( #28, #43 ) ;
#94 = CARTESIAN_POINT ( 'NONE',  ( -12.69999999999999900, 3.997792089092478900E-015, 3.517481701831290500 ) ) ;
#95 = CARTESIAN_POINT ( 'NONE',  ( 8.153200337090992100E-014, -4.293737248720391100, 2.822943018870653000 ) ) ;
#96 = CARTESIAN_POINT ( 'NONE',  ( 7.979727989493312600E-014, 12.85205676381773400, 3.529968705603171200 ) ) ;
#97 = ORIENTED_EDGE ( 'NONE', *, *, #178, .F. ) ;
#98 = APPROVAL_ROLE ( '' ) ;
#99 = FACE_OUTER_BOUND ( 'NONE', #1, .T. ) ;
#100 = APPROVAL_STATUS ( 'not_yet_approved' ) ;
#101 = ORIENTED_EDGE ( 'NONE', *, *, #169, .F. ) ;
#102 = DIRECTION ( 'NONE',  ( 0.0000000000000000000, 0.0000000000000000000, 1.000000000000000000 ) ) ;
#103 = CARTESIAN_POINT ( 'NONE',  ( -12.79052116491258100, -4.293737248720391100, 3.347243661586945400 ) ) ;
#104 = CARTESIAN_POINT ( 'NONE',  ( -8.496753632529118900, -12.85205676381774400, 3.704042284859520300 ) ) ;
#105 = CARTESIAN_POINT ( 'NONE',  ( -4.269475826263848400, -4.293737248720439000, 0.1770569811293635800 ) ) ;
#106 = ORIENTED_EDGE ( 'NONE', *, *, #111, .F. ) ;
#107 = CIRCLE ( 'NONE', #165, 12.69999999999999900 ) ;
#108 = CC_DESIGN_SECURITY_CLASSIFICATION ( #156, ( #23 ) ) ;
#109 = DIRECTION ( 'NONE',  ( -0.0000000000000000000, -0.0000000000000000000, -1.000000000000000000 ) ) ;
#110 = CARTESIAN_POINT ( 'NONE',  ( -8.153200337090993300E-014, 12.85205676381787200, -0.5299687056031683300 ) ) ;
#111 = EDGE_CURVE ( 'NONE', #266, #216, #120, .T. ) ;
#112 = ORIENTED_EDGE ( 'NONE', *, *, #248, .F. ) ;
#113 = LOCAL_TIME ( 8, 49, 20.00000000000000000, #61 ) ;
#114 = EDGE_LOOP ( 'NONE', ( #219, #122, #267, #134, #16, #137 ) ) ;
#115 = APPROVAL_ROLE ( '' ) ;
#116 = EDGE_LOOP ( 'NONE', ( #88, #207, #161, #80, #191, #153 ) ) ;
#117 = PERSON_AND_ORGANIZATION ( #28, #43 ) ;
#118 = PRODUCT ( '114-0220E BK7 bi-cv 25.4 F-150', '114-0220E BK7 bi-cv 25.4 F-150', '', ( #168 ) ) ;
#119 = CARTESIAN_POINT ( 'NONE',  ( 0.0000000000000000000, 0.0000000000000000000, 0.0000000000000000000 ) ) ;
#120 = CIRCLE ( 'NONE', #34, 156.0999999999999900 ) ;
#121 = CARTESIAN_POINT ( 'NONE',  ( 8.496753632529118900, 12.85205676381787400, -0.7040422848595174800 ) ) ;
#122 = ORIENTED_EDGE ( 'NONE', *, *, #10, .T. ) ;
#123 = PERSON_AND_ORGANIZATION ( #28, #43 ) ;
#124 = DIRECTION ( 'NONE',  ( 0.0000000000000000000, 1.000000000000000000, 0.0000000000000000000 ) ) ;
#125 = CARTESIAN_POINT ( 'NONE',  ( -8.535369187350648100, 4.293737248720383100, 2.997807717669060100 ) ) ;
#126 = CARTESIAN_POINT ( 'NONE',  ( -12.73265453250357000, -12.85205676381774300, 4.051897317330835700 ) ) ;
#127 = LINE ( 'NONE', #272, #39 ) ;
#128 = CC_DESIGN_APPROVAL ( #79, ( #281 ) ) ;
#129 = CARTESIAN_POINT ( 'NONE',  ( 4.996003610813200500E-016, 2.442490654175340100E-015, -0.5174817018312940500 ) ) ;
#130 = EDGE_CURVE ( 'NONE', #22, #200, #147, .T. ) ;
#131 = CARTESIAN_POINT ( 'NONE',  ( -4.263256414560599900E-014, -12.85205676381788100, -0.5299687056031787700 ) ) ;
#132 = ADVANCED_FACE ( 'NONE', ( #274 ), #3, .F. ) ;
#133 = CARTESIAN_POINT ( 'NONE',  ( -4.250159944992698300, -12.85205676381788100, -0.5299687056031693300 ) ) ;
#134 = ORIENTED_EDGE ( 'NONE', *, *, #87, .T. ) ;
#135 = CARTESIAN_POINT ( 'NONE',  ( -4.263256414560599900E-014, 12.70000000000002100, -0.5174817018312978200 ) ) ;
#136 = DIRECTION ( 'NONE',  ( 0.0000000000000000000, 0.0000000000000000000, 1.000000000000000000 ) ) ;
#137 = ORIENTED_EDGE ( 'NONE', *, *, #232, .F. ) ;
#138 = CC_DESIGN_PERSON_AND_ORGANIZATION_ASSIGNMENT ( #197, #49, ( #281 ) ) ;
#139 = DATE_AND_TIME ( #171, #74 ) ;
#140 = APPLICATION_PROTOCOL_DEFINITION ( 'international standard', 'config_control_design', 1994, #166 ) ;
#141 = APPROVAL_STATUS ( 'not_yet_approved' ) ;
#142 = AXIS2_PLACEMENT_3D ( 'NONE', #278, #56, #255 ) ;
#143 = APPROVAL_DATE_TIME ( #204, #79 ) ;
#144 = CARTESIAN_POINT ( 'NONE',  ( 4.996003610813200500E-016, 2.442490654175340100E-015, -0.5174817018312940500 ) ) ;
#145 = CC_DESIGN_PERSON_AND_ORGANIZATION_ASSIGNMENT ( #78, #77, ( #23 ) ) ;
#146 = EDGE_LOOP ( 'NONE', ( #106, #66, #112 ) ) ;
#147 = CIRCLE ( 'NONE', #27, 156.0999999999999900 ) ;
#148 = CARTESIAN_POINT ( 'NONE',  ( -12.73265453250357000, 12.85205676381773400, 4.051897317330835700 ) ) ;
#149 = CARTESIAN_POINT ( 'NONE',  ( -4.263256414560599900E-014, -1.421085471520200100E-014, -156.0999999999999900 ) ) ;
#150 = CARTESIAN_POINT ( 'NONE',  ( 12.73265453250357000, 12.85205676381787200, -1.051897317330833500 ) ) ;
#151 = PERSON_AND_ORGANIZATION ( #28, #43 ) ;
#152 = CARTESIAN_POINT ( 'NONE',  ( -4.269475826263846600, 4.293737248720430200, 0.1770569811293647200 ) ) ;
#153 = ORIENTED_EDGE ( 'NONE', *, *, #185, .T. ) ;
#154 = CARTESIAN_POINT ( 'NONE',  ( 8.496753632529118900, -12.85205676381788300, -0.7040422848595174800 ) ) ;
#155 = CYLINDRICAL_SURFACE ( 'NONE', #245, 12.69999999999999900 ) ;
#156 = SECURITY_CLASSIFICATION ( '', '', #186 ) ;
#157 = CARTESIAN_POINT ( 'NONE',  ( 4.269475826263764900, 4.293737248720430200, 0.1770569811293551400 ) ) ;
#158 = AXIS2_PLACEMENT_3D ( 'NONE', #35, #173, #239 ) ;
#159 = CARTESIAN_POINT ( 'NONE',  ( 12.73265453250357400, 12.85205676381773400, 4.051897317330826800 ) ) ;
#160 = CARTESIAN_POINT ( 'NONE',  ( -12.73265453250357400, -12.85205676381788100, -1.051897317330824400 ) ) ;
#161 = ORIENTED_EDGE ( 'NONE', *, *, #248, .T. ) ;
#162 = CIRCLE ( 'NONE', #257, 12.69999999999999900 ) ;
#163 =( NAMED_UNIT ( * ) SI_UNIT ( $, .STERADIAN. ) SOLID_ANGLE_UNIT ( ) );
#164 = ADVANCED_FACE ( 'NONE', ( #4 ), #269, .F. ) ;
#165 = AXIS2_PLACEMENT_3D ( 'NONE', #15, #177, #64 ) ;
#166 = APPLICATION_CONTEXT ( 'configuration controlled 3d designs of mechanical parts and assemblies' ) ;
#167 = CC_DESIGN_DATE_AND_TIME_ASSIGNMENT ( #139, #211, ( #281 ) ) ;
#168 = MECHANICAL_CONTEXT ( 'NONE', #166, 'mechanical' ) ;
#169 = EDGE_CURVE ( 'NONE', #273, #200, #107, .T. ) ;
#170 = CARTESIAN_POINT ( 'NONE',  ( 4.263256414560599900E-014, -12.85205676381774300, 3.529968705603181400 ) ) ;
#171 = CALENDAR_DATE ( 2019, 21, 1 ) ;
#172 = AXIS2_PLACEMENT_3D ( 'NONE', #228, #206, #182 ) ;
#173 = DIRECTION ( 'NONE',  ( 0.0000000000000000000, 0.0000000000000000000, 1.000000000000000000 ) ) ;
#174 = CARTESIAN_POINT ( 'NONE',  ( -8.535369187350696100, -4.293737248720439000, 0.002192282330960133300 ) ) ;
#175 = ORIENTED_EDGE ( 'NONE', *, *, #111, .T. ) ;
#176 = CARTESIAN_POINT ( 'NONE',  ( 12.79052116491258500, -4.293737248720438200, -0.3472436615869283200 ) ) ;
#177 = DIRECTION ( 'NONE',  ( -0.0000000000000000000, -0.0000000000000000000, -1.000000000000000000 ) ) ;
#178 = EDGE_CURVE ( 'NONE', #276, #216, #241, .T. ) ;
#179 = CARTESIAN_POINT ( 'NONE',  ( 8.535369187350649900, -4.293737248720439000, 0.002192282330956880600 ) ) ;
#180 = ORIENTED_EDGE ( 'NONE', *, *, #87, .F. ) ;
#181 = CC_DESIGN_PERSON_AND_ORGANIZATION_ASSIGNMENT ( #151, #26, ( #118 ) ) ;
#182 = DIRECTION ( 'NONE',  ( 1.000000000000000000, 0.0000000000000000000, 0.0000000000000000000 ) ) ;
#183 = CIRCLE ( 'NONE', #82, 12.69999999999999900 ) ;
#184 = CARTESIAN_POINT ( 'NONE',  ( 8.153200337090992100E-014, 4.293737248720382200, 2.822943018870651700 ) ) ;
#185 = EDGE_CURVE ( 'NONE', #200, #279, #183, .T. ) ;
#186 = SECURITY_CLASSIFICATION_LEVEL ( 'unclassified' ) ;
#187 = EDGE_LOOP ( 'NONE', ( #31, #180, #38 ) ) ;
#188 = DIRECTION ( 'NONE',  ( 1.000000000000000000, 0.0000000000000000000, 0.0000000000000000000 ) ) ;
#189 = APPLICATION_CONTEXT ( 'configuration controlled 3d designs of mechanical parts and assemblies' ) ;
#190 = COORDINATED_UNIVERSAL_TIME_OFFSET ( 2, 0, .AHEAD. ) ;
#191 = ORIENTED_EDGE ( 'NONE', *, *, #169, .T. ) ;
#192 = CARTESIAN_POINT ( 'NONE',  ( 4.263256414560599900E-014, 12.69999999999988600, 3.517481701831283400 ) ) ;
#193 = DIRECTION ( 'NONE',  ( -0.0000000000000000000, -0.0000000000000000000, -1.000000000000000000 ) ) ;
#194 = CARTESIAN_POINT ( 'NONE',  ( 4.263256414560599200E-014, 4.293737248720382200, 2.822943018870663200 ) ) ;
#195 = CC_DESIGN_APPROVAL ( #227, ( #156 ) ) ;
#196 = CARTESIAN_POINT ( 'NONE',  ( -4.269475826263763100, -4.293737248720392000, 2.822943018870663700 ) ) ;
#197 = PERSON_AND_ORGANIZATION ( #28, #43 ) ;
#198 = DIRECTION ( 'NONE',  ( 1.000000000000000000, 0.0000000000000000000, 0.0000000000000000000 ) ) ;
#199 = DIRECTION ( 'NONE',  ( 0.0000000000000000000, 0.0000000000000000000, 1.000000000000000000 ) ) ;
#200 = VERTEX_POINT ( 'NONE', #268 ) ;
#201 = CARTESIAN_POINT ( 'NONE',  ( -8.153200337090992100E-014, 4.293737248720429300, 0.1770569811293658000 ) ) ;
#202 = CARTESIAN_POINT ( 'NONE',  ( -8.496753632529165000, -12.85205676381788100, -0.7040422848595138100 ) ) ;
#203 = CARTESIAN_POINT ( 'NONE',  ( 12.79052116491258500, -4.293737248720391100, 3.347243661586937400 ) ) ;
#204 = DATE_AND_TIME ( #254, #12 ) ;
#205 = CARTESIAN_POINT ( 'NONE',  ( -8.326672684688672800E-014, -4.293737248720438200, 0.1770569811293647200 ) ) ;
#206 = DIRECTION ( 'NONE',  ( 0.0000000000000000000, 0.0000000000000000000, 1.000000000000000000 ) ) ;
#207 = ORIENTED_EDGE ( 'NONE', *, *, #178, .T. ) ;
#208 = PERSON_AND_ORGANIZATION_ROLE ( 'creator' ) ;
#209 = PRODUCT_RELATED_PRODUCT_CATEGORY ( 'detail', '', ( #118 ) ) ;
#210 = PERSON_AND_ORGANIZATION_ROLE ( 'classification_officer' ) ;
#211 = DATE_TIME_ROLE ( 'creation_date' ) ;
#212 = SHAPE_DEFINITION_REPRESENTATION ( #70, #20 ) ;
#213 = CARTESIAN_POINT ( 'NONE',  ( -4.250159944992614000, -12.85205676381774400, 3.529968705603181400 ) ) ;
#214 = CARTESIAN_POINT ( 'NONE',  ( 4.263256414560599900E-014, 12.85205676381773400, 3.529968705603181400 ) ) ;
#215 = CALENDAR_DATE ( 2019, 21, 1 ) ;
#216 = VERTEX_POINT ( 'NONE', #86 ) ;
#217 = APPROVAL ( #141, 'UNSPECIFIED' ) ;
#218 = CARTESIAN_POINT ( 'NONE',  ( 4.996003610813200500E-016, 2.442490654175340100E-015, -0.5174817018312940500 ) ) ;
#219 = ORIENTED_EDGE ( 'NONE', *, *, #92, .T. ) ;
#220 = CARTESIAN_POINT ( 'NONE',  ( 4.996003610813200500E-016, 2.442490654175340100E-015, 3.517481701831290500 ) ) ;
#221 = CARTESIAN_POINT ( 'NONE',  ( 12.73265453250357000, -12.85205676381788100, -1.051897317330833500 ) ) ;
#222 = CARTESIAN_POINT ( 'NONE',  ( 4.250159944992615700, -12.85205676381788300, -0.5299687056031788800 ) ) ;
#223 = ADVANCED_FACE ( 'NONE', ( #292 ), #233, .F. ) ;
#224 = CALENDAR_DATE ( 2019, 21, 1 ) ;
#225 = CARTESIAN_POINT ( 'NONE',  ( 12.79052116491258500, 4.293737248720382200, 3.347243661586936100 ) ) ;
#226 = CARTESIAN_POINT ( 'NONE',  ( 4.250159944992696600, 12.85205676381773400, 3.529968705603171200 ) ) ;
#227 = APPROVAL ( #100, 'UNSPECIFIED' ) ;
#228 = CARTESIAN_POINT ( 'NONE',  ( 4.996003610813200500E-016, 2.442490654175340100E-015, -0.5174817018312940500 ) ) ;
#229 = CARTESIAN_POINT ( 'NONE',  ( 4.269475826263846600, -4.293737248720392000, 2.822943018870654400 ) ) ;
#230 = CALENDAR_DATE ( 2019, 21, 1 ) ;
#231 = CIRCLE ( 'NONE', #158, 12.69999999999999900 ) ;
#232 = EDGE_CURVE ( 'NONE', #53, #273, #63, .T. ) ;
#233 =( BOUNDED_SURFACE ( )  B_SPLINE_SURFACE ( 3, 3, ( 
 ( #90, #244, #286, #110 ),
 ( #62, #242, #152, #201 ),
 ( #247, #174, #105, #205 ),
 ( #160, #202, #133, #48 ) ),
 .UNSPECIFIED., .F., .F., .T. ) 
 B_SPLINE_SURFACE_WITH_KNOTS ( ( 4, 4 ),
 ( 4, 4 ),
 ( 0.0000000000000000000, 1.000000000000000000 ),
 ( 0.0000000000000000000, 1.000000000000000000 ),
 .UNSPECIFIED. ) 
 GEOMETRIC_REPRESENTATION_ITEM ( )  RATIONAL_B_SPLINE_SURFACE ( (
 ( 1.000000000000000000, 0.9994406081179203500, 0.9994406081179203500, 1.000000000000000000),
 ( 0.9977366273516841100, 0.9971785015818900300, 0.9971785015818900300, 0.9977366273516841100),
 ( 0.9977366273516841100, 0.9971785015818900300, 0.9971785015818900300, 0.9977366273516841100),
 ( 1.000000000000000000, 0.9994406081179203500, 0.9994406081179203500, 1.000000000000000000) ) ) 
 REPRESENTATION_ITEM ( '' )  SURFACE ( )  );
#234 = DATE_TIME_ROLE ( 'classification_date' ) ;
#235 = ORIENTED_EDGE ( 'NONE', *, *, #44, .F. ) ;
#236 = EDGE_CURVE ( 'NONE', #276, #279, #127, .T. ) ;
#237 = ORIENTED_EDGE ( 'NONE', *, *, #10, .F. ) ;
#238 = APPROVAL_DATE_TIME ( #18, #227 ) ;
#239 = DIRECTION ( 'NONE',  ( 1.000000000000000000, 0.0000000000000000000, 0.0000000000000000000 ) ) ;
#240 = CARTESIAN_POINT ( 'NONE',  ( -4.263256414560599900E-014, 12.85205676381787200, -0.5299687056031787700 ) ) ;
#241 = CIRCLE ( 'NONE', #243, 12.69999999999999900 ) ;
#242 = CARTESIAN_POINT ( 'NONE',  ( -8.535369187350696100, 4.293737248720430200, 0.002192282330961217900 ) ) ;
#243 = AXIS2_PLACEMENT_3D ( 'NONE', #218, #199, #37 ) ;
#244 = CARTESIAN_POINT ( 'NONE',  ( -8.496753632529165000, 12.85205676381787200, -0.7040422848595138100 ) ) ;
#245 = AXIS2_PLACEMENT_3D ( 'NONE', #129, #65, #290 ) ;
#246 = ADVANCED_FACE ( 'NONE', ( #280 ), #155, .T. ) ;
#247 = CARTESIAN_POINT ( 'NONE',  ( -12.79052116491258700, -4.293737248720438200, -0.3472436615869192200 ) ) ;
#248 = EDGE_CURVE ( 'NONE', #216, #53, #259, .T. ) ;
#249 = CARTESIAN_POINT ( 'NONE',  ( 7.979727989493312600E-014, -12.85205676381774300, 3.529968705603171200 ) ) ;
#250 = COORDINATED_UNIVERSAL_TIME_OFFSET ( 2, 0, .AHEAD. ) ;
#251 = CARTESIAN_POINT ( 'NONE',  ( -12.69999999999999900, 3.997792089092478900E-015, -0.5174817018312940500 ) ) ;
#252 = DIRECTION ( 'NONE',  ( 0.0000000000000000000, 0.0000000000000000000, 1.000000000000000000 ) ) ;
#253 = CARTESIAN_POINT ( 'NONE',  ( 12.69999999999999900, 2.442490654175340100E-015, -0.5174817018312940500 ) ) ;
#254 = CALENDAR_DATE ( 2019, 21, 1 ) ;
#255 = DIRECTION ( 'NONE',  ( 1.000000000000000000, 0.0000000000000000000, 0.0000000000000000000 ) ) ;
#256 = MANIFOLD_SOLID_BREP ( 'Imported1', #258 ) ;
#257 = AXIS2_PLACEMENT_3D ( 'NONE', #33, #193, #52 ) ;
#258 = CLOSED_SHELL ( 'NONE', ( #223, #295, #73, #164, #246, #132 ) ) ;
#259 = CIRCLE ( 'NONE', #172, 12.69999999999999900 ) ;
#260 = CARTESIAN_POINT ( 'NONE',  ( 4.250159944992615700, 12.85205676381787400, -0.5299687056031788800 ) ) ;
#261 = CC_DESIGN_PERSON_AND_ORGANIZATION_ASSIGNMENT ( #91, #210, ( #156 ) ) ;
#262 = CARTESIAN_POINT ( 'NONE',  ( -4.269475826263764000, 4.293737248720383100, 2.822943018870662800 ) ) ;
#263 = DIRECTION ( 'NONE',  ( -1.000000000000000000, 0.0000000000000000000, 0.0000000000000000000 ) ) ;
#264 = COORDINATED_UNIVERSAL_TIME_OFFSET ( 2, 0, .AHEAD. ) ;
#265 = CC_DESIGN_APPROVAL ( #217, ( #23 ) ) ;
#266 = VERTEX_POINT ( 'NONE', #135 ) ;
#267 = ORIENTED_EDGE ( 'NONE', *, *, #236, .T. ) ;
#268 = CARTESIAN_POINT ( 'NONE',  ( 4.263256414560599900E-014, -12.69999999999989600, 3.517481701831283400 ) ) ;
#269 =( BOUNDED_SURFACE ( )  B_SPLINE_SURFACE ( 3, 3, ( 
 ( #240, #260, #121, #150 ),
 ( #283, #157, #17, #41 ),
 ( #13, #89, #179, #176 ),
 ( #131, #222, #154, #221 ) ),
 .UNSPECIFIED., .F., .F., .T. ) 
 B_SPLINE_SURFACE_WITH_KNOTS ( ( 4, 4 ),
 ( 4, 4 ),
 ( 0.0000000000000000000, 1.000000000000000000 ),
 ( 0.0000000000000000000, 1.000000000000000000 ),
 .UNSPECIFIED. ) 
 GEOMETRIC_REPRESENTATION_ITEM ( )  RATIONAL_B_SPLINE_SURFACE ( (
 ( 1.000000000000000000, 0.9994406081179202400, 0.9994406081179202400, 1.000000000000000000),
 ( 0.9977366273516841100, 0.9971785015818899200, 0.9971785015818899200, 0.9977366273516841100),
 ( 0.9977366273516841100, 0.9971785015818899200, 0.9971785015818899200, 0.9977366273516841100),
 ( 1.000000000000000000, 0.9994406081179202400, 0.9994406081179202400, 1.000000000000000000) ) ) 
 REPRESENTATION_ITEM ( '' )  SURFACE ( )  );
#270 = DATE_AND_TIME ( #224, #36 ) ;
#271 = FACE_OUTER_BOUND ( 'NONE', #114, .T. ) ;
#272 = CARTESIAN_POINT ( 'NONE',  ( -12.69999999999999900, 3.997792089092478900E-015, -0.5174817018312940500 ) ) ;
#273 = VERTEX_POINT ( 'NONE', #71 ) ;
#274 = FACE_OUTER_BOUND ( 'NONE', #187, .T. ) ;
#275 = UNCERTAINTY_MEASURE_WITH_UNIT (LENGTH_MEASURE( 1.000000000000000100E-005 ), #76, 'distance_accuracy_value', 'NONE');
#276 = VERTEX_POINT ( 'NONE', #251 ) ;
#277 =( NAMED_UNIT ( * ) PLANE_ANGLE_UNIT ( ) SI_UNIT ( $, .RADIAN. ) );
#278 = CARTESIAN_POINT ( 'NONE',  ( 4.996003610813200500E-016, 2.442490654175340100E-015, 3.517481701831290500 ) ) ;
#279 = VERTEX_POINT ( 'NONE', #94 ) ;
#280 = FACE_OUTER_BOUND ( 'NONE', #116, .T. ) ;
#281 = PRODUCT_DEFINITION ( 'UNKNOWN', '', #23, #40 ) ;
#282 = AXIS2_PLACEMENT_3D ( 'NONE', #144, #55, #30 ) ;
#283 = CARTESIAN_POINT ( 'NONE',  ( -4.263256414560599200E-014, 4.293737248720429300, 0.1770569811293551700 ) ) ;
#284 = CARTESIAN_POINT ( 'NONE',  ( -8.496753632529118900, 12.85205676381773400, 3.704042284859520300 ) ) ;
#285 = DIRECTION ( 'NONE',  ( 1.000000000000000000, 0.0000000000000000000, 0.0000000000000000000 ) ) ;
#286 = CARTESIAN_POINT ( 'NONE',  ( -4.250159944992698300, 12.85205676381787200, -0.5299687056031693300 ) ) ;
#287 = APPROVAL_PERSON_ORGANIZATION ( #123, #217, #75 ) ;
#288 = EDGE_LOOP ( 'NONE', ( #237, #175, #97 ) ) ;
#289 = LOCAL_TIME ( 8, 49, 20.00000000000000000, #11 ) ;
#290 = DIRECTION ( 'NONE',  ( 1.000000000000000000, 0.0000000000000000000, 0.0000000000000000000 ) ) ;
#291 = CARTESIAN_POINT ( 'NONE',  ( 8.496753632529165000, 12.85205676381773400, 3.704042284859516700 ) ) ;
#292 = FACE_OUTER_BOUND ( 'NONE', #288, .T. ) ;
#293 = CARTESIAN_POINT ( 'NONE',  ( 12.73265453250357400, -12.85205676381774300, 4.051897317330826800 ) ) ;
#294 =( BOUNDED_SURFACE ( )  B_SPLINE_SURFACE ( 3, 3, ( 
 ( #159, #291, #226, #96 ),
 ( #225, #24, #42, #184 ),
 ( #203, #45, #229, #95 ),
 ( #293, #25, #67, #249 ) ),
 .UNSPECIFIED., .F., .F., .T. ) 
 B_SPLINE_SURFACE_WITH_KNOTS ( ( 4, 4 ),
 ( 4, 4 ),
 ( 0.0000000000000000000, 1.000000000000000000 ),
 ( 0.0000000000000000000, 1.000000000000000000 ),
 .UNSPECIFIED. ) 
 GEOMETRIC_REPRESENTATION_ITEM ( )  RATIONAL_B_SPLINE_SURFACE ( (
 ( 1.000000000000000000, 0.9994406081179203500, 0.9994406081179203500, 1.000000000000000000),
 ( 0.9977366273516841100, 0.9971785015818900300, 0.9971785015818900300, 0.9977366273516841100),
 ( 0.9977366273516841100, 0.9971785015818900300, 0.9971785015818900300, 0.9977366273516841100),
 ( 1.000000000000000000, 0.9994406081179203500, 0.9994406081179203500, 1.000000000000000000) ) ) 
 REPRESENTATION_ITEM ( '' )  SURFACE ( )  );
#295 = ADVANCED_FACE ( 'NONE', ( #99 ), #294, .F. ) ;
ENDSEC;
END-ISO-10303-21;
