ISO-10303-21;
HEADER;
FILE_DESCRIPTION (( 'STEP AP203' ),
    '1' );
FILE_NAME ('114-0218E BK7 bi-cv 25.4 F-125.STEP',
    '2019-01-21T06:42:12',
    ( '' ),
    ( '' ),
    'SwSTEP 2.0',
    'SolidWorks 2017',
    '' );
FILE_SCHEMA (( 'CONFIG_CONTROL_DESIGN' ));
ENDSEC;

DATA;
#1 = APPROVAL_DATE_TIME ( #248, #81 ) ;
#2 = ORIENTED_EDGE ( 'NONE', *, *, #254, .F. ) ;
#3 = DIRECTION ( 'NONE',  ( -0.0000000000000000000, -0.0000000000000000000, -1.000000000000000000 ) ) ;
#4 = EDGE_CURVE ( 'NONE', #242, #84, #144, .T. ) ;
#5 = ORIENTED_EDGE ( 'NONE', *, *, #44, .F. ) ;
#6 = LOCAL_TIME ( 8, 42, 12.00000000000000000, #135 ) ;
#7 = EDGE_LOOP ( 'NONE', ( #46, #136, #295 ) ) ;
#8 = CARTESIAN_POINT ( 'NONE',  ( 1.421085471520200100E-014, 12.69999999999994800, -0.6208735945483958600 ) ) ;
#9 = DIRECTION ( 'NONE',  ( 1.000000000000000000, 0.0000000000000000000, 0.0000000000000000000 ) ) ;
#10 = EDGE_LOOP ( 'NONE', ( #259, #5, #290 ) ) ;
#11 = CARTESIAN_POINT ( 'NONE',  ( 4.246393715015246400, 12.85190605182913600, -0.6358517535234311500 ) ) ;
#12 = EDGE_CURVE ( 'NONE', #190, #242, #119, .T. ) ;
#13 = CARTESIAN_POINT ( 'NONE',  ( 12.79682093656227200, 4.297961856410904800, -0.4167237188278918300 ) ) ;
#14 = CARTESIAN_POINT ( 'NONE',  ( -1.734723475976807100E-014, -4.297961856410940300, 0.2126429007459804400 ) ) ;
#15 = CIRCLE ( 'NONE', #137, 12.69999999999999900 ) ;
#16 = CYLINDRICAL_SURFACE ( 'NONE', #100, 12.69999999999999900 ) ;
#17 = DIRECTION ( 'NONE',  ( 0.0000000000000000000, 0.0000000000000000000, 1.000000000000000000 ) ) ;
#18 = CARTESIAN_POINT ( 'NONE',  ( -12.69999999999999900, 3.997792089092478900E-015, -0.6208735945484149500 ) ) ;
#19 = PERSON_AND_ORGANIZATION_ROLE ( 'design_supplier' ) ;
#20 = COORDINATED_UNIVERSAL_TIME_OFFSET ( 2, 0, .AHEAD. ) ;
#21 = MECHANICAL_CONTEXT ( 'NONE', #293, 'mechanical' ) ;
#22 = COORDINATED_UNIVERSAL_TIME_OFFSET ( 2, 0, .AHEAD. ) ;
#23 = ORIENTED_EDGE ( 'NONE', *, *, #44, .T. ) ;
#24 = ADVANCED_FACE ( 'NONE', ( #232 ), #16, .T. ) ;
#25 = PERSON_AND_ORGANIZATION ( #107, #171 ) ;
#26 = VERTEX_POINT ( 'NONE', #170 ) ;
#27 = CARTESIAN_POINT ( 'NONE',  ( 4.996003610813200500E-016, 2.442490654175340100E-015, 3.720873594548420400 ) ) ;
#28 = DIRECTION ( 'NONE',  ( 1.000000000000000000, 0.0000000000000000000, 0.0000000000000000000 ) ) ;
#29 = EDGE_CURVE ( 'NONE', #238, #26, #185, .T. ) ;
#30 = CARTESIAN_POINT ( 'NONE',  ( 1.734723475976807100E-014, -4.297961856410921700, 2.887357099254042000 ) ) ;
#31 = CARTESIAN_POINT ( 'NONE',  ( -4.246393715015259800, -12.85190605182914500, 3.735851753523450100 ) ) ;
#32 = CIRCLE ( 'NONE', #118, 130.1999999999999900 ) ;
#33 = EDGE_CURVE ( 'NONE', #190, #238, #276, .T. ) ;
#34 = CARTESIAN_POINT ( 'NONE',  ( 12.71356187582396500, -12.85190605182917200, -1.261123569093592900 ) ) ;
#35 = DIRECTION ( 'NONE',  ( 0.0000000000000000000, 0.0000000000000000000, 1.000000000000000000 ) ) ;
#36 = CARTESIAN_POINT ( 'NONE',  ( 12.71356187582396300, 12.85190605182913600, -1.261123569093592900 ) ) ;
#37 = EDGE_CURVE ( 'NONE', #84, #60, #224, .T. ) ;
#38 = CARTESIAN_POINT ( 'NONE',  ( 1.421085471520200100E-014, -2.842170943040400100E-014, -130.1999999999999900 ) ) ;
#39 = FACE_OUTER_BOUND ( 'NONE', #209, .T. ) ;
#40 = DATE_TIME_ROLE ( 'classification_date' ) ;
#41 = APPLICATION_PROTOCOL_DEFINITION ( 'international standard', 'config_control_design', 1994, #251 ) ;
#42 = APPROVAL ( #69, 'UNSPECIFIED' ) ;
#43 = COORDINATED_UNIVERSAL_TIME_OFFSET ( 2, 0, .AHEAD. ) ;
#44 = EDGE_CURVE ( 'NONE', #26, #145, #98, .T. ) ;
#45 = PERSON_AND_ORGANIZATION ( #107, #171 ) ;
#46 = ORIENTED_EDGE ( 'NONE', *, *, #212, .F. ) ;
#47 = DIRECTION ( 'NONE',  ( 1.000000000000000000, 0.0000000000000000000, 0.0000000000000000000 ) ) ;
#48 = EDGE_CURVE ( 'NONE', #60, #73, #178, .T. ) ;
#49 = CARTESIAN_POINT ( 'NONE',  ( 4.996003610813200500E-016, 2.442490654175340100E-015, -0.6208735945484149500 ) ) ;
#50 = ORIENTED_EDGE ( 'NONE', *, *, #254, .T. ) ;
#51 = CARTESIAN_POINT ( 'NONE',  ( 12.69999999999999900, 2.442490654175340100E-015, 3.720873594548420400 ) ) ;
#52 = AXIS2_PLACEMENT_3D ( 'NONE', #247, #111, #92 ) ;
#53 = DIRECTION ( 'NONE',  ( 0.0000000000000000000, 0.0000000000000000000, 1.000000000000000000 ) ) ;
#54 = PRODUCT ( '114-0218E BK7 bi-cv 25.4 F-125', '114-0218E BK7 bi-cv 25.4 F-125', '', ( #21 ) ) ;
#55 = CARTESIAN_POINT ( 'NONE',  ( 12.71356187582396700, -12.85190605182914500, 4.361123569093599900 ) ) ;
#56 = LOCAL_TIME ( 8, 42, 12.00000000000000000, #22 ) ;
#57 = ORIENTED_EDGE ( 'NONE', *, *, #4, .F. ) ;
#58 = CARTESIAN_POINT ( 'NONE',  ( 4.274202660745047800, -4.297961856410923400, 2.887357099254042500 ) ) ;
#59 = CARTESIAN_POINT ( 'NONE',  ( -1.421085471520199700E-014, 12.85190605182913400, 3.735851753523450100 ) ) ;
#60 = VERTEX_POINT ( 'NONE', #51 ) ;
#61 = PRODUCT_DEFINITION_SHAPE ( 'NONE', 'NONE',  #163 ) ;
#62 = CARTESIAN_POINT ( 'NONE',  ( -12.71356187582396700, 12.85190605182913600, -1.261123569093580700 ) ) ;
#63 = CARTESIAN_POINT ( 'NONE',  ( -12.71356187582396700, -12.85190605182917200, -1.261123569093580700 ) ) ;
#64 = CARTESIAN_POINT ( 'NONE',  ( 1.421085471520200100E-014, -12.85190605182917200, -0.6358517535234309300 ) ) ;
#65 = CALENDAR_DATE ( 2019, 21, 1 ) ;
#66 = ORIENTED_EDGE ( 'NONE', *, *, #29, .T. ) ;
#67 =( NAMED_UNIT ( * ) PLANE_ANGLE_UNIT ( ) SI_UNIT ( $, .RADIAN. ) );
#68 = CC_DESIGN_DATE_AND_TIME_ASSIGNMENT ( #262, #139, ( #163 ) ) ;
#69 = APPROVAL_STATUS ( 'not_yet_approved' ) ;
#70 = CC_DESIGN_PERSON_AND_ORGANIZATION_ASSIGNMENT ( #143, #162, ( #93 ) ) ;
#71 = APPROVAL_DATE_TIME ( #113, #42 ) ;
#72 = CARTESIAN_POINT ( 'NONE',  ( 4.996003610813200500E-016, 2.442490654175340100E-015, -0.6208735945484149500 ) ) ;
#73 = VERTEX_POINT ( 'NONE', #146 ) ;
#74 = AXIS2_PLACEMENT_3D ( 'NONE', #278, #53, #28 ) ;
#75 = CARTESIAN_POINT ( 'NONE',  ( -12.69999999999999900, 3.997792089092478900E-015, -0.6208735945484149500 ) ) ;
#76 = PERSON_AND_ORGANIZATION ( #107, #171 ) ;
#77 = CARTESIAN_POINT ( 'NONE',  ( 4.996003610813200500E-016, 2.442490654175340100E-015, 3.720873594548420400 ) ) ;
#78 = ORIENTED_EDGE ( 'NONE', *, *, #212, .T. ) ;
#79 = CARTESIAN_POINT ( 'NONE',  ( 8.487661100744267300, 12.85190605182913400, 3.944443569451613100 ) ) ;
#80 = CARTESIAN_POINT ( 'NONE',  ( -1.421085471520199700E-014, 4.297961856410911900, 2.887357099254043400 ) ) ;
#81 = APPROVAL ( #204, 'UNSPECIFIED' ) ;
#82 = CARTESIAN_POINT ( 'NONE',  ( -12.71356187582400700, -12.85190605182914500, 4.361123569093612300 ) ) ;
#83 = LOCAL_TIME ( 8, 42, 12.00000000000000000, #43 ) ;
#84 = VERTEX_POINT ( 'NONE', #280 ) ;
#85 = CARTESIAN_POINT ( 'NONE',  ( 1.734723475976807100E-014, 12.85190605182913400, 3.735851753523446600 ) ) ;
#86 = AXIS2_PLACEMENT_3D ( 'NONE', #77, #3, #47 ) ;
#87 = CARTESIAN_POINT ( 'NONE',  ( -4.246393715015259800, 12.85190605182913400, 3.735851753523450100 ) ) ;
#88 = CARTESIAN_POINT ( 'NONE',  ( -8.543245420702373100, 4.297961856410905700, 0.002685050747936931600 ) ) ;
#89 = COORDINATED_UNIVERSAL_TIME_OFFSET ( 2, 0, .AHEAD. ) ;
#90 = CARTESIAN_POINT ( 'NONE',  ( -8.543245420702373100, -4.297961856410941200, 0.002685050747935631400 ) ) ;
#91 = AXIS2_PLACEMENT_3D ( 'NONE', #72, #101, #126 ) ;
#92 = DIRECTION ( 'NONE',  ( 1.000000000000000000, 0.0000000000000000000, 0.0000000000000000000 ) ) ;
#93 = PRODUCT_DEFINITION_FORMATION_WITH_SPECIFIED_SOURCE ( 'ANY', '', #54, .NOT_KNOWN. ) ;
#94 = AXIS2_PLACEMENT_3D ( 'NONE', #149, #105, #152 ) ;
#95 = CYLINDRICAL_SURFACE ( 'NONE', #132, 12.69999999999999900 ) ;
#96 = FACE_OUTER_BOUND ( 'NONE', #10, .T. ) ;
#97 = CC_DESIGN_DATE_AND_TIME_ASSIGNMENT ( #228, #40, ( #294 ) ) ;
#98 = CIRCLE ( 'NONE', #74, 12.69999999999999900 ) ;
#99 = CARTESIAN_POINT ( 'NONE',  ( 4.996003610813200500E-016, 2.442490654175340100E-015, 3.720873594548420400 ) ) ;
#100 = AXIS2_PLACEMENT_3D ( 'NONE', #125, #127, #277 ) ;
#101 = DIRECTION ( 'NONE',  ( 0.0000000000000000000, 0.0000000000000000000, 1.000000000000000000 ) ) ;
#102 = AXIS2_PLACEMENT_3D ( 'NONE', #27, #124, #279 ) ;
#103 = CARTESIAN_POINT ( 'NONE',  ( -8.543245420702401600, 4.297961856410912800, 3.097314949252093700 ) ) ;
#104 = LINE ( 'NONE', #159, #208 ) ;
#105 = DIRECTION ( 'NONE',  ( -0.0000000000000000000, -0.0000000000000000000, -1.000000000000000000 ) ) ;
#106 =( GEOMETRIC_REPRESENTATION_CONTEXT ( 3 ) GLOBAL_UNCERTAINTY_ASSIGNED_CONTEXT ( ( #245 ) ) GLOBAL_UNIT_ASSIGNED_CONTEXT ( ( #203, #67, #225 ) ) REPRESENTATION_CONTEXT ( 'NONE', 'WORKASPACE' ) );
#107 = PERSON ( 'UNSPECIFIED', 'UNSPECIFIED', 'UNSPECIFIED', ('UNSPECIFIED'), ('UNSPECIFIED'), ('UNSPECIFIED') ) ;
#108 = CARTESIAN_POINT ( 'NONE',  ( 4.274202660745047800, 4.297961856410912800, 2.887357099254039800 ) ) ;
#109 = CALENDAR_DATE ( 2019, 21, 1 ) ;
#110 = CARTESIAN_POINT ( 'NONE',  ( 4.246393715015246400, -12.85190605182917200, -0.6358517535234311500 ) ) ;
#111 = DIRECTION ( 'NONE',  ( 0.0000000000000000000, 0.0000000000000000000, 1.000000000000000000 ) ) ;
#112 = CARTESIAN_POINT ( 'NONE',  ( 1.421085471520200100E-014, -12.69999999999997300, -0.6208735945483958600 ) ) ;
#113 = DATE_AND_TIME ( #231, #83 ) ;
#114 = EDGE_LOOP ( 'NONE', ( #23, #78, #283, #128, #215, #2 ) ) ;
#115 = CARTESIAN_POINT ( 'NONE',  ( -4.246393715015249100, 12.85190605182913600, -0.6358517535234280400 ) ) ;
#116 = CC_DESIGN_PERSON_AND_ORGANIZATION_ASSIGNMENT ( #147, #187, ( #54 ) ) ;
#117 = PERSON_AND_ORGANIZATION_ROLE ( 'classification_officer' ) ;
#118 = AXIS2_PLACEMENT_3D ( 'NONE', #241, #196, #264 ) ;
#119 = LINE ( 'NONE', #75, #161 ) ;
#120 = CC_DESIGN_APPROVAL ( #42, ( #93 ) ) ;
#121 = ORIENTED_EDGE ( 'NONE', *, *, #33, .T. ) ;
#122 = ADVANCED_FACE ( 'NONE', ( #150 ), #95, .T. ) ;
#123 = ORIENTED_EDGE ( 'NONE', *, *, #157, .F. ) ;
#124 = DIRECTION ( 'NONE',  ( -0.0000000000000000000, -0.0000000000000000000, -1.000000000000000000 ) ) ;
#125 = CARTESIAN_POINT ( 'NONE',  ( 4.996003610813200500E-016, 2.442490654175340100E-015, -0.6208735945484149500 ) ) ;
#126 = DIRECTION ( 'NONE',  ( 1.000000000000000000, 0.0000000000000000000, 0.0000000000000000000 ) ) ;
#127 = DIRECTION ( 'NONE',  ( 0.0000000000000000000, 0.0000000000000000000, 1.000000000000000000 ) ) ;
#128 = ORIENTED_EDGE ( 'NONE', *, *, #4, .T. ) ;
#129 = CARTESIAN_POINT ( 'NONE',  ( -4.274202660745058500, -4.297961856410923400, 2.887357099254046500 ) ) ;
#130 = CARTESIAN_POINT ( 'NONE',  ( 1.734723475976807100E-014, -12.85190605182914500, 3.735851753523446600 ) ) ;
#131 = ORIENTED_EDGE ( 'NONE', *, *, #48, .F. ) ;
#132 = AXIS2_PLACEMENT_3D ( 'NONE', #210, #172, #9 ) ;
#133 = CARTESIAN_POINT ( 'NONE',  ( -1.734723475976807100E-014, 12.85190605182913600, -0.6358517535234269300 ) ) ;
#134 = CARTESIAN_POINT ( 'NONE',  ( 1.421085471520200100E-014, -4.297961856410939400, 0.2126429007459761400 ) ) ;
#135 = COORDINATED_UNIVERSAL_TIME_OFFSET ( 2, 0, .AHEAD. ) ;
#136 = ORIENTED_EDGE ( 'NONE', *, *, #285, .T. ) ;
#137 = AXIS2_PLACEMENT_3D ( 'NONE', #180, #35, #201 ) ;
#138 = CARTESIAN_POINT ( 'NONE',  ( -8.487661100744267300, -12.85190605182917200, -0.8444435694515936000 ) ) ;
#139 = DATE_TIME_ROLE ( 'creation_date' ) ;
#140 = ORIENTED_EDGE ( 'NONE', *, *, #12, .F. ) ;
#141 = CC_DESIGN_APPROVAL ( #81, ( #294 ) ) ;
#142 = EDGE_CURVE ( 'NONE', #84, #73, #32, .T. ) ;
#143 = PERSON_AND_ORGANIZATION ( #107, #171 ) ;
#144 = CIRCLE ( 'NONE', #230, 12.69999999999999900 ) ;
#145 = VERTEX_POINT ( 'NONE', #8 ) ;
#146 = CARTESIAN_POINT ( 'NONE',  ( -1.421085471520199700E-014, -12.69999999999997100, 3.720873594548408400 ) ) ;
#147 = PERSON_AND_ORGANIZATION ( #107, #171 ) ;
#148 = CARTESIAN_POINT ( 'NONE',  ( -12.79682093656231200, 4.297961856410911900, 3.516723718827912600 ) ) ;
#149 = CARTESIAN_POINT ( 'NONE',  ( 4.996003610813200500E-016, 2.442490654175340100E-015, 3.720873594548420400 ) ) ;
#150 = FACE_OUTER_BOUND ( 'NONE', #114, .T. ) ;
#151 = CARTESIAN_POINT ( 'NONE',  ( 1.734723475976807100E-014, 4.297961856410911900, 2.887357099254039400 ) ) ;
#152 = DIRECTION ( 'NONE',  ( 1.000000000000000000, 0.0000000000000000000, 0.0000000000000000000 ) ) ;
#153 = CARTESIAN_POINT ( 'NONE',  ( 1.421085471520200100E-014, 12.85190605182913600, -0.6358517535234309300 ) ) ;
#154 =( BOUNDED_SURFACE ( )  B_SPLINE_SURFACE ( 3, 3, ( 
 ( #59, #87, #243, #213 ),
 ( #80, #237, #103, #148 ),
 ( #260, #129, #281, #216 ),
 ( #174, #31, #195, #82 ) ),
 .UNSPECIFIED., .F., .F., .F. ) 
 B_SPLINE_SURFACE_WITH_KNOTS ( ( 4, 4 ),
 ( 4, 4 ),
 ( 0.0000000000000000000, 1.000000000000000000 ),
 ( 0.0000000000000000000, 1.000000000000000000 ),
 .UNSPECIFIED. ) 
 GEOMETRIC_REPRESENTATION_ITEM ( )  RATIONAL_B_SPLINE_SURFACE ( (
 ( 1.000000000000000000, 0.9991951870017628000, 0.9991951870017628000, 1.000000000000000000),
 ( 0.9967442306527216600, 0.9959420379399743800, 0.9959420379399743800, 0.9967442306527216600),
 ( 0.9967442306527216600, 0.9959420379399743800, 0.9959420379399743800, 0.9967442306527216600),
 ( 1.000000000000000000, 0.9991951870017628000, 0.9991951870017628000, 1.000000000000000000) ) ) 
 REPRESENTATION_ITEM ( '' )  SURFACE ( )  );
#155 = CARTESIAN_POINT ( 'NONE',  ( 8.487661100744265500, -12.85190605182917200, -0.8444435694516065900 ) ) ;
#156 = SHAPE_DEFINITION_REPRESENTATION ( #61, #179 ) ;
#157 = EDGE_CURVE ( 'NONE', #73, #242, #200, .T. ) ;
#158 = CARTESIAN_POINT ( 'NONE',  ( -12.79682093656227300, 4.297961856410904800, -0.4167237188278796200 ) ) ;
#159 = CARTESIAN_POINT ( 'NONE',  ( 12.69999999999999900, 2.442490654175340100E-015, -0.6208735945484149500 ) ) ;
#160 = DATE_AND_TIME ( #267, #56 ) ;
#161 = VECTOR ( 'NONE', #233, 1000.000000000000000 ) ;
#162 = PERSON_AND_ORGANIZATION_ROLE ( 'creator' ) ;
#163 = PRODUCT_DEFINITION ( 'UNKNOWN', '', #93, #221 ) ;
#164 = APPLICATION_PROTOCOL_DEFINITION ( 'international standard', 'config_control_design', 1994, #293 ) ;
#165 = AXIS2_PLACEMENT_3D ( 'NONE', #38, #202, #222 ) ;
#166 = ADVANCED_FACE ( 'NONE', ( #39 ), #273, .F. ) ;
#167 = ADVANCED_FACE ( 'NONE', ( #205 ), #154, .F. ) ;
#168 = FACE_OUTER_BOUND ( 'NONE', #7, .T. ) ;
#169 = DIRECTION ( 'NONE',  ( 0.0000000000000000000, 0.0000000000000000000, 1.000000000000000000 ) ) ;
#170 = CARTESIAN_POINT ( 'NONE',  ( 12.69999999999999900, 2.442490654175340100E-015, -0.6208735945484149500 ) ) ;
#171 = ORGANIZATION ( 'UNSPECIFIED', 'UNSPECIFIED', '' ) ;
#172 = DIRECTION ( 'NONE',  ( 0.0000000000000000000, 0.0000000000000000000, 1.000000000000000000 ) ) ;
#173 = CARTESIAN_POINT ( 'NONE',  ( 8.543245420702373100, 4.297961856410912800, 3.097314949252083900 ) ) ;
#174 = CARTESIAN_POINT ( 'NONE',  ( -1.421085471520199700E-014, -12.85190605182914500, 3.735851753523450100 ) ) ;
#175 = ORIENTED_EDGE ( 'NONE', *, *, #157, .T. ) ;
#176 = CARTESIAN_POINT ( 'NONE',  ( 4.246393715015249100, 12.85190605182913400, 3.735851753523447000 ) ) ;
#177 = CARTESIAN_POINT ( 'NONE',  ( 12.79682093656227300, 4.297961856410911900, 3.516723718827901000 ) ) ;
#178 = CIRCLE ( 'NONE', #86, 12.69999999999999900 ) ;
#179 = ADVANCED_BREP_SHAPE_REPRESENTATION ( '114-0218E BK7 bi-cv 25.4 F-125', ( #265, #52 ), #106 ) ;
#180 = CARTESIAN_POINT ( 'NONE',  ( 4.996003610813200500E-016, 2.442490654175340100E-015, -0.6208735945484149500 ) ) ;
#181 = CARTESIAN_POINT ( 'NONE',  ( -1.734723475976807100E-014, 4.297961856410903900, 0.2126429007459816900 ) ) ;
#182 = CARTESIAN_POINT ( 'NONE',  ( -4.246393715015249100, -12.85190605182917200, -0.6358517535234280400 ) ) ;
#183 = CARTESIAN_POINT ( 'NONE',  ( 8.487661100744261900, 12.85190605182913600, -0.8444435694516065900 ) ) ;
#184 = CC_DESIGN_SECURITY_CLASSIFICATION ( #294, ( #93 ) ) ;
#185 = CIRCLE ( 'NONE', #193, 12.69999999999999900 ) ;
#186 = SECURITY_CLASSIFICATION_LEVEL ( 'unclassified' ) ;
#187 = PERSON_AND_ORGANIZATION_ROLE ( 'design_owner' ) ;
#188 = CLOSED_SHELL ( 'NONE', ( #253, #166, #122, #229, #24, #167 ) ) ;
#189 = CC_DESIGN_APPROVAL ( #282, ( #163 ) ) ;
#190 = VERTEX_POINT ( 'NONE', #18 ) ;
#191 =( BOUNDED_SURFACE ( )  B_SPLINE_SURFACE ( 3, 3, ( 
 ( #62, #266, #115, #133 ),
 ( #158, #88, #286, #181 ),
 ( #198, #90, #269, #14 ),
 ( #63, #138, #182, #219 ) ),
 .UNSPECIFIED., .F., .F., .F. ) 
 B_SPLINE_SURFACE_WITH_KNOTS ( ( 4, 4 ),
 ( 4, 4 ),
 ( 0.0000000000000000000, 1.000000000000000000 ),
 ( 0.0000000000000000000, 1.000000000000000000 ),
 .UNSPECIFIED. ) 
 GEOMETRIC_REPRESENTATION_ITEM ( )  RATIONAL_B_SPLINE_SURFACE ( (
 ( 1.000000000000000000, 0.9991951870017628000, 0.9991951870017628000, 1.000000000000000000),
 ( 0.9967442306527216600, 0.9959420379399743800, 0.9959420379399743800, 0.9967442306527216600),
 ( 0.9967442306527216600, 0.9959420379399743800, 0.9959420379399743800, 0.9967442306527216600),
 ( 1.000000000000000000, 0.9991951870017628000, 0.9991951870017628000, 1.000000000000000000) ) ) 
 REPRESENTATION_ITEM ( '' )  SURFACE ( )  );
#192 = ORIENTED_EDGE ( 'NONE', *, *, #142, .T. ) ;
#193 = AXIS2_PLACEMENT_3D ( 'NONE', #49, #169, #257 ) ;
#194 = CARTESIAN_POINT ( 'NONE',  ( 12.71356187582396700, 12.85190605182913400, 4.361123569093599900 ) ) ;
#195 = CARTESIAN_POINT ( 'NONE',  ( -8.487661100744292100, -12.85190605182914500, 3.944443569451623300 ) ) ;
#196 = DIRECTION ( 'NONE',  ( -1.000000000000000000, 0.0000000000000000000, 0.0000000000000000000 ) ) ;
#197 = EDGE_LOOP ( 'NONE', ( #140, #121, #66, #50, #255, #175 ) ) ;
#198 = CARTESIAN_POINT ( 'NONE',  ( -12.79682093656227300, -4.297961856410939400, -0.4167237188278809500 ) ) ;
#199 = APPROVAL_PERSON_ORGANIZATION ( #236, #42, #291 ) ;
#200 = CIRCLE ( 'NONE', #94, 12.69999999999999900 ) ;
#201 = DIRECTION ( 'NONE',  ( 1.000000000000000000, 0.0000000000000000000, 0.0000000000000000000 ) ) ;
#202 = DIRECTION ( 'NONE',  ( 1.000000000000000000, 0.0000000000000000000, 0.0000000000000000000 ) ) ;
#203 =( LENGTH_UNIT ( ) NAMED_UNIT ( * ) SI_UNIT ( .MILLI., .METRE. ) );
#204 = APPROVAL_STATUS ( 'not_yet_approved' ) ;
#205 = FACE_OUTER_BOUND ( 'NONE', #252, .T. ) ;
#206 = APPROVAL_ROLE ( '' ) ;
#207 = APPROVAL_DATE_TIME ( #160, #282 ) ;
#208 = VECTOR ( 'NONE', #17, 1000.000000000000000 ) ;
#209 = EDGE_LOOP ( 'NONE', ( #271, #192, #131 ) ) ;
#210 = CARTESIAN_POINT ( 'NONE',  ( 4.996003610813200500E-016, 2.442490654175340100E-015, -0.6208735945484149500 ) ) ;
#211 =( BOUNDED_SURFACE ( )  B_SPLINE_SURFACE ( 3, 3, ( 
 ( #153, #11, #183, #36 ),
 ( #220, #268, #246, #13 ),
 ( #134, #217, #270, #288 ),
 ( #64, #110, #155, #34 ) ),
 .UNSPECIFIED., .F., .F., .F. ) 
 B_SPLINE_SURFACE_WITH_KNOTS ( ( 4, 4 ),
 ( 4, 4 ),
 ( 0.0000000000000000000, 1.000000000000000000 ),
 ( 0.0000000000000000000, 1.000000000000000000 ),
 .UNSPECIFIED. ) 
 GEOMETRIC_REPRESENTATION_ITEM ( )  RATIONAL_B_SPLINE_SURFACE ( (
 ( 1.000000000000000000, 0.9991951870017628000, 0.9991951870017628000, 1.000000000000000000),
 ( 0.9967442306527216600, 0.9959420379399743800, 0.9959420379399743800, 0.9967442306527216600),
 ( 0.9967442306527216600, 0.9959420379399743800, 0.9959420379399743800, 0.9967442306527216600),
 ( 1.000000000000000000, 0.9991951870017628000, 0.9991951870017628000, 1.000000000000000000) ) ) 
 REPRESENTATION_ITEM ( '' )  SURFACE ( )  );
#212 = EDGE_CURVE ( 'NONE', #145, #190, #15, .T. ) ;
#213 = CARTESIAN_POINT ( 'NONE',  ( -12.71356187582400700, 12.85190605182913400, 4.361123569093612300 ) ) ;
#214 = LOCAL_TIME ( 8, 42, 12.00000000000000000, #20 ) ;
#215 = ORIENTED_EDGE ( 'NONE', *, *, #37, .T. ) ;
#216 = CARTESIAN_POINT ( 'NONE',  ( -12.79682093656231200, -4.297961856410921700, 3.516723718827916100 ) ) ;
#217 = CARTESIAN_POINT ( 'NONE',  ( 4.274202660745044300, -4.297961856410941200, 0.2126429007459761900 ) ) ;
#218 = LOCAL_TIME ( 8, 42, 12.00000000000000000, #89 ) ;
#219 = CARTESIAN_POINT ( 'NONE',  ( -1.734723475976807100E-014, -12.85190605182917200, -0.6358517535234269300 ) ) ;
#220 = CARTESIAN_POINT ( 'NONE',  ( 1.421085471520200100E-014, 4.297961856410904800, 0.2126429007459775800 ) ) ;
#221 = DESIGN_CONTEXT ( 'detailed design', #251, 'design' ) ;
#222 = DIRECTION ( 'NONE',  ( 0.0000000000000000000, 1.000000000000000000, 4.263529280434549400E-016 ) ) ;
#223 = CALENDAR_DATE ( 2019, 21, 1 ) ;
#224 = CIRCLE ( 'NONE', #102, 12.69999999999999900 ) ;
#225 =( NAMED_UNIT ( * ) SI_UNIT ( $, .STERADIAN. ) SOLID_ANGLE_UNIT ( ) );
#226 = APPROVAL_STATUS ( 'not_yet_approved' ) ;
#227 = CC_DESIGN_PERSON_AND_ORGANIZATION_ASSIGNMENT ( #45, #19, ( #93 ) ) ;
#228 = DATE_AND_TIME ( #65, #214 ) ;
#229 = ADVANCED_FACE ( 'NONE', ( #96 ), #211, .F. ) ;
#230 = AXIS2_PLACEMENT_3D ( 'NONE', #99, #235, #234 ) ;
#231 = CALENDAR_DATE ( 2019, 21, 1 ) ;
#232 = FACE_OUTER_BOUND ( 'NONE', #197, .T. ) ;
#233 = DIRECTION ( 'NONE',  ( 0.0000000000000000000, 0.0000000000000000000, 1.000000000000000000 ) ) ;
#234 = DIRECTION ( 'NONE',  ( 1.000000000000000000, 0.0000000000000000000, 0.0000000000000000000 ) ) ;
#235 = DIRECTION ( 'NONE',  ( -0.0000000000000000000, -0.0000000000000000000, -1.000000000000000000 ) ) ;
#236 = PERSON_AND_ORGANIZATION ( #107, #171 ) ;
#237 = CARTESIAN_POINT ( 'NONE',  ( -4.274202660745058500, 4.297961856410912800, 2.887357099254042900 ) ) ;
#238 = VERTEX_POINT ( 'NONE', #112 ) ;
#239 = CC_DESIGN_PERSON_AND_ORGANIZATION_ASSIGNMENT ( #258, #272, ( #163 ) ) ;
#240 = CARTESIAN_POINT ( 'NONE',  ( 8.543245420702373100, -4.297961856410923400, 3.097314949252086600 ) ) ;
#241 = CARTESIAN_POINT ( 'NONE',  ( -1.421085471520200100E-014, -2.842170943040400100E-014, 133.3000000000000100 ) ) ;
#242 = VERTEX_POINT ( 'NONE', #250 ) ;
#243 = CARTESIAN_POINT ( 'NONE',  ( -8.487661100744292100, 12.85190605182913400, 3.944443569451623300 ) ) ;
#244 = CC_DESIGN_PERSON_AND_ORGANIZATION_ASSIGNMENT ( #287, #117, ( #294 ) ) ;
#245 = UNCERTAINTY_MEASURE_WITH_UNIT (LENGTH_MEASURE( 1.000000000000000100E-005 ), #203, 'distance_accuracy_value', 'NONE');
#246 = CARTESIAN_POINT ( 'NONE',  ( 8.543245420702371400, 4.297961856410905700, 0.002685050747923922000 ) ) ;
#247 = CARTESIAN_POINT ( 'NONE',  ( 0.0000000000000000000, 0.0000000000000000000, 0.0000000000000000000 ) ) ;
#248 = DATE_AND_TIME ( #109, #6 ) ;
#249 = ORIENTED_EDGE ( 'NONE', *, *, #142, .F. ) ;
#250 = CARTESIAN_POINT ( 'NONE',  ( -12.69999999999999900, 3.997792089092478900E-015, 3.720873594548420400 ) ) ;
#251 = APPLICATION_CONTEXT ( 'configuration controlled 3d designs of mechanical parts and assemblies' ) ;
#252 = EDGE_LOOP ( 'NONE', ( #249, #57, #123 ) ) ;
#253 = ADVANCED_FACE ( 'NONE', ( #168 ), #191, .F. ) ;
#254 = EDGE_CURVE ( 'NONE', #26, #60, #104, .T. ) ;
#255 = ORIENTED_EDGE ( 'NONE', *, *, #48, .T. ) ;
#256 = PRODUCT_RELATED_PRODUCT_CATEGORY ( 'detail', '', ( #54 ) ) ;
#257 = DIRECTION ( 'NONE',  ( 1.000000000000000000, 0.0000000000000000000, 0.0000000000000000000 ) ) ;
#258 = PERSON_AND_ORGANIZATION ( #107, #171 ) ;
#259 = ORIENTED_EDGE ( 'NONE', *, *, #285, .F. ) ;
#260 = CARTESIAN_POINT ( 'NONE',  ( -1.421085471520199700E-014, -4.297961856410921700, 2.887357099254046900 ) ) ;
#261 = CARTESIAN_POINT ( 'NONE',  ( 12.79682093656227300, -4.297961856410921700, 3.516723718827903700 ) ) ;
#262 = DATE_AND_TIME ( #223, #218 ) ;
#263 = CARTESIAN_POINT ( 'NONE',  ( 4.246393715015249100, -12.85190605182914500, 3.735851753523447000 ) ) ;
#264 = DIRECTION ( 'NONE',  ( 0.0000000000000000000, 1.000000000000000000, 0.0000000000000000000 ) ) ;
#265 = MANIFOLD_SOLID_BREP ( 'Imported1', #188 ) ;
#266 = CARTESIAN_POINT ( 'NONE',  ( -8.487661100744267300, 12.85190605182913600, -0.8444435694515936000 ) ) ;
#267 = CALENDAR_DATE ( 2019, 21, 1 ) ;
#268 = CARTESIAN_POINT ( 'NONE',  ( 4.274202660745045200, 4.297961856410905700, 0.2126429007459776100 ) ) ;
#269 = CARTESIAN_POINT ( 'NONE',  ( -4.274202660745047800, -4.297961856410941200, 0.2126429007459793300 ) ) ;
#270 = CARTESIAN_POINT ( 'NONE',  ( 8.543245420702371400, -4.297961856410941200, 0.002685050747922458400 ) ) ;
#271 = ORIENTED_EDGE ( 'NONE', *, *, #37, .F. ) ;
#272 = PERSON_AND_ORGANIZATION_ROLE ( 'creator' ) ;
#273 =( BOUNDED_SURFACE ( )  B_SPLINE_SURFACE ( 3, 3, ( 
 ( #194, #79, #176, #85 ),
 ( #177, #173, #108, #151 ),
 ( #261, #240, #58, #30 ),
 ( #55, #284, #263, #130 ) ),
 .UNSPECIFIED., .F., .F., .F. ) 
 B_SPLINE_SURFACE_WITH_KNOTS ( ( 4, 4 ),
 ( 4, 4 ),
 ( 0.0000000000000000000, 1.000000000000000000 ),
 ( 0.0000000000000000000, 1.000000000000000000 ),
 .UNSPECIFIED. ) 
 GEOMETRIC_REPRESENTATION_ITEM ( )  RATIONAL_B_SPLINE_SURFACE ( (
 ( 1.000000000000000000, 0.9991951870017628000, 0.9991951870017628000, 1.000000000000000000),
 ( 0.9967442306527216600, 0.9959420379399743800, 0.9959420379399743800, 0.9967442306527216600),
 ( 0.9967442306527216600, 0.9959420379399743800, 0.9959420379399743800, 0.9967442306527216600),
 ( 1.000000000000000000, 0.9991951870017628000, 0.9991951870017628000, 1.000000000000000000) ) ) 
 REPRESENTATION_ITEM ( '' )  SURFACE ( )  );
#274 = CIRCLE ( 'NONE', #165, 130.1999999999999900 ) ;
#275 = APPROVAL_PERSON_ORGANIZATION ( #25, #282, #206 ) ;
#276 = CIRCLE ( 'NONE', #91, 12.69999999999999900 ) ;
#277 = DIRECTION ( 'NONE',  ( 1.000000000000000000, 0.0000000000000000000, 0.0000000000000000000 ) ) ;
#278 = CARTESIAN_POINT ( 'NONE',  ( 4.996003610813200500E-016, 2.442490654175340100E-015, -0.6208735945484149500 ) ) ;
#279 = DIRECTION ( 'NONE',  ( 1.000000000000000000, 8.881784197001252300E-016, 0.0000000000000000000 ) ) ;
#280 = CARTESIAN_POINT ( 'NONE',  ( -1.421085471520199700E-014, 12.69999999999994800, 3.720873594548408400 ) ) ;
#281 = CARTESIAN_POINT ( 'NONE',  ( -8.543245420702401600, -4.297961856410923400, 3.097314949252097300 ) ) ;
#282 = APPROVAL ( #226, 'UNSPECIFIED' ) ;
#283 = ORIENTED_EDGE ( 'NONE', *, *, #12, .T. ) ;
#284 = CARTESIAN_POINT ( 'NONE',  ( 8.487661100744267300, -12.85190605182914500, 3.944443569451613100 ) ) ;
#285 = EDGE_CURVE ( 'NONE', #145, #238, #274, .T. ) ;
#286 = CARTESIAN_POINT ( 'NONE',  ( -4.274202660745047800, 4.297961856410904800, 0.2126429007459806300 ) ) ;
#287 = PERSON_AND_ORGANIZATION ( #107, #171 ) ;
#288 = CARTESIAN_POINT ( 'NONE',  ( 12.79682093656227200, -4.297961856410939400, -0.4167237188278932200 ) ) ;
#289 = APPROVAL_PERSON_ORGANIZATION ( #76, #81, #292 ) ;
#290 = ORIENTED_EDGE ( 'NONE', *, *, #29, .F. ) ;
#291 = APPROVAL_ROLE ( '' ) ;
#292 = APPROVAL_ROLE ( '' ) ;
#293 = APPLICATION_CONTEXT ( 'configuration controlled 3d designs of mechanical parts and assemblies' ) ;
#294 = SECURITY_CLASSIFICATION ( '', '', #186 ) ;
#295 = ORIENTED_EDGE ( 'NONE', *, *, #33, .F. ) ;
ENDSEC;
END-ISO-10303-21;
