ISO-10303-21;
HEADER;
FILE_DESCRIPTION (( 'STEP AP203' ),
    '1' );
FILE_NAME ('114-0212E BK7 bi-cv 25.4 F-75.STEP',
    '2019-01-21T06:27:57',
    ( '' ),
    ( '' ),
    'SwSTEP 2.0',
    'SolidWorks 2017',
    '' );
FILE_SCHEMA (( 'CONFIG_CONTROL_DESIGN' ));
ENDSEC;

DATA;
#1 = APPROVAL_PERSON_ORGANIZATION ( #62, #181, #48 ) ;
#2 = CIRCLE ( 'NONE', #9, 12.69999999999999900 ) ;
#3 = CARTESIAN_POINT ( 'NONE',  ( -7.105427357600999500E-015, -4.322614294311701900, 3.343498916435620100 ) ) ;
#4 = ORIENTED_EDGE ( 'NONE', *, *, #43, .F. ) ;
#5 = PERSON_AND_ORGANIZATION_ROLE ( 'classification_officer' ) ;
#6 = APPROVAL_ROLE ( '' ) ;
#7 = CARTESIAN_POINT ( 'NONE',  ( -12.60290013557776600, 12.85102987742212700, 5.793084284548499800 ) ) ;
#8 = CIRCLE ( 'NONE', #278, 78.43999999999999800 ) ;
#9 = AXIS2_PLACEMENT_3D ( 'NONE', #40, #206, #165 ) ;
#10 = DIRECTION ( 'NONE',  ( -1.000000000000000000, 0.0000000000000000000, 0.0000000000000000000 ) ) ;
#11 = EDGE_CURVE ( 'NONE', #229, #287, #190, .T. ) ;
#12 = CARTESIAN_POINT ( 'NONE',  ( 4.224477568233095500, 12.85102987742212700, 4.759869274537944500 ) ) ;
#13 = CARTESIAN_POINT ( 'NONE',  ( -8.434829730165835900, -12.85102987742212800, -1.405043718859578100 ) ) ;
#14 = FACE_OUTER_BOUND ( 'NONE', #108, .T. ) ;
#15 = ADVANCED_FACE ( 'NONE', ( #191 ), #79, .F. ) ;
#16 =( GEOMETRIC_REPRESENTATION_CONTEXT ( 3 ) GLOBAL_UNCERTAINTY_ASSIGNED_CONTEXT ( ( #17 ) ) GLOBAL_UNIT_ASSIGNED_CONTEXT ( ( #119, #144, #143 ) ) REPRESENTATION_CONTEXT ( 'NONE', 'WORKASPACE' ) );
#17 = UNCERTAINTY_MEASURE_WITH_UNIT (LENGTH_MEASURE( 1.000000000000000100E-005 ), #119, 'distance_accuracy_value', 'NONE');
#18 = COORDINATED_UNIVERSAL_TIME_OFFSET ( 2, 0, .AHEAD. ) ;
#19 = DIRECTION ( 'NONE',  ( 1.000000000000000000, 0.0000000000000000000, 0.0000000000000000000 ) ) ;
#20 = DIRECTION ( 'NONE',  ( 0.0000000000000000000, 0.0000000000000000000, 1.000000000000000000 ) ) ;
#21 = EDGE_CURVE ( 'NONE', #204, #140, #234, .T. ) ;
#22 = DIRECTION ( 'NONE',  ( 0.0000000000000000000, 0.0000000000000000000, 1.000000000000000000 ) ) ;
#23 = DIRECTION ( 'NONE',  ( 1.000000000000000000, 0.0000000000000000000, 0.0000000000000000000 ) ) ;
#24 = CC_DESIGN_SECURITY_CLASSIFICATION ( #78, ( #247 ) ) ;
#25 = APPROVAL_STATUS ( 'not_yet_approved' ) ;
#26 = DESIGN_CONTEXT ( 'detailed design', #100, 'design' ) ;
#27 = PERSON_AND_ORGANIZATION_ROLE ( 'design_supplier' ) ;
#28 = CARTESIAN_POINT ( 'NONE',  ( 12.83358434366587100, 4.322614294311707200, 4.395625953345208000 ) ) ;
#29 = CIRCLE ( 'NONE', #166, 12.69999999999999900 ) ;
#30 = CARTESIAN_POINT ( 'NONE',  ( -7.105427357601000300E-015, 0.0000000000000000000, 82.14000000000000100 ) ) ;
#31 = CARTESIAN_POINT ( 'NONE',  ( 1.561251128379126400E-014, -12.85102987742212100, 4.759869274537928500 ) ) ;
#32 = CARTESIAN_POINT ( 'NONE',  ( 7.105427357600998700E-015, 12.69999999999997800, -1.034938150015017000 ) ) ;
#33 = LOCAL_TIME ( 8, 27, 57.00000000000000000, #138 ) ;
#34 = CARTESIAN_POINT ( 'NONE',  ( 12.60290013557778400, 12.85102987742212700, 5.793084284548527300 ) ) ;
#35 = CARTESIAN_POINT ( 'NONE',  ( -4.224477568233094600, -12.85102987742212800, -1.059869274537921000 ) ) ;
#36 = CC_DESIGN_APPROVAL ( #102, ( #247 ) ) ;
#37 = VERTEX_POINT ( 'NONE', #200 ) ;
#38 = ORIENTED_EDGE ( 'NONE', *, *, #65, .F. ) ;
#39 = ORIENTED_EDGE ( 'NONE', *, *, #21, .T. ) ;
#40 = CARTESIAN_POINT ( 'NONE',  ( 4.996003610813200500E-016, 2.442490654175340100E-015, 4.734938150015019600 ) ) ;
#41 = ADVANCED_FACE ( 'NONE', ( #64 ), #149, .T. ) ;
#42 = DIRECTION ( 'NONE',  ( -0.0000000000000000000, -0.0000000000000000000, -1.000000000000000000 ) ) ;
#43 = EDGE_CURVE ( 'NONE', #55, #37, #107, .T. ) ;
#44 = DIRECTION ( 'NONE',  ( 0.0000000000000000000, 1.000000000000000000, 0.0000000000000000000 ) ) ;
#45 = CARTESIAN_POINT ( 'NONE',  ( 4.996003610813200500E-016, 2.442490654175340100E-015, -1.034938150015020100 ) ) ;
#46 = DATE_AND_TIME ( #199, #274 ) ;
#47 = LINE ( 'NONE', #104, #168 ) ;
#48 = APPROVAL_ROLE ( '' ) ;
#49 = CC_DESIGN_APPROVAL ( #91, ( #110 ) ) ;
#50 = CARTESIAN_POINT ( 'NONE',  ( -12.83358434366585500, -4.322614294311701900, 4.395625953345165400 ) ) ;
#51 = EDGE_LOOP ( 'NONE', ( #283, #153, #277 ) ) ;
#52 = CARTESIAN_POINT ( 'NONE',  ( 7.105427357600997900E-015, -4.322614294311709000, 0.3565010835643889200 ) ) ;
#53 = CARTESIAN_POINT ( 'NONE',  ( 4.301802648328165700, 4.322614294311705400, 3.343498916435657400 ) ) ;
#54 = CARTESIAN_POINT ( 'NONE',  ( 4.996003610813200500E-016, 2.442490654175340100E-015, -1.034938150015020100 ) ) ;
#55 = VERTEX_POINT ( 'NONE', #260 ) ;
#56 = CARTESIAN_POINT ( 'NONE',  ( 8.434829730165835900, -12.85102987742212100, 5.105043718859586300 ) ) ;
#57 = EDGE_LOOP ( 'NONE', ( #87, #253, #292 ) ) ;
#58 = CARTESIAN_POINT ( 'NONE',  ( 4.996003610813200500E-016, 2.442490654175340100E-015, 4.734938150015019600 ) ) ;
#59 = CARTESIAN_POINT ( 'NONE',  ( -1.561251128379126400E-014, 12.85102987742211900, -1.059869274537919700 ) ) ;
#60 = SHAPE_DEFINITION_REPRESENTATION ( #67, #95 ) ;
#61 = ORIENTED_EDGE ( 'NONE', *, *, #113, .F. ) ;
#62 = PERSON_AND_ORGANIZATION ( #242, #228 ) ;
#63 = CYLINDRICAL_SURFACE ( 'NONE', #218, 12.69999999999999900 ) ;
#64 = FACE_OUTER_BOUND ( 'NONE', #221, .T. ) ;
#65 = EDGE_CURVE ( 'NONE', #229, #204, #47, .T. ) ;
#66 = DIRECTION ( 'NONE',  ( 0.0000000000000000000, 0.0000000000000000000, 1.000000000000000000 ) ) ;
#67 = PRODUCT_DEFINITION_SHAPE ( 'NONE', 'NONE',  #110 ) ;
#68 = APPROVAL_DATE_TIME ( #291, #91 ) ;
#69 = ORIENTED_EDGE ( 'NONE', *, *, #254, .T. ) ;
#70 = EDGE_LOOP ( 'NONE', ( #61, #196, #248 ) ) ;
#71 = CARTESIAN_POINT ( 'NONE',  ( 4.996003610813200500E-016, 2.442490654175340100E-015, -1.034938150015020100 ) ) ;
#72 = CARTESIAN_POINT ( 'NONE',  ( -7.105427357601000300E-015, -12.85102987742212100, 4.759869274537906300 ) ) ;
#73 = APPLICATION_CONTEXT ( 'configuration controlled 3d designs of mechanical parts and assemblies' ) ;
#74 = APPLICATION_PROTOCOL_DEFINITION ( 'international standard', 'config_control_design', 1994, #100 ) ;
#75 = VECTOR ( 'NONE', #243, 1000.000000000000000 ) ;
#76 = CARTESIAN_POINT ( 'NONE',  ( -8.434829730165819900, 12.85102987742212700, 5.105043718859573900 ) ) ;
#77 = ORIENTED_EDGE ( 'NONE', *, *, #244, .T. ) ;
#78 = SECURITY_CLASSIFICATION ( '', '', #126 ) ;
#79 =( BOUNDED_SURFACE ( )  B_SPLINE_SURFACE ( 3, 3, ( 
 ( #125, #150, #76, #7 ),
 ( #171, #101, #124, #273 ),
 ( #3, #255, #167, #50 ),
 ( #72, #212, #169, #213 ) ),
 .UNSPECIFIED., .F., .F., .F. ) 
 B_SPLINE_SURFACE_WITH_KNOTS ( ( 4, 4 ),
 ( 4, 4 ),
 ( 0.0000000000000000000, 1.000000000000000000 ),
 ( 0.0000000000000000000, 1.000000000000000000 ),
 .UNSPECIFIED. ) 
 GEOMETRIC_REPRESENTATION_ITEM ( )  RATIONAL_B_SPLINE_SURFACE ( (
 ( 1.000000000000000000, 0.9977708634070229200, 0.9977708634070229200, 1.000000000000000000),
 ( 0.9909921020352039400, 0.9887830452772059500, 0.9887830452772059500, 0.9909921020352039400),
 ( 0.9909921020352039400, 0.9887830452772059500, 0.9887830452772059500, 0.9909921020352039400),
 ( 1.000000000000000000, 0.9977708634070229200, 0.9977708634070229200, 1.000000000000000000) ) ) 
 REPRESENTATION_ITEM ( '' )  SURFACE ( )  );
#80 = CARTESIAN_POINT ( 'NONE',  ( 8.589221338107583000, -4.322614294311701000, 3.694991453615611700 ) ) ;
#81 = CARTESIAN_POINT ( 'NONE',  ( 12.83358434366588000, -4.322614294311709000, -0.6956259533451649700 ) ) ;
#82 = CARTESIAN_POINT ( 'NONE',  ( -7.105427357601000300E-015, -12.69999999999997400, 4.734938150015020500 ) ) ;
#83 = CARTESIAN_POINT ( 'NONE',  ( 12.60290013557778500, -12.85102987742212100, 5.793084284548514000 ) ) ;
#84 = CARTESIAN_POINT ( 'NONE',  ( 4.224477568233091100, -12.85102987742212800, -1.059869274537897500 ) ) ;
#85 = FACE_OUTER_BOUND ( 'NONE', #57, .T. ) ;
#86 = CARTESIAN_POINT ( 'NONE',  ( -1.561251128379126400E-014, -4.322614294311709000, 0.3565010835643663300 ) ) ;
#87 = ORIENTED_EDGE ( 'NONE', *, *, #244, .F. ) ;
#88 = LOCAL_TIME ( 8, 27, 57.00000000000000000, #225 ) ;
#89 = ORIENTED_EDGE ( 'NONE', *, *, #266, .T. ) ;
#90 = AXIS2_PLACEMENT_3D ( 'NONE', #252, #189, #268 ) ;
#91 = APPROVAL ( #96, 'UNSPECIFIED' ) ;
#92 = CARTESIAN_POINT ( 'NONE',  ( -1.561251128379126400E-014, -12.85102987742212800, -1.059869274537919700 ) ) ;
#93 = DATE_AND_TIME ( #162, #33 ) ;
#94 = DIRECTION ( 'NONE',  ( 1.000000000000000000, 0.0000000000000000000, 0.0000000000000000000 ) ) ;
#95 = ADVANCED_BREP_SHAPE_REPRESENTATION ( '114-0212E BK7 bi-cv 25.4 F-75', ( #261, #142 ), #16 ) ;
#96 = APPROVAL_STATUS ( 'not_yet_approved' ) ;
#97 = PERSON_AND_ORGANIZATION ( #242, #228 ) ;
#98 = ORIENTED_EDGE ( 'NONE', *, *, #272, .T. ) ;
#99 = APPLICATION_PROTOCOL_DEFINITION ( 'international standard', 'config_control_design', 1994, #73 ) ;
#100 = APPLICATION_CONTEXT ( 'configuration controlled 3d designs of mechanical parts and assemblies' ) ;
#101 = CARTESIAN_POINT ( 'NONE',  ( -4.301802648328152400, 4.322614294311706300, 3.343498916435633900 ) ) ;
#102 = APPROVAL ( #275, 'UNSPECIFIED' ) ;
#103 = CARTESIAN_POINT ( 'NONE',  ( 1.734723475976807100E-014, 4.322614294311706300, 3.343498916435656600 ) ) ;
#104 = CARTESIAN_POINT ( 'NONE',  ( -12.69999999999999900, 3.997792089092478900E-015, -1.034938150015020100 ) ) ;
#105 = DIRECTION ( 'NONE',  ( 0.0000000000000000000, 0.0000000000000000000, 1.000000000000000000 ) ) ;
#106 = AXIS2_PLACEMENT_3D ( 'NONE', #71, #249, #293 ) ;
#107 = LINE ( 'NONE', #131, #75 ) ;
#108 = EDGE_LOOP ( 'NONE', ( #290, #77, #235 ) ) ;
#109 = CARTESIAN_POINT ( 'NONE',  ( -12.83358434366587300, -4.322614294311709000, -0.6956259533451834000 ) ) ;
#110 = PRODUCT_DEFINITION ( 'UNKNOWN', '', #247, #26 ) ;
#111 = CARTESIAN_POINT ( 'NONE',  ( -4.224477568233094600, 12.85102987742211900, -1.059869274537921000 ) ) ;
#112 = CC_DESIGN_PERSON_AND_ORGANIZATION_ASSIGNMENT ( #265, #121, ( #247 ) ) ;
#113 = EDGE_CURVE ( 'NONE', #140, #115, #240, .T. ) ;
#114 = CALENDAR_DATE ( 2019, 21, 1 ) ;
#115 = VERTEX_POINT ( 'NONE', #82 ) ;
#116 = AXIS2_PLACEMENT_3D ( 'NONE', #58, #257, #174 ) ;
#117 = CARTESIAN_POINT ( 'NONE',  ( 0.0000000000000000000, 0.0000000000000000000, 0.0000000000000000000 ) ) ;
#118 = DIRECTION ( 'NONE',  ( 1.000000000000000000, 0.0000000000000000000, 0.0000000000000000000 ) ) ;
#119 =( LENGTH_UNIT ( ) NAMED_UNIT ( * ) SI_UNIT ( .MILLI., .METRE. ) );
#120 = CALENDAR_DATE ( 2019, 21, 1 ) ;
#121 = PERSON_AND_ORGANIZATION_ROLE ( 'creator' ) ;
#122 = AXIS2_PLACEMENT_3D ( 'NONE', #145, #42, #211 ) ;
#123 = FACE_OUTER_BOUND ( 'NONE', #51, .T. ) ;
#124 = CARTESIAN_POINT ( 'NONE',  ( -8.589221338107565300, 4.322614294311706300, 3.694991453615599200 ) ) ;
#125 = CARTESIAN_POINT ( 'NONE',  ( -7.105427357601000300E-015, 12.85102987742212700, 4.759869274537919600 ) ) ;
#126 = SECURITY_CLASSIFICATION_LEVEL ( 'unclassified' ) ;
#127 = CARTESIAN_POINT ( 'NONE',  ( 12.83358434366587100, -4.322614294311701900, 4.395625953345193800 ) ) ;
#128 = CARTESIAN_POINT ( 'NONE',  ( 7.105427357600997900E-015, 4.322614294311700100, 0.3565010835643880300 ) ) ;
#129 = AXIS2_PLACEMENT_3D ( 'NONE', #194, #22, #197 ) ;
#130 = APPROVAL_DATE_TIME ( #93, #102 ) ;
#131 = CARTESIAN_POINT ( 'NONE',  ( 12.69999999999999900, 2.442490654175340100E-015, -1.034938150015020100 ) ) ;
#132 = ORIENTED_EDGE ( 'NONE', *, *, #289, .T. ) ;
#133 = CARTESIAN_POINT ( 'NONE',  ( 12.60290013557779300, 12.85102987742211900, -2.093084284548486300 ) ) ;
#134 = CARTESIAN_POINT ( 'NONE',  ( -4.301802648328165700, -4.322614294311708100, 0.3565010835643650000 ) ) ;
#135 = AXIS2_PLACEMENT_3D ( 'NONE', #54, #178, #219 ) ;
#136 = CARTESIAN_POINT ( 'NONE',  ( -12.60290013557778500, 12.85102987742211900, -2.093084284548504900 ) ) ;
#137 = VERTEX_POINT ( 'NONE', #32 ) ;
#138 = COORDINATED_UNIVERSAL_TIME_OFFSET ( 2, 0, .AHEAD. ) ;
#139 = ORIENTED_EDGE ( 'NONE', *, *, #65, .T. ) ;
#140 = VERTEX_POINT ( 'NONE', #237 ) ;
#141 = CIRCLE ( 'NONE', #106, 12.69999999999999900 ) ;
#142 = AXIS2_PLACEMENT_3D ( 'NONE', #117, #66, #23 ) ;
#143 =( NAMED_UNIT ( * ) SI_UNIT ( $, .STERADIAN. ) SOLID_ANGLE_UNIT ( ) );
#144 =( NAMED_UNIT ( * ) PLANE_ANGLE_UNIT ( ) SI_UNIT ( $, .RADIAN. ) );
#145 = CARTESIAN_POINT ( 'NONE',  ( 4.996003610813200500E-016, 2.442490654175340100E-015, 4.734938150015019600 ) ) ;
#146 = APPROVAL_PERSON_ORGANIZATION ( #164, #102, #6 ) ;
#147 = DIRECTION ( 'NONE',  ( 0.0000000000000000000, 0.0000000000000000000, 1.000000000000000000 ) ) ;
#148 = DATE_TIME_ROLE ( 'classification_date' ) ;
#149 = CYLINDRICAL_SURFACE ( 'NONE', #135, 12.69999999999999900 ) ;
#150 = CARTESIAN_POINT ( 'NONE',  ( -4.224477568233082200, 12.85102987742212700, 4.759869274537919600 ) ) ;
#151 = CARTESIAN_POINT ( 'NONE',  ( 8.434829730165835900, 12.85102987742212700, 5.105043718859600500 ) ) ;
#152 = PERSON_AND_ORGANIZATION ( #242, #228 ) ;
#153 = ORIENTED_EDGE ( 'NONE', *, *, #113, .T. ) ;
#154 =( BOUNDED_SURFACE ( )  B_SPLINE_SURFACE ( 3, 3, ( 
 ( #175, #262, #217, #133 ),
 ( #128, #282, #155, #279 ),
 ( #52, #156, #202, #81 ),
 ( #220, #84, #216, #245 ) ),
 .UNSPECIFIED., .F., .F., .F. ) 
 B_SPLINE_SURFACE_WITH_KNOTS ( ( 4, 4 ),
 ( 4, 4 ),
 ( 0.0000000000000000000, 1.000000000000000000 ),
 ( 0.0000000000000000000, 1.000000000000000000 ),
 .UNSPECIFIED. ) 
 GEOMETRIC_REPRESENTATION_ITEM ( )  RATIONAL_B_SPLINE_SURFACE ( (
 ( 1.000000000000000000, 0.9977708634070229200, 0.9977708634070229200, 1.000000000000000000),
 ( 0.9909921020352039400, 0.9887830452772059500, 0.9887830452772059500, 0.9909921020352039400),
 ( 0.9909921020352039400, 0.9887830452772059500, 0.9887830452772059500, 0.9909921020352039400),
 ( 1.000000000000000000, 0.9977708634070229200, 0.9977708634070229200, 1.000000000000000000) ) ) 
 REPRESENTATION_ITEM ( '' )  SURFACE ( )  );
#155 = CARTESIAN_POINT ( 'NONE',  ( 8.589221338107586600, 4.322614294311699200, 0.005008546384416256600 ) ) ;
#156 = CARTESIAN_POINT ( 'NONE',  ( 4.301802648328162200, -4.322614294311708100, 0.3565010835643889200 ) ) ;
#157 = CIRCLE ( 'NONE', #90, 12.69999999999999900 ) ;
#158 = CARTESIAN_POINT ( 'NONE',  ( -12.60290013557778500, -12.85102987742212800, -2.093084284548504900 ) ) ;
#159 = ORIENTED_EDGE ( 'NONE', *, *, #284, .T. ) ;
#160 = CARTESIAN_POINT ( 'NONE',  ( -12.83358434366587300, 4.322614294311700100, -0.6956259533451840700 ) ) ;
#161 = CC_DESIGN_PERSON_AND_ORGANIZATION_ASSIGNMENT ( #188, #193, ( #110 ) ) ;
#162 = CALENDAR_DATE ( 2019, 21, 1 ) ;
#163 = ADVANCED_FACE ( 'NONE', ( #123 ), #183, .F. ) ;
#164 = PERSON_AND_ORGANIZATION ( #242, #228 ) ;
#165 = DIRECTION ( 'NONE',  ( 1.000000000000000000, 0.0000000000000000000, 0.0000000000000000000 ) ) ;
#166 = AXIS2_PLACEMENT_3D ( 'NONE', #207, #147, #94 ) ;
#167 = CARTESIAN_POINT ( 'NONE',  ( -8.589221338107568800, -4.322614294311701000, 3.694991453615585500 ) ) ;
#168 = VECTOR ( 'NONE', #105, 1000.000000000000000 ) ;
#169 = CARTESIAN_POINT ( 'NONE',  ( -8.434829730165821700, -12.85102987742212100, 5.105043718859561400 ) ) ;
#170 = ORIENTED_EDGE ( 'NONE', *, *, #236, .T. ) ;
#171 = CARTESIAN_POINT ( 'NONE',  ( -7.105427357600999500E-015, 4.322614294311707200, 3.343498916435634300 ) ) ;
#172 = MECHANICAL_CONTEXT ( 'NONE', #73, 'mechanical' ) ;
#173 = CC_DESIGN_APPROVAL ( #181, ( #78 ) ) ;
#174 = DIRECTION ( 'NONE',  ( 1.000000000000000000, 8.881784197001252300E-016, 0.0000000000000000000 ) ) ;
#175 = CARTESIAN_POINT ( 'NONE',  ( 7.105427357600998700E-015, 12.85102987742211900, -1.059869274537897300 ) ) ;
#176 = LOCAL_TIME ( 8, 27, 57.00000000000000000, #18 ) ;
#177 = CARTESIAN_POINT ( 'NONE',  ( 4.301802648328163900, -4.322614294311701900, 3.343498916435643700 ) ) ;
#178 = DIRECTION ( 'NONE',  ( 0.0000000000000000000, 0.0000000000000000000, 1.000000000000000000 ) ) ;
#179 = CARTESIAN_POINT ( 'NONE',  ( -1.561251128379126400E-014, 4.322614294311700100, 0.3565010835643657700 ) ) ;
#180 = CLOSED_SHELL ( 'NONE', ( #205, #163, #226, #185, #41, #15 ) ) ;
#181 = APPROVAL ( #25, 'UNSPECIFIED' ) ;
#182 = APPROVAL_DATE_TIME ( #259, #181 ) ;
#183 =( BOUNDED_SURFACE ( )  B_SPLINE_SURFACE ( 3, 3, ( 
 ( #34, #151, #12, #201 ),
 ( #28, #258, #53, #103 ),
 ( #127, #80, #177, #239 ),
 ( #83, #56, #280, #31 ) ),
 .UNSPECIFIED., .F., .F., .F. ) 
 B_SPLINE_SURFACE_WITH_KNOTS ( ( 4, 4 ),
 ( 4, 4 ),
 ( 0.0000000000000000000, 1.000000000000000000 ),
 ( 0.0000000000000000000, 1.000000000000000000 ),
 .UNSPECIFIED. ) 
 GEOMETRIC_REPRESENTATION_ITEM ( )  RATIONAL_B_SPLINE_SURFACE ( (
 ( 1.000000000000000000, 0.9977708634070229200, 0.9977708634070229200, 1.000000000000000000),
 ( 0.9909921020352039400, 0.9887830452772059500, 0.9887830452772059500, 0.9909921020352039400),
 ( 0.9909921020352039400, 0.9887830452772059500, 0.9887830452772059500, 0.9909921020352039400),
 ( 1.000000000000000000, 0.9977708634070229200, 0.9977708634070229200, 1.000000000000000000) ) ) 
 REPRESENTATION_ITEM ( '' )  SURFACE ( )  );
#184 = CALENDAR_DATE ( 2019, 21, 1 ) ;
#185 = ADVANCED_FACE ( 'NONE', ( #85 ), #154, .F. ) ;
#186 = CARTESIAN_POINT ( 'NONE',  ( 7.105427357600998700E-015, -12.69999999999997400, -1.034938150015017000 ) ) ;
#187 = DIRECTION ( 'NONE',  ( 0.0000000000000000000, 0.0000000000000000000, 1.000000000000000000 ) ) ;
#188 = PERSON_AND_ORGANIZATION ( #242, #228 ) ;
#189 = DIRECTION ( 'NONE',  ( -0.0000000000000000000, -0.0000000000000000000, -1.000000000000000000 ) ) ;
#190 = CIRCLE ( 'NONE', #129, 12.69999999999999900 ) ;
#191 = FACE_OUTER_BOUND ( 'NONE', #70, .T. ) ;
#192 = DATE_TIME_ROLE ( 'creation_date' ) ;
#193 = PERSON_AND_ORGANIZATION_ROLE ( 'creator' ) ;
#194 = CARTESIAN_POINT ( 'NONE',  ( 4.996003610813200500E-016, 2.442490654175340100E-015, -1.034938150015020100 ) ) ;
#195 = FACE_OUTER_BOUND ( 'NONE', #264, .T. ) ;
#196 = ORIENTED_EDGE ( 'NONE', *, *, #21, .F. ) ;
#197 = DIRECTION ( 'NONE',  ( 1.000000000000000000, 0.0000000000000000000, 0.0000000000000000000 ) ) ;
#198 = CC_DESIGN_PERSON_AND_ORGANIZATION_ASSIGNMENT ( #209, #27, ( #247 ) ) ;
#199 = CALENDAR_DATE ( 2019, 21, 1 ) ;
#200 = CARTESIAN_POINT ( 'NONE',  ( 12.69999999999999900, 2.442490654175340100E-015, 4.734938150015019600 ) ) ;
#201 = CARTESIAN_POINT ( 'NONE',  ( 1.734723475976807100E-014, 12.85102987742212700, 4.759869274537942700 ) ) ;
#202 = CARTESIAN_POINT ( 'NONE',  ( 8.589221338107584800, -4.322614294311708100, 0.005008546384417124900 ) ) ;
#203 = AXIS2_PLACEMENT_3D ( 'NONE', #45, #187, #118 ) ;
#204 = VERTEX_POINT ( 'NONE', #246 ) ;
#205 = ADVANCED_FACE ( 'NONE', ( #14 ), #294, .F. ) ;
#206 = DIRECTION ( 'NONE',  ( -0.0000000000000000000, -0.0000000000000000000, -1.000000000000000000 ) ) ;
#207 = CARTESIAN_POINT ( 'NONE',  ( 4.996003610813200500E-016, 2.442490654175340100E-015, -1.034938150015020100 ) ) ;
#208 = AXIS2_PLACEMENT_3D ( 'NONE', #30, #10, #281 ) ;
#209 = PERSON_AND_ORGANIZATION ( #242, #228 ) ;
#210 = CIRCLE ( 'NONE', #122, 12.69999999999999900 ) ;
#211 = DIRECTION ( 'NONE',  ( 1.000000000000000000, 0.0000000000000000000, 0.0000000000000000000 ) ) ;
#212 = CARTESIAN_POINT ( 'NONE',  ( -4.224477568233083100, -12.85102987742212100, 4.759869274537906300 ) ) ;
#213 = CARTESIAN_POINT ( 'NONE',  ( -12.60290013557776900, -12.85102987742212100, 5.793084284548485600 ) ) ;
#214 = PRODUCT_RELATED_PRODUCT_CATEGORY ( 'detail', '', ( #256 ) ) ;
#215 = APPROVAL_PERSON_ORGANIZATION ( #97, #91, #231 ) ;
#216 = CARTESIAN_POINT ( 'NONE',  ( 8.434829730165839500, -12.85102987742212800, -1.405043718859559300 ) ) ;
#217 = CARTESIAN_POINT ( 'NONE',  ( 8.434829730165839500, 12.85102987742211900, -1.405043718859559300 ) ) ;
#218 = AXIS2_PLACEMENT_3D ( 'NONE', #271, #20, #19 ) ;
#219 = DIRECTION ( 'NONE',  ( 1.000000000000000000, 0.0000000000000000000, 0.0000000000000000000 ) ) ;
#220 = CARTESIAN_POINT ( 'NONE',  ( 7.105427357600998700E-015, -12.85102987742212800, -1.059869274537897300 ) ) ;
#221 = EDGE_LOOP ( 'NONE', ( #38, #224, #132, #241, #159, #98 ) ) ;
#222 = CARTESIAN_POINT ( 'NONE',  ( -8.589221338107583000, 4.322614294311699200, 0.005008546384397500800 ) ) ;
#223 = COORDINATED_UNIVERSAL_TIME_OFFSET ( 2, 0, .AHEAD. ) ;
#224 = ORIENTED_EDGE ( 'NONE', *, *, #11, .T. ) ;
#225 = COORDINATED_UNIVERSAL_TIME_OFFSET ( 2, 0, .AHEAD. ) ;
#226 = ADVANCED_FACE ( 'NONE', ( #195 ), #63, .T. ) ;
#227 = CC_DESIGN_PERSON_AND_ORGANIZATION_ASSIGNMENT ( #152, #5, ( #78 ) ) ;
#228 = ORGANIZATION ( 'UNSPECIFIED', 'UNSPECIFIED', '' ) ;
#229 = VERTEX_POINT ( 'NONE', #269 ) ;
#230 = CARTESIAN_POINT ( 'NONE',  ( 7.105427357601000300E-015, 0.0000000000000000000, -78.43999999999999800 ) ) ;
#231 = APPROVAL_ROLE ( '' ) ;
#232 = PERSON_AND_ORGANIZATION_ROLE ( 'design_owner' ) ;
#233 = PERSON_AND_ORGANIZATION ( #242, #228 ) ;
#234 = CIRCLE ( 'NONE', #116, 12.69999999999999900 ) ;
#235 = ORIENTED_EDGE ( 'NONE', *, *, #11, .F. ) ;
#236 = EDGE_CURVE ( 'NONE', #140, #37, #157, .T. ) ;
#237 = CARTESIAN_POINT ( 'NONE',  ( -7.105427357601000300E-015, 12.69999999999997800, 4.734938150015020500 ) ) ;
#238 = LOCAL_TIME ( 8, 27, 57.00000000000000000, #276 ) ;
#239 = CARTESIAN_POINT ( 'NONE',  ( 1.387778780781445700E-014, -4.322614294311702700, 3.343498916435643200 ) ) ;
#240 = CIRCLE ( 'NONE', #208, 78.43999999999999800 ) ;
#241 = ORIENTED_EDGE ( 'NONE', *, *, #43, .T. ) ;
#242 = PERSON ( 'UNSPECIFIED', 'UNSPECIFIED', 'UNSPECIFIED', ('UNSPECIFIED'), ('UNSPECIFIED'), ('UNSPECIFIED') ) ;
#243 = DIRECTION ( 'NONE',  ( 0.0000000000000000000, 0.0000000000000000000, 1.000000000000000000 ) ) ;
#244 = EDGE_CURVE ( 'NONE', #137, #287, #8, .T. ) ;
#245 = CARTESIAN_POINT ( 'NONE',  ( 12.60290013557779300, -12.85102987742212800, -2.093084284548486300 ) ) ;
#246 = CARTESIAN_POINT ( 'NONE',  ( -12.69999999999999900, 3.997792089092478900E-015, 4.734938150015019600 ) ) ;
#247 = PRODUCT_DEFINITION_FORMATION_WITH_SPECIFIED_SOURCE ( 'ANY', '', #256, .NOT_KNOWN. ) ;
#248 = ORIENTED_EDGE ( 'NONE', *, *, #272, .F. ) ;
#249 = DIRECTION ( 'NONE',  ( 0.0000000000000000000, 0.0000000000000000000, 1.000000000000000000 ) ) ;
#250 = CC_DESIGN_DATE_AND_TIME_ASSIGNMENT ( #46, #192, ( #110 ) ) ;
#251 = CIRCLE ( 'NONE', #203, 12.69999999999999900 ) ;
#252 = CARTESIAN_POINT ( 'NONE',  ( 4.996003610813200500E-016, 2.442490654175340100E-015, 4.734938150015019600 ) ) ;
#253 = ORIENTED_EDGE ( 'NONE', *, *, #254, .F. ) ;
#254 = EDGE_CURVE ( 'NONE', #55, #137, #251, .T. ) ;
#255 = CARTESIAN_POINT ( 'NONE',  ( -4.301802648328152400, -4.322614294311701000, 3.343498916435619700 ) ) ;
#256 = PRODUCT ( '114-0212E BK7 bi-cv 25.4 F-75', '114-0212E BK7 bi-cv 25.4 F-75', '', ( #172 ) ) ;
#257 = DIRECTION ( 'NONE',  ( -0.0000000000000000000, -0.0000000000000000000, -1.000000000000000000 ) ) ;
#258 = CARTESIAN_POINT ( 'NONE',  ( 8.589221338107583000, 4.322614294311706300, 3.694991453615625000 ) ) ;
#259 = DATE_AND_TIME ( #114, #88 ) ;
#260 = CARTESIAN_POINT ( 'NONE',  ( 12.69999999999999900, 2.442490654175340100E-015, -1.034938150015020100 ) ) ;
#261 = MANIFOLD_SOLID_BREP ( 'Imported1', #180 ) ;
#262 = CARTESIAN_POINT ( 'NONE',  ( 4.224477568233091100, 12.85102987742211900, -1.059869274537897500 ) ) ;
#263 = CARTESIAN_POINT ( 'NONE',  ( -8.589221338107583000, -4.322614294311708100, 0.005008546384398149600 ) ) ;
#264 = EDGE_LOOP ( 'NONE', ( #69, #89, #139, #39, #170, #4 ) ) ;
#265 = PERSON_AND_ORGANIZATION ( #242, #228 ) ;
#266 = EDGE_CURVE ( 'NONE', #137, #229, #141, .T. ) ;
#267 = DATE_AND_TIME ( #184, #176 ) ;
#268 = DIRECTION ( 'NONE',  ( 1.000000000000000000, -8.881784197001252300E-016, 0.0000000000000000000 ) ) ;
#269 = CARTESIAN_POINT ( 'NONE',  ( -12.69999999999999900, 3.997792089092478900E-015, -1.034938150015020100 ) ) ;
#270 = CC_DESIGN_DATE_AND_TIME_ASSIGNMENT ( #267, #148, ( #78 ) ) ;
#271 = CARTESIAN_POINT ( 'NONE',  ( 4.996003610813200500E-016, 2.442490654175340100E-015, -1.034938150015020100 ) ) ;
#272 = EDGE_CURVE ( 'NONE', #115, #204, #210, .T. ) ;
#273 = CARTESIAN_POINT ( 'NONE',  ( -12.83358434366585000, 4.322614294311707200, 4.395625953345180500 ) ) ;
#274 = LOCAL_TIME ( 8, 27, 57.00000000000000000, #223 ) ;
#275 = APPROVAL_STATUS ( 'not_yet_approved' ) ;
#276 = COORDINATED_UNIVERSAL_TIME_OFFSET ( 2, 0, .AHEAD. ) ;
#277 = ORIENTED_EDGE ( 'NONE', *, *, #284, .F. ) ;
#278 = AXIS2_PLACEMENT_3D ( 'NONE', #230, #295, #44 ) ;
#279 = CARTESIAN_POINT ( 'NONE',  ( 12.83358434366588000, 4.322614294311700100, -0.6956259533451658600 ) ) ;
#280 = CARTESIAN_POINT ( 'NONE',  ( 4.224477568233094600, -12.85102987742212100, 4.759869274537929400 ) ) ;
#281 = DIRECTION ( 'NONE',  ( 0.0000000000000000000, 1.000000000000000000, -3.538446661859882200E-016 ) ) ;
#282 = CARTESIAN_POINT ( 'NONE',  ( 4.301802648328162200, 4.322614294311699200, 0.3565010835643880300 ) ) ;
#283 = ORIENTED_EDGE ( 'NONE', *, *, #236, .F. ) ;
#284 = EDGE_CURVE ( 'NONE', #37, #115, #2, .T. ) ;
#285 = CARTESIAN_POINT ( 'NONE',  ( -4.301802648328164800, 4.322614294311699200, 0.3565010835643644400 ) ) ;
#286 = CARTESIAN_POINT ( 'NONE',  ( -8.434829730165835900, 12.85102987742211900, -1.405043718859578100 ) ) ;
#287 = VERTEX_POINT ( 'NONE', #186 ) ;
#288 = CC_DESIGN_PERSON_AND_ORGANIZATION_ASSIGNMENT ( #233, #232, ( #256 ) ) ;
#289 = EDGE_CURVE ( 'NONE', #287, #55, #29, .T. ) ;
#290 = ORIENTED_EDGE ( 'NONE', *, *, #266, .F. ) ;
#291 = DATE_AND_TIME ( #120, #238 ) ;
#292 = ORIENTED_EDGE ( 'NONE', *, *, #289, .F. ) ;
#293 = DIRECTION ( 'NONE',  ( 1.000000000000000000, 0.0000000000000000000, 0.0000000000000000000 ) ) ;
#294 =( BOUNDED_SURFACE ( )  B_SPLINE_SURFACE ( 3, 3, ( 
 ( #136, #286, #111, #59 ),
 ( #160, #222, #285, #179 ),
 ( #109, #263, #134, #86 ),
 ( #158, #13, #35, #92 ) ),
 .UNSPECIFIED., .F., .F., .F. ) 
 B_SPLINE_SURFACE_WITH_KNOTS ( ( 4, 4 ),
 ( 4, 4 ),
 ( 0.0000000000000000000, 1.000000000000000000 ),
 ( 0.0000000000000000000, 1.000000000000000000 ),
 .UNSPECIFIED. ) 
 GEOMETRIC_REPRESENTATION_ITEM ( )  RATIONAL_B_SPLINE_SURFACE ( (
 ( 1.000000000000000000, 0.9977708634070229200, 0.9977708634070229200, 1.000000000000000000),
 ( 0.9909921020352039400, 0.9887830452772059500, 0.9887830452772059500, 0.9909921020352039400),
 ( 0.9909921020352039400, 0.9887830452772059500, 0.9887830452772059500, 0.9909921020352039400),
 ( 1.000000000000000000, 0.9977708634070229200, 0.9977708634070229200, 1.000000000000000000) ) ) 
 REPRESENTATION_ITEM ( '' )  SURFACE ( )  );
#295 = DIRECTION ( 'NONE',  ( 1.000000000000000000, 0.0000000000000000000, 0.0000000000000000000 ) ) ;
ENDSEC;
END-ISO-10303-21;
