ISO-10303-21;
HEADER;
FILE_DESCRIPTION (( 'STEP AP203' ),
    '1' );
FILE_NAME ('114-0210E BK7 bi-cv 25.4 F-60.STEP',
    '2019-01-21T06:20:47',
    ( '' ),
    ( '' ),
    'SwSTEP 2.0',
    'SolidWorks 2017',
    '' );
FILE_SCHEMA (( 'CONFIG_CONTROL_DESIGN' ));
ENDSEC;

DATA;
#1 = APPROVAL_DATE_TIME ( #252, #157 ) ;
#2 =( BOUNDED_SURFACE ( )  B_SPLINE_SURFACE ( 3, 3, ( 
 ( #174, #118, #39, #160 ),
 ( #139, #292, #137, #17 ),
 ( #197, #175, #37, #98 ),
 ( #178, #144, #21, #99 ) ),
 .UNSPECIFIED., .F., .F., .F. ) 
 B_SPLINE_SURFACE_WITH_KNOTS ( ( 4, 4 ),
 ( 4, 4 ),
 ( 0.0000000000000000000, 1.000000000000000000 ),
 ( 0.0000000000000000000, 1.000000000000000000 ),
 .UNSPECIFIED. ) 
 GEOMETRIC_REPRESENTATION_ITEM ( )  RATIONAL_B_SPLINE_SURFACE ( (
 ( 1.000000000000000000, 0.9964934727922886100, 0.9964934727922886100, 1.000000000000000000),
 ( 0.9858440061304026800, 0.9823871173003472200, 0.9823871173003472200, 0.9858440061304026800),
 ( 0.9858440061304026800, 0.9823871173003472200, 0.9823871173003472200, 0.9858440061304026800),
 ( 1.000000000000000000, 0.9964934727922886100, 0.9964934727922886100, 1.000000000000000000) ) ) 
 REPRESENTATION_ITEM ( '' )  SURFACE ( )  );
#3 = CARTESIAN_POINT ( 'NONE',  ( -4.204737016218037300, -12.85024189824823000, 3.931158883527596800 ) ) ;
#4 = CC_DESIGN_PERSON_AND_ORGANIZATION_ASSIGNMENT ( #38, #232, ( #229 ) ) ;
#5 = EDGE_CURVE ( 'NONE', #243, #101, #55, .T. ) ;
#6 = CARTESIAN_POINT ( 'NONE',  ( -1.163941475474094600E-014, -4.344920635969415900, 2.149908885094114800 ) ) ;
#7 = EDGE_LOOP ( 'NONE', ( #210, #126, #224 ) ) ;
#8 = APPLICATION_PROTOCOL_DEFINITION ( 'international standard', 'config_control_design', 1994, #110 ) ;
#9 =( LENGTH_UNIT ( ) NAMED_UNIT ( * ) SI_UNIT ( .MILLI., .METRE. ) );
#10 = APPLICATION_CONTEXT ( 'configuration controlled 3d designs of mechanical parts and assemblies' ) ;
#11 = CC_DESIGN_APPROVAL ( #161, ( #66 ) ) ;
#12 = DIRECTION ( 'NONE',  ( 0.0000000000000000000, 0.0000000000000000000, 1.000000000000000000 ) ) ;
#13 = FACE_OUTER_BOUND ( 'NONE', #121, .T. ) ;
#14 = ORIENTED_EDGE ( 'NONE', *, *, #90, .T. ) ;
#15 = DIRECTION ( 'NONE',  ( 0.0000000000000000000, 0.0000000000000000000, 1.000000000000000000 ) ) ;
#16 = DIRECTION ( 'NONE',  ( -0.0000000000000000000, -0.0000000000000000000, -1.000000000000000000 ) ) ;
#17 = CARTESIAN_POINT ( 'NONE',  ( 12.86685125123296400, 4.344920635969413200, -0.8748299777695102100 ) ) ;
#18 = CC_DESIGN_SECURITY_CLASSIFICATION ( #229, ( #145 ) ) ;
#19 = CARTESIAN_POINT ( 'NONE',  ( 8.387357995313117000, 12.85024189824823000, 4.361850328517976800 ) ) ;
#20 = CARTESIAN_POINT ( 'NONE',  ( 4.996003610813200500E-016, 2.442490654175340100E-015, 3.899885975020380300 ) ) ;
#21 = CARTESIAN_POINT ( 'NONE',  ( 8.387357995313104600, -12.85024189824823000, -1.761850328517961400 ) ) ;
#22 = CARTESIAN_POINT ( 'NONE',  ( 8.387357995313124100, -12.85024189824822600, 4.361850328517976800 ) ) ;
#23 = CARTESIAN_POINT ( 'NONE',  ( 0.0000000000000000000, 12.85024189824822800, -1.331158883527595100 ) ) ;
#24 = CARTESIAN_POINT ( 'NONE',  ( -3.469446951953614200E-015, 4.344920635969416800, 0.4500911149058866000 ) ) ;
#25 = PERSON_AND_ORGANIZATION ( #222, #26 ) ;
#26 = ORGANIZATION ( 'UNSPECIFIED', 'UNSPECIFIED', '' ) ;
#27 = CARTESIAN_POINT ( 'NONE',  ( -4.326800726471862600, -4.344920635969415000, 2.149908885094115300 ) ) ;
#28 = APPROVAL ( #256, 'UNSPECIFIED' ) ;
#29 = EDGE_CURVE ( 'NONE', #128, #243, #79, .T. ) ;
#30 = PERSON_AND_ORGANIZATION_ROLE ( 'design_owner' ) ;
#31 = EDGE_LOOP ( 'NONE', ( #112, #218, #195 ) ) ;
#32 = CARTESIAN_POINT ( 'NONE',  ( -12.69999999999999900, 3.997792089092478900E-015, -1.299885975020379900 ) ) ;
#33 = CALENDAR_DATE ( 2019, 21, 1 ) ;
#34 = DIRECTION ( 'NONE',  ( 2.317640452052330200E-016, 1.000000000000000000, 0.0000000000000000000 ) ) ;
#35 = ORIENTED_EDGE ( 'NONE', *, *, #241, .F. ) ;
#36 = ORIENTED_EDGE ( 'NONE', *, *, #91, .F. ) ;
#37 = CARTESIAN_POINT ( 'NONE',  ( 8.630843386239140700, -4.344920635969415900, 0.006896677327081518500 ) ) ;
#38 = PERSON_AND_ORGANIZATION ( #222, #26 ) ;
#39 = CARTESIAN_POINT ( 'NONE',  ( 8.387357995313113400, 12.85024189824822600, -1.761850328517961400 ) ) ;
#40 = CARTESIAN_POINT ( 'NONE',  ( 12.86685125123298500, -4.344920635969412400, 3.474829977769530400 ) ) ;
#41 = CARTESIAN_POINT ( 'NONE',  ( 12.86685125123298200, 4.344920635969419500, 3.474829977769529500 ) ) ;
#42 = CIRCLE ( 'NONE', #230, 12.69999999999999900 ) ;
#43 = ORIENTED_EDGE ( 'NONE', *, *, #120, .F. ) ;
#44 = CARTESIAN_POINT ( 'NONE',  ( 4.326800726471868900, -4.344920635969413200, 2.149908885094119300 ) ) ;
#45 = DIRECTION ( 'NONE',  ( 0.0000000000000000000, 0.0000000000000000000, 1.000000000000000000 ) ) ;
#46 = PERSON_AND_ORGANIZATION ( #222, #26 ) ;
#47 = CARTESIAN_POINT ( 'NONE',  ( -8.630843386239140700, -4.344920635969416800, 2.593103322672923600 ) ) ;
#48 = CC_DESIGN_DATE_AND_TIME_ASSIGNMENT ( #234, #261, ( #66 ) ) ;
#49 = FACE_OUTER_BOUND ( 'NONE', #135, .T. ) ;
#50 = DESIGN_CONTEXT ( 'detailed design', #10, 'design' ) ;
#51 = CARTESIAN_POINT ( 'NONE',  ( -12.86685125123296200, 4.344920635969412400, 3.474829977769515300 ) ) ;
#52 = EDGE_CURVE ( 'NONE', #71, #281, #59, .T. ) ;
#53 = CARTESIAN_POINT ( 'NONE',  ( -1.365340752011688000E-014, 4.344920635969415900, 2.149908885094113900 ) ) ;
#54 = ADVANCED_FACE ( 'NONE', ( #49 ), #104, .T. ) ;
#55 = CIRCLE ( 'NONE', #294, 62.68999999999999800 ) ;
#56 = APPROVAL_STATUS ( 'not_yet_approved' ) ;
#57 = DIRECTION ( 'NONE',  ( 1.000000000000000000, 0.0000000000000000000, 0.0000000000000000000 ) ) ;
#58 = CARTESIAN_POINT ( 'NONE',  ( -12.69999999999999900, 3.997792089092478900E-015, 3.899885975020380300 ) ) ;
#59 = CIRCLE ( 'NONE', #60, 62.68999999999999800 ) ;
#60 = AXIS2_PLACEMENT_3D ( 'NONE', #84, #136, #34 ) ;
#61 = CARTESIAN_POINT ( 'NONE',  ( -4.204737016218043500, -12.85024189824822600, -1.331158883527594500 ) ) ;
#62 = DIRECTION ( 'NONE',  ( -0.0000000000000000000, -0.0000000000000000000, -1.000000000000000000 ) ) ;
#63 = CIRCLE ( 'NONE', #246, 12.69999999999999900 ) ;
#64 = AXIS2_PLACEMENT_3D ( 'NONE', #113, #62, #263 ) ;
#65 = CARTESIAN_POINT ( 'NONE',  ( 4.996003610813200500E-016, 2.442490654175340100E-015, -1.299885975020379900 ) ) ;
#66 = PRODUCT_DEFINITION ( 'UNKNOWN', '', #145, #50 ) ;
#67 = CIRCLE ( 'NONE', #181, 12.69999999999999900 ) ;
#68 = CARTESIAN_POINT ( 'NONE',  ( -8.387357995313111700, 12.85024189824822600, 4.361850328517966200 ) ) ;
#69 = CARTESIAN_POINT ( 'NONE',  ( 4.204737016218045300, -12.85024189824822600, 3.931158883527600300 ) ) ;
#70 = CARTESIAN_POINT ( 'NONE',  ( 12.69999999999999900, 2.442490654175340100E-015, -1.299885975020379900 ) ) ;
#71 = VERTEX_POINT ( 'NONE', #171 ) ;
#72 = CARTESIAN_POINT ( 'NONE',  ( -9.311418209605062000E-015, -12.85024189824822800, 3.931158883527595500 ) ) ;
#73 = AXIS2_PLACEMENT_3D ( 'NONE', #119, #143, #165 ) ;
#74 = CARTESIAN_POINT ( 'NONE',  ( -4.204737016218037300, 12.85024189824823000, -1.331158883527595400 ) ) ;
#75 = CARTESIAN_POINT ( 'NONE',  ( -6.938893903907228400E-015, -4.344920635969415000, 0.4500911149058866000 ) ) ;
#76 = CARTESIAN_POINT ( 'NONE',  ( 0.0000000000000000000, -3.552713678800500100E-015, 65.29000000000000600 ) ) ;
#77 = COORDINATED_UNIVERSAL_TIME_OFFSET ( 2, 0, .AHEAD. ) ;
#78 = CC_DESIGN_APPROVAL ( #157, ( #145 ) ) ;
#79 = CIRCLE ( 'NONE', #64, 12.69999999999999900 ) ;
#80 = ORIENTED_EDGE ( 'NONE', *, *, #133, .F. ) ;
#81 = SECURITY_CLASSIFICATION_LEVEL ( 'unclassified' ) ;
#82 = DATE_AND_TIME ( #117, #88 ) ;
#83 = DIRECTION ( 'NONE',  ( 0.0000000000000000000, 0.0000000000000000000, 1.000000000000000000 ) ) ;
#84 = CARTESIAN_POINT ( 'NONE',  ( 0.0000000000000000000, -3.552713678800500100E-015, -62.68999999999999800 ) ) ;
#85 = PRODUCT_RELATED_PRODUCT_CATEGORY ( 'detail', '', ( #92 ) ) ;
#86 = PERSON_AND_ORGANIZATION_ROLE ( 'creator' ) ;
#87 = CARTESIAN_POINT ( 'NONE',  ( 4.996003610813200500E-016, 2.442490654175340100E-015, -1.299885975020379900 ) ) ;
#88 = LOCAL_TIME ( 8, 20, 47.00000000000000000, #148 ) ;
#89 = ORIENTED_EDGE ( 'NONE', *, *, #29, .T. ) ;
#90 = EDGE_CURVE ( 'NONE', #281, #253, #176, .T. ) ;
#91 = EDGE_CURVE ( 'NONE', #238, #281, #141, .T. ) ;
#92 = PRODUCT ( '114-0210E BK7 bi-cv 25.4 F-60', '114-0210E BK7 bi-cv 25.4 F-60', '', ( #258 ) ) ;
#93 = MANIFOLD_SOLID_BREP ( 'Imported1', #244 ) ;
#94 = DATE_AND_TIME ( #194, #205 ) ;
#95 = SHAPE_DEFINITION_REPRESENTATION ( #215, #211 ) ;
#96 = CARTESIAN_POINT ( 'NONE',  ( 3.469446951953614200E-015, 4.344920635969415900, 2.149908885094118800 ) ) ;
#97 = CC_DESIGN_PERSON_AND_ORGANIZATION_ASSIGNMENT ( #286, #189, ( #145 ) ) ;
#98 = CARTESIAN_POINT ( 'NONE',  ( 12.86685125123296200, -4.344920635969418600, -0.8748299777695111000 ) ) ;
#99 = CARTESIAN_POINT ( 'NONE',  ( 12.50386351449699000, -12.85024189824823200, -2.618702524688744800 ) ) ;
#100 = CARTESIAN_POINT ( 'NONE',  ( 1.734723475976807100E-015, 12.85024189824822800, 3.931158883527600800 ) ) ;
#101 = VERTEX_POINT ( 'NONE', #159 ) ;
#102 = CARTESIAN_POINT ( 'NONE',  ( -12.69999999999999900, 3.997792089092478900E-015, -1.299885975020379900 ) ) ;
#103 = CARTESIAN_POINT ( 'NONE',  ( -8.630843386239149600, 4.344920635969416800, 0.006896677327071867300 ) ) ;
#104 = CYLINDRICAL_SURFACE ( 'NONE', #151, 12.69999999999999900 ) ;
#105 = CARTESIAN_POINT ( 'NONE',  ( -8.387357995313102800, -12.85024189824823000, 4.361850328517966200 ) ) ;
#106 = CARTESIAN_POINT ( 'NONE',  ( -8.630843386239140700, 4.344920635969411500, 2.593103322672922800 ) ) ;
#107 = DATE_TIME_ROLE ( 'classification_date' ) ;
#108 = ORIENTED_EDGE ( 'NONE', *, *, #289, .T. ) ;
#109 = CARTESIAN_POINT ( 'NONE',  ( -12.50386351449701600, -12.85024189824822500, -2.618702524688758100 ) ) ;
#110 = APPLICATION_CONTEXT ( 'configuration controlled 3d designs of mechanical parts and assemblies' ) ;
#111 = AXIS2_PLACEMENT_3D ( 'NONE', #87, #288, #116 ) ;
#112 = ORIENTED_EDGE ( 'NONE', *, *, #52, .F. ) ;
#113 = CARTESIAN_POINT ( 'NONE',  ( 4.996003610813200500E-016, 2.442490654175340100E-015, 3.899885975020380300 ) ) ;
#114 = ORIENTED_EDGE ( 'NONE', *, *, #241, .T. ) ;
#115 = CARTESIAN_POINT ( 'NONE',  ( 12.69999999999999900, 2.442490654175340100E-015, 3.899885975020380300 ) ) ;
#116 = DIRECTION ( 'NONE',  ( 1.000000000000000000, 0.0000000000000000000, 0.0000000000000000000 ) ) ;
#117 = CALENDAR_DATE ( 2019, 21, 1 ) ;
#118 = CARTESIAN_POINT ( 'NONE',  ( 4.204737016218042600, 12.85024189824822600, -1.331158883527591200 ) ) ;
#119 = CARTESIAN_POINT ( 'NONE',  ( 4.996003610813200500E-016, 2.442490654175340100E-015, 3.899885975020380300 ) ) ;
#120 = EDGE_CURVE ( 'NONE', #122, #101, #42, .T. ) ;
#121 = EDGE_LOOP ( 'NONE', ( #149, #114, #108, #89, #272, #80 ) ) ;
#122 = VERTEX_POINT ( 'NONE', #115 ) ;
#123 = CARTESIAN_POINT ( 'NONE',  ( 8.673617379884035500E-015, -12.85024189824822800, 3.931158883527599900 ) ) ;
#124 = CARTESIAN_POINT ( 'NONE',  ( 4.996003610813200500E-016, 2.442490654175340100E-015, -1.299885975020379900 ) ) ;
#125 = DIRECTION ( 'NONE',  ( -0.0000000000000000000, -0.0000000000000000000, -1.000000000000000000 ) ) ;
#126 = ORIENTED_EDGE ( 'NONE', *, *, #29, .F. ) ;
#127 = AXIS2_PLACEMENT_3D ( 'NONE', #65, #168, #202 ) ;
#128 = VERTEX_POINT ( 'NONE', #58 ) ;
#129 = ADVANCED_FACE ( 'NONE', ( #167 ), #2, .F. ) ;
#130 = APPROVAL_ROLE ( '' ) ;
#131 = COORDINATED_UNIVERSAL_TIME_OFFSET ( 2, 0, .AHEAD. ) ;
#132 = APPROVAL_STATUS ( 'not_yet_approved' ) ;
#133 = EDGE_CURVE ( 'NONE', #253, #122, #271, .T. ) ;
#134 = FACE_OUTER_BOUND ( 'NONE', #179, .T. ) ;
#135 = EDGE_LOOP ( 'NONE', ( #200, #163, #14, #138, #170, #187 ) ) ;
#136 = DIRECTION ( 'NONE',  ( 1.000000000000000000, -2.317640452052330200E-016, -2.002913032610970000E-016 ) ) ;
#137 = CARTESIAN_POINT ( 'NONE',  ( 8.630843386239140700, 4.344920635969412400, 0.006896677327082167300 ) ) ;
#138 = ORIENTED_EDGE ( 'NONE', *, *, #133, .T. ) ;
#139 = CARTESIAN_POINT ( 'NONE',  ( 1.365340752011687700E-014, 4.344920635969415900, 0.4500911149058916500 ) ) ;
#140 = APPROVAL_PERSON_ORGANIZATION ( #25, #28, #130 ) ;
#141 = CIRCLE ( 'NONE', #111, 12.69999999999999900 ) ;
#142 =( BOUNDED_SURFACE ( )  B_SPLINE_SURFACE ( 3, 3, ( 
 ( #220, #242, #68, #221 ),
 ( #53, #186, #106, #51 ),
 ( #6, #27, #47, #255 ),
 ( #72, #3, #105, #183 ) ),
 .UNSPECIFIED., .F., .F., .F. ) 
 B_SPLINE_SURFACE_WITH_KNOTS ( ( 4, 4 ),
 ( 4, 4 ),
 ( 0.0000000000000000000, 1.000000000000000000 ),
 ( 0.0000000000000000000, 1.000000000000000000 ),
 .UNSPECIFIED. ) 
 GEOMETRIC_REPRESENTATION_ITEM ( )  RATIONAL_B_SPLINE_SURFACE ( (
 ( 1.000000000000000000, 0.9964934727922886100, 0.9964934727922886100, 1.000000000000000000),
 ( 0.9858440061304026800, 0.9823871173003472200, 0.9823871173003472200, 0.9858440061304026800),
 ( 0.9858440061304026800, 0.9823871173003472200, 0.9823871173003472200, 0.9858440061304026800),
 ( 1.000000000000000000, 0.9964934727922886100, 0.9964934727922886100, 1.000000000000000000) ) ) 
 REPRESENTATION_ITEM ( '' )  SURFACE ( )  );
#143 = DIRECTION ( 'NONE',  ( -0.0000000000000000000, -0.0000000000000000000, -1.000000000000000000 ) ) ;
#144 = CARTESIAN_POINT ( 'NONE',  ( 4.204737016218037300, -12.85024189824823000, -1.331158883527591200 ) ) ;
#145 = PRODUCT_DEFINITION_FORMATION_WITH_SPECIFIED_SOURCE ( 'ANY', '', #92, .NOT_KNOWN. ) ;
#146 = DIRECTION ( 'NONE',  ( 1.000000000000000000, -1.776356839400250500E-015, 0.0000000000000000000 ) ) ;
#147 = AXIS2_PLACEMENT_3D ( 'NONE', #233, #83, #57 ) ;
#148 = COORDINATED_UNIVERSAL_TIME_OFFSET ( 2, 0, .AHEAD. ) ;
#149 = ORIENTED_EDGE ( 'NONE', *, *, #219, .T. ) ;
#150 = DIRECTION ( 'NONE',  ( -1.000000000000000000, -2.317640452052330200E-016, 2.002913032610970000E-016 ) ) ;
#151 = AXIS2_PLACEMENT_3D ( 'NONE', #188, #12, #213 ) ;
#152 = CARTESIAN_POINT ( 'NONE',  ( -8.387357995313117000, 12.85024189824823000, -1.761850328517971600 ) ) ;
#153 = APPROVAL_ROLE ( '' ) ;
#154 = ADVANCED_FACE ( 'NONE', ( #13 ), #185, .T. ) ;
#155 = APPROVAL_PERSON_ORGANIZATION ( #198, #161, #285 ) ;
#156 = ADVANCED_FACE ( 'NONE', ( #134 ), #282, .F. ) ;
#157 = APPROVAL ( #56, 'UNSPECIFIED' ) ;
#158 = LOCAL_TIME ( 8, 20, 47.00000000000000000, #131 ) ;
#159 = CARTESIAN_POINT ( 'NONE',  ( -9.352502571304058000E-015, -12.70000000000000300, 3.899885975020378000 ) ) ;
#160 = CARTESIAN_POINT ( 'NONE',  ( 12.50386351449699700, 12.85024189824822500, -2.618702524688744800 ) ) ;
#161 = APPROVAL ( #132, 'UNSPECIFIED' ) ;
#162 = PERSON_AND_ORGANIZATION ( #222, #26 ) ;
#163 = ORIENTED_EDGE ( 'NONE', *, *, #91, .T. ) ;
#164 = CARTESIAN_POINT ( 'NONE',  ( 12.50386351449701600, -12.85024189824822500, 5.218702524688763100 ) ) ;
#165 = DIRECTION ( 'NONE',  ( 1.000000000000000000, 0.0000000000000000000, 0.0000000000000000000 ) ) ;
#166 = AXIS2_PLACEMENT_3D ( 'NONE', #260, #15, #287 ) ;
#167 = FACE_OUTER_BOUND ( 'NONE', #31, .T. ) ;
#168 = DIRECTION ( 'NONE',  ( 0.0000000000000000000, 0.0000000000000000000, 1.000000000000000000 ) ) ;
#169 = CALENDAR_DATE ( 2019, 21, 1 ) ;
#170 = ORIENTED_EDGE ( 'NONE', *, *, #120, .T. ) ;
#171 = CARTESIAN_POINT ( 'NONE',  ( 1.523930931951697500E-014, 12.70000000000000100, -1.299885975020375300 ) ) ;
#172 = CARTESIAN_POINT ( 'NONE',  ( -8.387357995313124100, -12.85024189824822600, -1.761850328517971600 ) ) ;
#173 = CIRCLE ( 'NONE', #264, 12.69999999999999900 ) ;
#174 = CARTESIAN_POINT ( 'NONE',  ( 1.526786629801262300E-014, 12.85024189824822800, -1.331158883527590300 ) ) ;
#175 = CARTESIAN_POINT ( 'NONE',  ( 4.326800726471862600, -4.344920635969415000, 0.4500911149058898800 ) ) ;
#176 = CIRCLE ( 'NONE', #166, 12.69999999999999900 ) ;
#177 = CARTESIAN_POINT ( 'NONE',  ( 8.630843386239153100, -4.344920635969411500, 2.593103322672934300 ) ) ;
#178 = CARTESIAN_POINT ( 'NONE',  ( 9.311418209605058800E-015, -12.85024189824822800, -1.331158883527590300 ) ) ;
#179 = EDGE_LOOP ( 'NONE', ( #196, #293, #43 ) ) ;
#180 = CARTESIAN_POINT ( 'NONE',  ( 8.630843386239149600, 4.344920635969416800, 2.593103322672933400 ) ) ;
#181 = AXIS2_PLACEMENT_3D ( 'NONE', #20, #125, #146 ) ;
#182 = LOCAL_TIME ( 8, 20, 47.00000000000000000, #190 ) ;
#183 = CARTESIAN_POINT ( 'NONE',  ( -12.50386351449698800, -12.85024189824823200, 5.218702524688749700 ) ) ;
#184 = LOCAL_TIME ( 8, 20, 47.00000000000000000, #77 ) ;
#185 = CYLINDRICAL_SURFACE ( 'NONE', #127, 12.69999999999999900 ) ;
#186 = CARTESIAN_POINT ( 'NONE',  ( -4.326800726471865300, 4.344920635969413200, 2.149908885094114400 ) ) ;
#187 = ORIENTED_EDGE ( 'NONE', *, *, #268, .T. ) ;
#188 = CARTESIAN_POINT ( 'NONE',  ( 4.996003610813200500E-016, 2.442490654175340100E-015, -1.299885975020379900 ) ) ;
#189 = PERSON_AND_ORGANIZATION_ROLE ( 'creator' ) ;
#190 = COORDINATED_UNIVERSAL_TIME_OFFSET ( 2, 0, .AHEAD. ) ;
#191 = EDGE_LOOP ( 'NONE', ( #35, #283, #36 ) ) ;
#192 = DIRECTION ( 'NONE',  ( 0.0000000000000000000, 0.0000000000000000000, 1.000000000000000000 ) ) ;
#193 = UNCERTAINTY_MEASURE_WITH_UNIT (LENGTH_MEASURE( 1.000000000000000100E-005 ), #9, 'distance_accuracy_value', 'NONE');
#194 = CALENDAR_DATE ( 2019, 21, 1 ) ;
#195 = ORIENTED_EDGE ( 'NONE', *, *, #90, .F. ) ;
#196 = ORIENTED_EDGE ( 'NONE', *, *, #235, .F. ) ;
#197 = CARTESIAN_POINT ( 'NONE',  ( 1.163941475474094300E-014, -4.344920635969415900, 0.4500911149058907100 ) ) ;
#198 = PERSON_AND_ORGANIZATION ( #222, #26 ) ;
#199 = DIRECTION ( 'NONE',  ( 0.0000000000000000000, 0.0000000000000000000, 1.000000000000000000 ) ) ;
#200 = ORIENTED_EDGE ( 'NONE', *, *, #289, .F. ) ;
#201 = DIRECTION ( 'NONE',  ( 0.0000000000000000000, 0.0000000000000000000, 1.000000000000000000 ) ) ;
#202 = DIRECTION ( 'NONE',  ( 1.000000000000000000, 0.0000000000000000000, 0.0000000000000000000 ) ) ;
#203 = CARTESIAN_POINT ( 'NONE',  ( -1.523930931951697900E-014, 12.70000000000000100, 3.899885975020378000 ) ) ;
#204 = DATE_AND_TIME ( #240, #184 ) ;
#205 = LOCAL_TIME ( 8, 20, 47.00000000000000000, #266 ) ;
#206 = CARTESIAN_POINT ( 'NONE',  ( -4.326800726471865300, 4.344920635969415900, 0.4500911149058862100 ) ) ;
#207 = FACE_OUTER_BOUND ( 'NONE', #191, .T. ) ;
#208 = PERSON_AND_ORGANIZATION_ROLE ( 'design_supplier' ) ;
#209 = FACE_OUTER_BOUND ( 'NONE', #7, .T. ) ;
#210 = ORIENTED_EDGE ( 'NONE', *, *, #5, .F. ) ;
#211 = ADVANCED_BREP_SHAPE_REPRESENTATION ( '114-0210E BK7 bi-cv 25.4 F-60', ( #93, #147 ), #278 ) ;
#212 =( NAMED_UNIT ( * ) PLANE_ANGLE_UNIT ( ) SI_UNIT ( $, .RADIAN. ) );
#213 = DIRECTION ( 'NONE',  ( 1.000000000000000000, 0.0000000000000000000, 0.0000000000000000000 ) ) ;
#214 =( NAMED_UNIT ( * ) SI_UNIT ( $, .STERADIAN. ) SOLID_ANGLE_UNIT ( ) );
#215 = PRODUCT_DEFINITION_SHAPE ( 'NONE', 'NONE',  #66 ) ;
#216 = VECTOR ( 'NONE', #45, 1000.000000000000000 ) ;
#217 = APPROVAL_DATE_TIME ( #204, #28 ) ;
#218 = ORIENTED_EDGE ( 'NONE', *, *, #219, .F. ) ;
#219 = EDGE_CURVE ( 'NONE', #253, #71, #63, .T. ) ;
#220 = CARTESIAN_POINT ( 'NONE',  ( -1.526786629801262600E-014, 12.85024189824822800, 3.931158883527595500 ) ) ;
#221 = CARTESIAN_POINT ( 'NONE',  ( -12.50386351449699500, 12.85024189824822500, 5.218702524688749700 ) ) ;
#222 = PERSON ( 'UNSPECIFIED', 'UNSPECIFIED', 'UNSPECIFIED', ('UNSPECIFIED'), ('UNSPECIFIED'), ('UNSPECIFIED') ) ;
#223 = VECTOR ( 'NONE', #192, 1000.000000000000000 ) ;
#224 = ORIENTED_EDGE ( 'NONE', *, *, #268, .F. ) ;
#225 = CARTESIAN_POINT ( 'NONE',  ( 12.50386351449700900, 12.85024189824823200, 5.218702524688763100 ) ) ;
#226 = CARTESIAN_POINT ( 'NONE',  ( -12.86685125123298200, 4.344920635969419500, -0.8748299777695239800 ) ) ;
#227 = PERSON_AND_ORGANIZATION ( #222, #26 ) ;
#228 = CARTESIAN_POINT ( 'NONE',  ( -12.86685125123298500, -4.344920635969412400, -0.8748299777695248700 ) ) ;
#229 = SECURITY_CLASSIFICATION ( '', '', #81 ) ;
#230 = AXIS2_PLACEMENT_3D ( 'NONE', #265, #16, #267 ) ;
#231 = CIRCLE ( 'NONE', #73, 12.69999999999999900 ) ;
#232 = PERSON_AND_ORGANIZATION_ROLE ( 'classification_officer' ) ;
#233 = CARTESIAN_POINT ( 'NONE',  ( 0.0000000000000000000, 0.0000000000000000000, 0.0000000000000000000 ) ) ;
#234 = DATE_AND_TIME ( #169, #182 ) ;
#235 = EDGE_CURVE ( 'NONE', #243, #122, #67, .T. ) ;
#236 = APPROVAL_PERSON_ORGANIZATION ( #46, #157, #153 ) ;
#237 = DIRECTION ( 'NONE',  ( -2.317640452052330200E-016, 1.000000000000000000, 0.0000000000000000000 ) ) ;
#238 = VERTEX_POINT ( 'NONE', #102 ) ;
#239 = CC_DESIGN_PERSON_AND_ORGANIZATION_ASSIGNMENT ( #162, #86, ( #66 ) ) ;
#240 = CALENDAR_DATE ( 2019, 21, 1 ) ;
#241 = EDGE_CURVE ( 'NONE', #71, #238, #173, .T. ) ;
#242 = CARTESIAN_POINT ( 'NONE',  ( -4.204737016218042600, 12.85024189824822600, 3.931158883527596800 ) ) ;
#243 = VERTEX_POINT ( 'NONE', #203 ) ;
#244 = CLOSED_SHELL ( 'NONE', ( #279, #156, #154, #129, #54, #277 ) ) ;
#245 = CARTESIAN_POINT ( 'NONE',  ( 4.204737016218039100, 12.85024189824823000, 3.931158883527601200 ) ) ;
#246 = AXIS2_PLACEMENT_3D ( 'NONE', #124, #201, #249 ) ;
#247 = CARTESIAN_POINT ( 'NONE',  ( 4.326800726471865300, 4.344920635969415000, 2.149908885094119300 ) ) ;
#248 = APPROVAL_DATE_TIME ( #82, #161 ) ;
#249 = DIRECTION ( 'NONE',  ( 1.000000000000000000, 0.0000000000000000000, 0.0000000000000000000 ) ) ;
#250 =( BOUNDED_SURFACE ( )  B_SPLINE_SURFACE ( 3, 3, ( 
 ( #254, #152, #74, #23 ),
 ( #226, #103, #206, #24 ),
 ( #228, #251, #275, #75 ),
 ( #109, #172, #61, #284 ) ),
 .UNSPECIFIED., .F., .F., .F. ) 
 B_SPLINE_SURFACE_WITH_KNOTS ( ( 4, 4 ),
 ( 4, 4 ),
 ( 0.0000000000000000000, 1.000000000000000000 ),
 ( 0.0000000000000000000, 1.000000000000000000 ),
 .UNSPECIFIED. ) 
 GEOMETRIC_REPRESENTATION_ITEM ( )  RATIONAL_B_SPLINE_SURFACE ( (
 ( 1.000000000000000000, 0.9964934727922886100, 0.9964934727922886100, 1.000000000000000000),
 ( 0.9858440061304026800, 0.9823871173003472200, 0.9823871173003472200, 0.9858440061304026800),
 ( 0.9858440061304026800, 0.9823871173003472200, 0.9823871173003472200, 0.9858440061304026800),
 ( 1.000000000000000000, 0.9964934727922886100, 0.9964934727922886100, 1.000000000000000000) ) ) 
 REPRESENTATION_ITEM ( '' )  SURFACE ( )  );
#251 = CARTESIAN_POINT ( 'NONE',  ( -8.630843386239153100, -4.344920635969411500, 0.006896677327071000000 ) ) ;
#252 = DATE_AND_TIME ( #33, #158 ) ;
#253 = VERTEX_POINT ( 'NONE', #70 ) ;
#254 = CARTESIAN_POINT ( 'NONE',  ( -12.50386351449700900, 12.85024189824823200, -2.618702524688758100 ) ) ;
#255 = CARTESIAN_POINT ( 'NONE',  ( -12.86685125123296000, -4.344920635969419500, 3.474829977769516200 ) ) ;
#256 = APPROVAL_STATUS ( 'not_yet_approved' ) ;
#257 = CC_DESIGN_PERSON_AND_ORGANIZATION_ASSIGNMENT ( #227, #208, ( #145 ) ) ;
#258 = MECHANICAL_CONTEXT ( 'NONE', #110, 'mechanical' ) ;
#259 = APPLICATION_PROTOCOL_DEFINITION ( 'international standard', 'config_control_design', 1994, #10 ) ;
#260 = CARTESIAN_POINT ( 'NONE',  ( 4.996003610813200500E-016, 2.442490654175340100E-015, -1.299885975020379900 ) ) ;
#261 = DATE_TIME_ROLE ( 'creation_date' ) ;
#262 = PERSON_AND_ORGANIZATION ( #222, #26 ) ;
#263 = DIRECTION ( 'NONE',  ( 1.000000000000000000, 8.881784197001252300E-016, 0.0000000000000000000 ) ) ;
#264 = AXIS2_PLACEMENT_3D ( 'NONE', #273, #199, #295 ) ;
#265 = CARTESIAN_POINT ( 'NONE',  ( 4.996003610813200500E-016, 2.442490654175340100E-015, 3.899885975020380300 ) ) ;
#266 = COORDINATED_UNIVERSAL_TIME_OFFSET ( 2, 0, .AHEAD. ) ;
#267 = DIRECTION ( 'NONE',  ( 1.000000000000000000, 0.0000000000000000000, 0.0000000000000000000 ) ) ;
#268 = EDGE_CURVE ( 'NONE', #101, #128, #231, .T. ) ;
#269 = CARTESIAN_POINT ( 'NONE',  ( 6.938893903907228400E-015, -4.344920635969415900, 2.149908885094118800 ) ) ;
#270 = CARTESIAN_POINT ( 'NONE',  ( 12.69999999999999900, 2.442490654175340100E-015, -1.299885975020379900 ) ) ;
#271 = LINE ( 'NONE', #270, #216 ) ;
#272 = ORIENTED_EDGE ( 'NONE', *, *, #235, .T. ) ;
#273 = CARTESIAN_POINT ( 'NONE',  ( 4.996003610813200500E-016, 2.442490654175340100E-015, -1.299885975020379900 ) ) ;
#274 = CC_DESIGN_PERSON_AND_ORGANIZATION_ASSIGNMENT ( #262, #30, ( #92 ) ) ;
#275 = CARTESIAN_POINT ( 'NONE',  ( -4.326800726471868900, -4.344920635969412400, 0.4500911149058861600 ) ) ;
#276 = CC_DESIGN_DATE_AND_TIME_ASSIGNMENT ( #94, #107, ( #229 ) ) ;
#277 = ADVANCED_FACE ( 'NONE', ( #209 ), #142, .F. ) ;
#278 =( GEOMETRIC_REPRESENTATION_CONTEXT ( 3 ) GLOBAL_UNCERTAINTY_ASSIGNED_CONTEXT ( ( #193 ) ) GLOBAL_UNIT_ASSIGNED_CONTEXT ( ( #9, #212, #214 ) ) REPRESENTATION_CONTEXT ( 'NONE', 'WORKASPACE' ) );
#279 = ADVANCED_FACE ( 'NONE', ( #207 ), #250, .F. ) ;
#280 = CARTESIAN_POINT ( 'NONE',  ( 9.352502571304058000E-015, -12.70000000000000300, -1.299885975020375300 ) ) ;
#281 = VERTEX_POINT ( 'NONE', #280 ) ;
#282 =( BOUNDED_SURFACE ( )  B_SPLINE_SURFACE ( 3, 3, ( 
 ( #225, #19, #245, #100 ),
 ( #41, #180, #247, #96 ),
 ( #40, #177, #44, #269 ),
 ( #164, #22, #69, #123 ) ),
 .UNSPECIFIED., .F., .F., .F. ) 
 B_SPLINE_SURFACE_WITH_KNOTS ( ( 4, 4 ),
 ( 4, 4 ),
 ( 0.0000000000000000000, 1.000000000000000000 ),
 ( 0.0000000000000000000, 1.000000000000000000 ),
 .UNSPECIFIED. ) 
 GEOMETRIC_REPRESENTATION_ITEM ( )  RATIONAL_B_SPLINE_SURFACE ( (
 ( 1.000000000000000000, 0.9964934727922886100, 0.9964934727922886100, 1.000000000000000000),
 ( 0.9858440061304026800, 0.9823871173003472200, 0.9823871173003472200, 0.9858440061304026800),
 ( 0.9858440061304026800, 0.9823871173003472200, 0.9823871173003472200, 0.9858440061304026800),
 ( 1.000000000000000000, 0.9964934727922886100, 0.9964934727922886100, 1.000000000000000000) ) ) 
 REPRESENTATION_ITEM ( '' )  SURFACE ( )  );
#283 = ORIENTED_EDGE ( 'NONE', *, *, #52, .T. ) ;
#284 = CARTESIAN_POINT ( 'NONE',  ( -6.938893903907228400E-015, -12.85024189824822800, -1.331158883527594300 ) ) ;
#285 = APPROVAL_ROLE ( '' ) ;
#286 = PERSON_AND_ORGANIZATION ( #222, #26 ) ;
#287 = DIRECTION ( 'NONE',  ( 1.000000000000000000, 0.0000000000000000000, 0.0000000000000000000 ) ) ;
#288 = DIRECTION ( 'NONE',  ( 0.0000000000000000000, 0.0000000000000000000, 1.000000000000000000 ) ) ;
#289 = EDGE_CURVE ( 'NONE', #238, #128, #290, .T. ) ;
#290 = LINE ( 'NONE', #32, #223 ) ;
#291 = CC_DESIGN_APPROVAL ( #28, ( #229 ) ) ;
#292 = CARTESIAN_POINT ( 'NONE',  ( 4.326800726471865300, 4.344920635969413200, 0.4500911149058906500 ) ) ;
#293 = ORIENTED_EDGE ( 'NONE', *, *, #5, .T. ) ;
#294 = AXIS2_PLACEMENT_3D ( 'NONE', #76, #150, #237 ) ;
#295 = DIRECTION ( 'NONE',  ( 1.000000000000000000, 0.0000000000000000000, 0.0000000000000000000 ) ) ;
ENDSEC;
END-ISO-10303-21;
