ISO-10303-21;
HEADER;
FILE_DESCRIPTION (( 'STEP AP203' ),
    '1' );
FILE_NAME ('114-0208E BK7 bi-cv 25.4 F-50.STEP',
    '2019-01-21T06:14:38',
    ( '' ),
    ( '' ),
    'SwSTEP 2.0',
    'SolidWorks 2017',
    '' );
FILE_SCHEMA (( 'CONFIG_CONTROL_DESIGN' ));
ENDSEC;

DATA;
#1 = PERSON_AND_ORGANIZATION ( #252, #161 ) ;
#2 = CC_DESIGN_PERSON_AND_ORGANIZATION_ASSIGNMENT ( #21, #167, ( #73 ) ) ;
#3 = CARTESIAN_POINT ( 'NONE',  ( -1.421085471520199700E-014, -12.70000000000002800, -1.555890469032772600 ) ) ;
#4 = ADVANCED_BREP_SHAPE_REPRESENTATION ( '114-0208E BK7 bi-cv 25.4 F-50', ( #277, #244 ), #148 ) ;
#5 = CARTESIAN_POINT ( 'NONE',  ( -8.680205211941162300, 4.371360765849098100, 0.009115163940367652600 ) ) ;
#6 = CARTESIAN_POINT ( 'NONE',  ( 2.428612866367529900E-014, 4.371360765849089200, 3.857968196543831100 ) ) ;
#7 = EDGE_LOOP ( 'NONE', ( #120, #70, #32 ) ) ;
#8 = CARTESIAN_POINT ( 'NONE',  ( 12.90628578095572900, 4.371360765849098100, -1.048713435602532300 ) ) ;
#9 = CARTESIAN_POINT ( 'NONE',  ( 8.680205211941158800, 4.371360765849090100, 4.390884836059628400 ) ) ;
#10 = EDGE_CURVE ( 'NONE', #255, #85, #129, .T. ) ;
#11 = DIRECTION ( 'NONE',  ( -0.0000000000000000000, -0.0000000000000000000, -1.000000000000000000 ) ) ;
#12 = CARTESIAN_POINT ( 'NONE',  ( -2.428612866367529900E-014, -12.84931374769604600, -1.593265135709925700 ) ) ;
#13 = CARTESIAN_POINT ( 'NONE',  ( -1.421085471520199700E-014, 12.70000000000001000, -1.555890469032772600 ) ) ;
#14 = EDGE_CURVE ( 'NONE', #228, #185, #175, .T. ) ;
#15 = CARTESIAN_POINT ( 'NONE',  ( 1.421085471520200100E-014, -12.84931374769604600, 5.993265135709926900 ) ) ;
#16 = FACE_OUTER_BOUND ( 'NONE', #7, .T. ) ;
#17 = CARTESIAN_POINT ( 'NONE',  ( 12.90628578095572900, -4.371360765849111400, -1.048713435602536900 ) ) ;
#18 = CARTESIAN_POINT ( 'NONE',  ( -4.181447870492347900, -12.84931374769604800, 5.993265135709926900 ) ) ;
#19 = MECHANICAL_CONTEXT ( 'NONE', #253, 'mechanical' ) ;
#20 =( NAMED_UNIT ( * ) PLANE_ANGLE_UNIT ( ) SI_UNIT ( $, .RADIAN. ) );
#21 = PERSON_AND_ORGANIZATION ( #252, #161 ) ;
#22 = SECURITY_CLASSIFICATION_LEVEL ( 'unclassified' ) ;
#23 = LOCAL_TIME ( 8, 14, 38.00000000000000000, #239 ) ;
#24 = EDGE_LOOP ( 'NONE', ( #139, #156, #293, #93, #289, #166 ) ) ;
#25 =( BOUNDED_SURFACE ( )  B_SPLINE_SURFACE ( 3, 3, ( 
 ( #278, #29, #215, #172 ),
 ( #82, #5, #106, #28 ),
 ( #191, #108, #276, #153 ),
 ( #140, #114, #116, #12 ) ),
 .UNSPECIFIED., .F., .F., .F. ) 
 B_SPLINE_SURFACE_WITH_KNOTS ( ( 4, 4 ),
 ( 4, 4 ),
 ( 0.0000000000000000000, 1.000000000000000000 ),
 ( 0.0000000000000000000, 1.000000000000000000 ),
 .UNSPECIFIED. ) 
 GEOMETRIC_REPRESENTATION_ITEM ( )  RATIONAL_B_SPLINE_SURFACE ( (
 ( 1.000000000000000000, 0.9949931634736405300, 0.9949931634736405300, 1.000000000000000000),
 ( 0.9798103638635248200, 0.9749046135448273800, 0.9749046135448273800, 0.9798103638635248200),
 ( 0.9798103638635248200, 0.9749046135448273800, 0.9749046135448273800, 0.9798103638635248200),
 ( 1.000000000000000000, 0.9949931634736405300, 0.9949931634736405300, 1.000000000000000000) ) ) 
 REPRESENTATION_ITEM ( '' )  SURFACE ( )  );
#26 = DIRECTION ( 'NONE',  ( 0.0000000000000000000, 0.0000000000000000000, 1.000000000000000000 ) ) ;
#27 = ORIENTED_EDGE ( 'NONE', *, *, #14, .T. ) ;
#28 = CARTESIAN_POINT ( 'NONE',  ( -2.428612866367529900E-014, 4.371360765849098100, 0.5420318034561652000 ) ) ;
#29 = CARTESIAN_POINT ( 'NONE',  ( -8.331492002088166900, 12.84931374769603400, -2.104772710876187800 ) ) ;
#30 = EDGE_CURVE ( 'NONE', #78, #236, #267, .T. ) ;
#31 = CALENDAR_DATE ( 2019, 21, 1 ) ;
#32 = ORIENTED_EDGE ( 'NONE', *, *, #30, .F. ) ;
#33 = DIRECTION ( 'NONE',  ( 0.0000000000000000000, 0.0000000000000000000, 1.000000000000000000 ) ) ;
#34 = AXIS2_PLACEMENT_3D ( 'NONE', #95, #121, #285 ) ;
#35 = CARTESIAN_POINT ( 'NONE',  ( 4.181447870492347900, 12.84931374769603400, -1.593265135709932800 ) ) ;
#36 = APPROVAL_PERSON_ORGANIZATION ( #266, #291, #130 ) ;
#37 = ORIENTED_EDGE ( 'NONE', *, *, #14, .F. ) ;
#38 = CARTESIAN_POINT ( 'NONE',  ( 4.181447870492382500, -12.84931374769604800, 5.993265135709921600 ) ) ;
#39 = CARTESIAN_POINT ( 'NONE',  ( 1.421085471520200100E-014, 12.84931374769602300, 5.993265135709926900 ) ) ;
#40 = CARTESIAN_POINT ( 'NONE',  ( 4.996003610813200500E-016, 2.442490654175340100E-015, 5.955890469032760300 ) ) ;
#41 = COORDINATED_UNIVERSAL_TIME_OFFSET ( 2, 0, .AHEAD. ) ;
#42 = CLOSED_SHELL ( 'NONE', ( #45, #96, #272, #168, #165, #208 ) ) ;
#43 = CARTESIAN_POINT ( 'NONE',  ( 12.69999999999999900, 2.442490654175340100E-015, -1.555890469032770000 ) ) ;
#44 = ORIENTED_EDGE ( 'NONE', *, *, #83, .T. ) ;
#45 = ADVANCED_FACE ( 'NONE', ( #180 ), #25, .F. ) ;
#46 = APPROVAL_ROLE ( '' ) ;
#47 = APPROVAL ( #229, 'UNSPECIFIED' ) ;
#48 = APPROVAL_ROLE ( '' ) ;
#49 = LOCAL_TIME ( 8, 14, 38.00000000000000000, #92 ) ;
#50 = PERSON_AND_ORGANIZATION ( #252, #161 ) ;
#51 = CIRCLE ( 'NONE', #250, 12.69999999999999900 ) ;
#52 = EDGE_CURVE ( 'NONE', #255, #104, #133, .T. ) ;
#53 =( LENGTH_UNIT ( ) NAMED_UNIT ( * ) SI_UNIT ( .MILLI., .METRE. ) );
#54 = ORIENTED_EDGE ( 'NONE', *, *, #76, .F. ) ;
#55 = CC_DESIGN_APPROVAL ( #47, ( #286 ) ) ;
#56 = AXIS2_PLACEMENT_3D ( 'NONE', #196, #218, #243 ) ;
#57 = APPROVAL_PERSON_ORGANIZATION ( #246, #47, #46 ) ;
#58 = DIRECTION ( 'NONE',  ( 1.000000000000000000, 0.0000000000000000000, 0.0000000000000000000 ) ) ;
#59 = CARTESIAN_POINT ( 'NONE',  ( -12.69999999999999900, 3.997792089092478900E-015, 5.955890469032760300 ) ) ;
#60 = CARTESIAN_POINT ( 'NONE',  ( 8.680205211941123300, -4.371360765849111400, 0.009115163940359848100 ) ) ;
#61 = CARTESIAN_POINT ( 'NONE',  ( 12.38779661715514600, 12.84931374769602300, 7.520104756776148300 ) ) ;
#62 = CARTESIAN_POINT ( 'NONE',  ( 4.356461674548953900, 4.371360765849090100, 3.857968196543832400 ) ) ;
#63 = CARTESIAN_POINT ( 'NONE',  ( 2.255140518769849200E-014, -12.84931374769604600, 5.993265135709919800 ) ) ;
#64 = CC_DESIGN_APPROVAL ( #110, ( #73 ) ) ;
#65 = CARTESIAN_POINT ( 'NONE',  ( -12.90628578095572700, -4.371360765849114900, 5.448713435602532400 ) ) ;
#66 = CARTESIAN_POINT ( 'NONE',  ( 1.421085471520200100E-014, -12.70000000000002800, 5.955890469032764800 ) ) ;
#67 = EDGE_CURVE ( 'NONE', #236, #104, #151, .T. ) ;
#68 = CARTESIAN_POINT ( 'NONE',  ( -12.38779661715511400, -12.84931374769604600, 7.520104756776152800 ) ) ;
#69 = CARTESIAN_POINT ( 'NONE',  ( 1.421085471520200200E-014, -4.371360765849114900, 3.857968196543841300 ) ) ;
#70 = ORIENTED_EDGE ( 'NONE', *, *, #274, .T. ) ;
#71 = CARTESIAN_POINT ( 'NONE',  ( -1.421085471520199700E-014, -12.84931374769604600, -1.593265135709932800 ) ) ;
#72 = APPLICATION_PROTOCOL_DEFINITION ( 'international standard', 'config_control_design', 1994, #210 ) ;
#73 = PRODUCT_DEFINITION_FORMATION_WITH_SPECIFIED_SOURCE ( 'ANY', '', #99, .NOT_KNOWN. ) ;
#74 = DATE_TIME_ROLE ( 'classification_date' ) ;
#75 = FACE_OUTER_BOUND ( 'NONE', #248, .T. ) ;
#76 = EDGE_CURVE ( 'NONE', #85, #228, #51, .T. ) ;
#77 = APPLICATION_PROTOCOL_DEFINITION ( 'international standard', 'config_control_design', 1994, #253 ) ;
#78 = VERTEX_POINT ( 'NONE', #194 ) ;
#79 = AXIS2_PLACEMENT_3D ( 'NONE', #174, #213, #80 ) ;
#80 = DIRECTION ( 'NONE',  ( 1.000000000000000000, 0.0000000000000000000, 0.0000000000000000000 ) ) ;
#81 = CYLINDRICAL_SURFACE ( 'NONE', #155, 12.69999999999999900 ) ;
#82 = CARTESIAN_POINT ( 'NONE',  ( -12.90628578095575900, 4.371360765849098100, -1.048713435602528900 ) ) ;
#83 = EDGE_CURVE ( 'NONE', #104, #233, #223, .T. ) ;
#84 = FACE_OUTER_BOUND ( 'NONE', #159, .T. ) ;
#85 = VERTEX_POINT ( 'NONE', #3 ) ;
#86 = CARTESIAN_POINT ( 'NONE',  ( 8.680205211941123300, 4.371360765849098100, 0.009115163940364183100 ) ) ;
#87 = CARTESIAN_POINT ( 'NONE',  ( 4.356461674548952200, -4.371360765849114000, 3.857968196543835000 ) ) ;
#88 = APPROVAL_DATE_TIME ( #235, #110 ) ;
#89 = AXIS2_PLACEMENT_3D ( 'NONE', #258, #237, #58 ) ;
#90 = CARTESIAN_POINT ( 'NONE',  ( 4.996003610813200500E-016, 2.442490654175340100E-015, -1.555890469032770000 ) ) ;
#91 = CARTESIAN_POINT ( 'NONE',  ( -4.356461674548917500, 4.371360765849090100, 3.857968196543838600 ) ) ;
#92 = COORDINATED_UNIVERSAL_TIME_OFFSET ( 2, 0, .AHEAD. ) ;
#93 = ORIENTED_EDGE ( 'NONE', *, *, #204, .T. ) ;
#94 = CARTESIAN_POINT ( 'NONE',  ( 4.996003610813200500E-016, 2.442490654175340100E-015, -1.555890469032770000 ) ) ;
#95 = CARTESIAN_POINT ( 'NONE',  ( 4.996003610813200500E-016, 2.442490654175340100E-015, -1.555890469032770000 ) ) ;
#96 = ADVANCED_FACE ( 'NONE', ( #16 ), #238, .F. ) ;
#97 = APPROVAL_STATUS ( 'not_yet_approved' ) ;
#98 = ORIENTED_EDGE ( 'NONE', *, *, #294, .T. ) ;
#99 = PRODUCT ( '114-0208E BK7 bi-cv 25.4 F-50', '114-0208E BK7 bi-cv 25.4 F-50', '', ( #19 ) ) ;
#100 = LOCAL_TIME ( 8, 14, 38.00000000000000000, #41 ) ;
#101 = AXIS2_PLACEMENT_3D ( 'NONE', #192, #26, #135 ) ;
#102 = DIRECTION ( 'NONE',  ( 0.0000000000000000000, 0.0000000000000000000, 1.000000000000000000 ) ) ;
#103 = ORIENTED_EDGE ( 'NONE', *, *, #52, .T. ) ;
#104 = VERTEX_POINT ( 'NONE', #59 ) ;
#105 = APPROVAL_DATE_TIME ( #231, #47 ) ;
#106 = CARTESIAN_POINT ( 'NONE',  ( -4.356461674548954800, 4.371360765849098100, 0.5420318034561644200 ) ) ;
#107 = ORIENTED_EDGE ( 'NONE', *, *, #294, .F. ) ;
#108 = CARTESIAN_POINT ( 'NONE',  ( -8.680205211941158800, -4.371360765849111400, 0.009115163940362231600 ) ) ;
#109 = DIRECTION ( 'NONE',  ( 1.000000000000000000, 0.0000000000000000000, 0.0000000000000000000 ) ) ;
#110 = APPROVAL ( #270, 'UNSPECIFIED' ) ;
#111 = DIRECTION ( 'NONE',  ( 0.0000000000000000000, 0.0000000000000000000, 1.000000000000000000 ) ) ;
#112 = CALENDAR_DATE ( 2019, 21, 1 ) ;
#113 = ORIENTED_EDGE ( 'NONE', *, *, #257, .F. ) ;
#114 = CARTESIAN_POINT ( 'NONE',  ( -8.331492002088166900, -12.84931374769604800, -2.104772710876187800 ) ) ;
#115 = AXIS2_PLACEMENT_3D ( 'NONE', #94, #122, #268 ) ;
#116 = CARTESIAN_POINT ( 'NONE',  ( -4.181447870492384300, -12.84931374769604800, -1.593265135709926800 ) ) ;
#117 = CARTESIAN_POINT ( 'NONE',  ( 12.38779661715514600, -12.84931374769604600, 7.520104756776148300 ) ) ;
#118 = CARTESIAN_POINT ( 'NONE',  ( -4.356461674548917500, -4.371360765849114000, 3.857968196543842200 ) ) ;
#119 = LOCAL_TIME ( 8, 14, 38.00000000000000000, #179 ) ;
#120 = ORIENTED_EDGE ( 'NONE', *, *, #290, .F. ) ;
#121 = DIRECTION ( 'NONE',  ( 0.0000000000000000000, 0.0000000000000000000, 1.000000000000000000 ) ) ;
#122 = DIRECTION ( 'NONE',  ( 0.0000000000000000000, 0.0000000000000000000, 1.000000000000000000 ) ) ;
#123 =( BOUNDED_SURFACE ( )  B_SPLINE_SURFACE ( 3, 3, ( 
 ( #39, #249, #183, #222 ),
 ( #287, #91, #163, #247 ),
 ( #69, #118, #181, #65 ),
 ( #15, #18, #226, #68 ) ),
 .UNSPECIFIED., .F., .F., .F. ) 
 B_SPLINE_SURFACE_WITH_KNOTS ( ( 4, 4 ),
 ( 4, 4 ),
 ( 0.0000000000000000000, 1.000000000000000000 ),
 ( 0.0000000000000000000, 1.000000000000000000 ),
 .UNSPECIFIED. ) 
 GEOMETRIC_REPRESENTATION_ITEM ( )  RATIONAL_B_SPLINE_SURFACE ( (
 ( 1.000000000000000000, 0.9949931634736405300, 0.9949931634736405300, 1.000000000000000000),
 ( 0.9798103638635249400, 0.9749046135448274900, 0.9749046135448274900, 0.9798103638635249400),
 ( 0.9798103638635249400, 0.9749046135448274900, 0.9749046135448274900, 0.9798103638635249400),
 ( 1.000000000000000000, 0.9949931634736405300, 0.9949931634736405300, 1.000000000000000000) ) ) 
 REPRESENTATION_ITEM ( '' )  SURFACE ( )  );
#124 = CARTESIAN_POINT ( 'NONE',  ( 0.0000000000000000000, 0.0000000000000000000, 0.0000000000000000000 ) ) ;
#125 = PERSON_AND_ORGANIZATION_ROLE ( 'creator' ) ;
#126 = PRODUCT_RELATED_PRODUCT_CATEGORY ( 'detail', '', ( #99 ) ) ;
#127 = PERSON_AND_ORGANIZATION_ROLE ( 'design_owner' ) ;
#128 = UNCERTAINTY_MEASURE_WITH_UNIT (LENGTH_MEASURE( 1.000000000000000100E-005 ), #53, 'distance_accuracy_value', 'NONE');
#129 = CIRCLE ( 'NONE', #101, 12.69999999999999900 ) ;
#130 = APPROVAL_ROLE ( '' ) ;
#131 = CIRCLE ( 'NONE', #115, 12.69999999999999900 ) ;
#132 = CC_DESIGN_APPROVAL ( #291, ( #160 ) ) ;
#133 = LINE ( 'NONE', #280, #232 ) ;
#134 = AXIS2_PLACEMENT_3D ( 'NONE', #40, #200, #224 ) ;
#135 = DIRECTION ( 'NONE',  ( 1.000000000000000000, 0.0000000000000000000, 0.0000000000000000000 ) ) ;
#136 = CARTESIAN_POINT ( 'NONE',  ( 8.331492002088134900, 12.84931374769603400, -2.104772710876191300 ) ) ;
#137 = CIRCLE ( 'NONE', #230, 52.61000000000000700 ) ;
#138 = CARTESIAN_POINT ( 'NONE',  ( 2.255140518769849200E-014, 12.84931374769602300, 5.993265135709919800 ) ) ;
#139 = ORIENTED_EDGE ( 'NONE', *, *, #52, .F. ) ;
#140 = CARTESIAN_POINT ( 'NONE',  ( -12.38779661715514600, -12.84931374769604600, -3.120104756776154200 ) ) ;
#141 = CARTESIAN_POINT ( 'NONE',  ( 12.90628578095575700, -4.371360765849114900, 5.448713435602528900 ) ) ;
#142 = CC_DESIGN_DATE_AND_TIME_ASSIGNMENT ( #197, #74, ( #160 ) ) ;
#143 = CARTESIAN_POINT ( 'NONE',  ( 2.255140518769849500E-014, -4.371360765849114900, 3.857968196543834600 ) ) ;
#144 = DIRECTION ( 'NONE',  ( -1.000000000000000000, 0.0000000000000000000, 0.0000000000000000000 ) ) ;
#145 = CIRCLE ( 'NONE', #152, 52.61000000000000700 ) ;
#146 = CARTESIAN_POINT ( 'NONE',  ( 1.421085471520200100E-014, 12.70000000000001000, 5.955890469032764800 ) ) ;
#147 = CC_DESIGN_PERSON_AND_ORGANIZATION_ASSIGNMENT ( #1, #127, ( #99 ) ) ;
#148 =( GEOMETRIC_REPRESENTATION_CONTEXT ( 3 ) GLOBAL_UNCERTAINTY_ASSIGNED_CONTEXT ( ( #128 ) ) GLOBAL_UNIT_ASSIGNED_CONTEXT ( ( #53, #20, #188 ) ) REPRESENTATION_CONTEXT ( 'NONE', 'WORKASPACE' ) );
#149 = PERSON_AND_ORGANIZATION_ROLE ( 'classification_officer' ) ;
#150 = CC_DESIGN_PERSON_AND_ORGANIZATION_ASSIGNMENT ( #259, #207, ( #73 ) ) ;
#151 = CIRCLE ( 'NONE', #56, 12.69999999999999900 ) ;
#152 = AXIS2_PLACEMENT_3D ( 'NONE', #251, #189, #209 ) ;
#153 = CARTESIAN_POINT ( 'NONE',  ( -2.428612866367529900E-014, -4.371360765849111400, 0.5420318034561600900 ) ) ;
#154 = CALENDAR_DATE ( 2019, 21, 1 ) ;
#155 = AXIS2_PLACEMENT_3D ( 'NONE', #90, #269, #227 ) ;
#156 = ORIENTED_EDGE ( 'NONE', *, *, #10, .T. ) ;
#157 = DIRECTION ( 'NONE',  ( 1.000000000000000000, 0.0000000000000000000, 0.0000000000000000000 ) ) ;
#158 = CARTESIAN_POINT ( 'NONE',  ( 8.680205211941155200, -4.371360765849114000, 4.390884836059632000 ) ) ;
#159 = EDGE_LOOP ( 'NONE', ( #107, #37, #54 ) ) ;
#160 = SECURITY_CLASSIFICATION ( '', '', #22 ) ;
#161 = ORGANIZATION ( 'UNSPECIFIED', 'UNSPECIFIED', '' ) ;
#162 = EDGE_LOOP ( 'NONE', ( #220, #275, #271 ) ) ;
#163 = CARTESIAN_POINT ( 'NONE',  ( -8.680205211941125000, 4.371360765849090100, 4.390884836059632900 ) ) ;
#164 = APPROVAL_DATE_TIME ( #265, #291 ) ;
#165 = ADVANCED_FACE ( 'NONE', ( #84 ), #260, .F. ) ;
#166 = ORIENTED_EDGE ( 'NONE', *, *, #67, .T. ) ;
#167 = PERSON_AND_ORGANIZATION_ROLE ( 'creator' ) ;
#168 = ADVANCED_FACE ( 'NONE', ( #202 ), #81, .T. ) ;
#169 = FACE_OUTER_BOUND ( 'NONE', #162, .T. ) ;
#170 = DATE_TIME_ROLE ( 'creation_date' ) ;
#171 = ORIENTED_EDGE ( 'NONE', *, *, #290, .T. ) ;
#172 = CARTESIAN_POINT ( 'NONE',  ( -2.428612866367529900E-014, 12.84931374769603500, -1.593265135709925700 ) ) ;
#173 = DATE_AND_TIME ( #273, #100 ) ;
#174 = CARTESIAN_POINT ( 'NONE',  ( 4.996003610813200500E-016, 2.442490654175340100E-015, -1.555890469032770000 ) ) ;
#175 = CIRCLE ( 'NONE', #79, 12.69999999999999900 ) ;
#176 = CARTESIAN_POINT ( 'NONE',  ( -1.421085471520199700E-014, 4.371360765849098100, 0.5420318034561585300 ) ) ;
#177 = CARTESIAN_POINT ( 'NONE',  ( -1.421085471520199700E-014, -4.371360765849111400, 0.5420318034561537600 ) ) ;
#178 = CARTESIAN_POINT ( 'NONE',  ( 8.331492002088166900, -12.84931374769604800, 6.504772710876182800 ) ) ;
#179 = COORDINATED_UNIVERSAL_TIME_OFFSET ( 2, 0, .AHEAD. ) ;
#180 = FACE_OUTER_BOUND ( 'NONE', #212, .T. ) ;
#181 = CARTESIAN_POINT ( 'NONE',  ( -8.680205211941125000, -4.371360765849114000, 4.390884836059636400 ) ) ;
#182 = PRODUCT_DEFINITION_SHAPE ( 'NONE', 'NONE',  #286 ) ;
#183 = CARTESIAN_POINT ( 'NONE',  ( -8.331492002088134900, 12.84931374769602100, 6.504772710876186400 ) ) ;
#184 = PERSON_AND_ORGANIZATION ( #252, #161 ) ;
#185 = VERTEX_POINT ( 'NONE', #13 ) ;
#186 = AXIS2_PLACEMENT_3D ( 'NONE', #242, #11, #157 ) ;
#187 = CALENDAR_DATE ( 2019, 21, 1 ) ;
#188 =( NAMED_UNIT ( * ) SI_UNIT ( $, .STERADIAN. ) SOLID_ANGLE_UNIT ( ) );
#189 = DIRECTION ( 'NONE',  ( 1.000000000000000000, 0.0000000000000000000, 0.0000000000000000000 ) ) ;
#190 = ORIENTED_EDGE ( 'NONE', *, *, #10, .F. ) ;
#191 = CARTESIAN_POINT ( 'NONE',  ( -12.90628578095575700, -4.371360765849111400, -1.048713435602533800 ) ) ;
#192 = CARTESIAN_POINT ( 'NONE',  ( 4.996003610813200500E-016, 2.442490654175340100E-015, -1.555890469032770000 ) ) ;
#193 = CYLINDRICAL_SURFACE ( 'NONE', #34, 12.69999999999999900 ) ;
#194 = CARTESIAN_POINT ( 'NONE',  ( 12.69999999999999900, 2.442490654175340100E-015, 5.955890469032760300 ) ) ;
#195 = CARTESIAN_POINT ( 'NONE',  ( 4.356461674548918400, -4.371360765849111400, 0.5420318034561538700 ) ) ;
#196 = CARTESIAN_POINT ( 'NONE',  ( 4.996003610813200500E-016, 2.442490654175340100E-015, 5.955890469032760300 ) ) ;
#197 = DATE_AND_TIME ( #31, #256 ) ;
#198 = CARTESIAN_POINT ( 'NONE',  ( 12.90628578095575900, 4.371360765849089200, 5.448713435602525300 ) ) ;
#199 = CARTESIAN_POINT ( 'NONE',  ( 8.331492002088134900, -12.84931374769604800, -2.104772710876191300 ) ) ;
#200 = DIRECTION ( 'NONE',  ( -0.0000000000000000000, -0.0000000000000000000, -1.000000000000000000 ) ) ;
#201 = CARTESIAN_POINT ( 'NONE',  ( 4.181447870492347900, -12.84931374769604800, -1.593265135709932800 ) ) ;
#202 = FACE_OUTER_BOUND ( 'NONE', #24, .T. ) ;
#203 = DIRECTION ( 'NONE',  ( 0.0000000000000000000, 0.0000000000000000000, 1.000000000000000000 ) ) ;
#204 = EDGE_CURVE ( 'NONE', #228, #78, #288, .T. ) ;
#205 = CARTESIAN_POINT ( 'NONE',  ( -12.69999999999999900, 3.997792089092478900E-015, -1.555890469032770000 ) ) ;
#206 = SHAPE_DEFINITION_REPRESENTATION ( #182, #4 ) ;
#207 = PERSON_AND_ORGANIZATION_ROLE ( 'design_supplier' ) ;
#208 = ADVANCED_FACE ( 'NONE', ( #169 ), #123, .F. ) ;
#209 = DIRECTION ( 'NONE',  ( 0.0000000000000000000, 1.000000000000000000, 0.0000000000000000000 ) ) ;
#210 = APPLICATION_CONTEXT ( 'configuration controlled 3d designs of mechanical parts and assemblies' ) ;
#211 = APPROVAL_PERSON_ORGANIZATION ( #184, #110, #48 ) ;
#212 = EDGE_LOOP ( 'NONE', ( #113, #98, #190 ) ) ;
#213 = DIRECTION ( 'NONE',  ( 0.0000000000000000000, 0.0000000000000000000, 1.000000000000000000 ) ) ;
#214 = COORDINATED_UNIVERSAL_TIME_OFFSET ( 2, 0, .AHEAD. ) ;
#215 = CARTESIAN_POINT ( 'NONE',  ( -4.181447870492384300, 12.84931374769603400, -1.593265135709926800 ) ) ;
#216 = CARTESIAN_POINT ( 'NONE',  ( 4.356461674548918400, 4.371360765849098100, 0.5420318034561585300 ) ) ;
#217 = DESIGN_CONTEXT ( 'detailed design', #210, 'design' ) ;
#218 = DIRECTION ( 'NONE',  ( -0.0000000000000000000, -0.0000000000000000000, -1.000000000000000000 ) ) ;
#219 = CARTESIAN_POINT ( 'NONE',  ( 4.181447870492382500, 12.84931374769602100, 5.993265135709921600 ) ) ;
#220 = ORIENTED_EDGE ( 'NONE', *, *, #274, .F. ) ;
#221 = CC_DESIGN_SECURITY_CLASSIFICATION ( #160, ( #73 ) ) ;
#222 = CARTESIAN_POINT ( 'NONE',  ( -12.38779661715511400, 12.84931374769602300, 7.520104756776152800 ) ) ;
#223 = CIRCLE ( 'NONE', #186, 12.69999999999999900 ) ;
#224 = DIRECTION ( 'NONE',  ( 1.000000000000000000, -8.881784197001252300E-016, 0.0000000000000000000 ) ) ;
#225 = CARTESIAN_POINT ( 'NONE',  ( 12.69999999999999900, 2.442490654175340100E-015, -1.555890469032770000 ) ) ;
#226 = CARTESIAN_POINT ( 'NONE',  ( -8.331492002088134900, -12.84931374769604800, 6.504772710876186400 ) ) ;
#227 = DIRECTION ( 'NONE',  ( 1.000000000000000000, 0.0000000000000000000, 0.0000000000000000000 ) ) ;
#228 = VERTEX_POINT ( 'NONE', #225 ) ;
#229 = APPROVAL_STATUS ( 'not_yet_approved' ) ;
#230 = AXIS2_PLACEMENT_3D ( 'NONE', #264, #144, #283 ) ;
#231 = DATE_AND_TIME ( #187, #23 ) ;
#232 = VECTOR ( 'NONE', #111, 1000.000000000000000 ) ;
#233 = VERTEX_POINT ( 'NONE', #146 ) ;
#234 = CC_DESIGN_PERSON_AND_ORGANIZATION_ASSIGNMENT ( #50, #149, ( #160 ) ) ;
#235 = DATE_AND_TIME ( #154, #119 ) ;
#236 = VERTEX_POINT ( 'NONE', #66 ) ;
#237 = DIRECTION ( 'NONE',  ( -0.0000000000000000000, -0.0000000000000000000, -1.000000000000000000 ) ) ;
#238 =( BOUNDED_SURFACE ( )  B_SPLINE_SURFACE ( 3, 3, ( 
 ( #61, #241, #219, #138 ),
 ( #198, #9, #62, #6 ),
 ( #141, #158, #87, #143 ),
 ( #117, #178, #38, #63 ) ),
 .UNSPECIFIED., .F., .F., .F. ) 
 B_SPLINE_SURFACE_WITH_KNOTS ( ( 4, 4 ),
 ( 4, 4 ),
 ( 0.0000000000000000000, 1.000000000000000000 ),
 ( 0.0000000000000000000, 1.000000000000000000 ),
 .UNSPECIFIED. ) 
 GEOMETRIC_REPRESENTATION_ITEM ( )  RATIONAL_B_SPLINE_SURFACE ( (
 ( 1.000000000000000000, 0.9949931634736405300, 0.9949931634736405300, 1.000000000000000000),
 ( 0.9798103638635249400, 0.9749046135448274900, 0.9749046135448274900, 0.9798103638635249400),
 ( 0.9798103638635249400, 0.9749046135448274900, 0.9749046135448274900, 0.9798103638635249400),
 ( 1.000000000000000000, 0.9949931634736405300, 0.9949931634736405300, 1.000000000000000000) ) ) 
 REPRESENTATION_ITEM ( '' )  SURFACE ( )  );
#239 = COORDINATED_UNIVERSAL_TIME_OFFSET ( 2, 0, .AHEAD. ) ;
#240 = ORIENTED_EDGE ( 'NONE', *, *, #257, .T. ) ;
#241 = CARTESIAN_POINT ( 'NONE',  ( 8.331492002088166900, 12.84931374769602100, 6.504772710876182800 ) ) ;
#242 = CARTESIAN_POINT ( 'NONE',  ( 4.996003610813200500E-016, 2.442490654175340100E-015, 5.955890469032760300 ) ) ;
#243 = DIRECTION ( 'NONE',  ( 1.000000000000000000, 0.0000000000000000000, 0.0000000000000000000 ) ) ;
#244 = AXIS2_PLACEMENT_3D ( 'NONE', #124, #102, #295 ) ;
#245 = CARTESIAN_POINT ( 'NONE',  ( -1.421085471520199700E-014, 12.84931374769603500, -1.593265135709932800 ) ) ;
#246 = PERSON_AND_ORGANIZATION ( #252, #161 ) ;
#247 = CARTESIAN_POINT ( 'NONE',  ( -12.90628578095572700, 4.371360765849089200, 5.448713435602529700 ) ) ;
#248 = EDGE_LOOP ( 'NONE', ( #27, #240, #103, #44, #171, #261 ) ) ;
#249 = CARTESIAN_POINT ( 'NONE',  ( -4.181447870492347900, 12.84931374769602100, 5.993265135709926900 ) ) ;
#250 = AXIS2_PLACEMENT_3D ( 'NONE', #263, #33, #109 ) ;
#251 = CARTESIAN_POINT ( 'NONE',  ( -1.421085471520200100E-014, -2.131628207280299900E-014, -52.61000000000000700 ) ) ;
#252 = PERSON ( 'UNSPECIFIED', 'UNSPECIFIED', 'UNSPECIFIED', ('UNSPECIFIED'), ('UNSPECIFIED'), ('UNSPECIFIED') ) ;
#253 = APPLICATION_CONTEXT ( 'configuration controlled 3d designs of mechanical parts and assemblies' ) ;
#254 = VECTOR ( 'NONE', #203, 1000.000000000000000 ) ;
#255 = VERTEX_POINT ( 'NONE', #205 ) ;
#256 = LOCAL_TIME ( 8, 14, 38.00000000000000000, #214 ) ;
#257 = EDGE_CURVE ( 'NONE', #185, #255, #131, .T. ) ;
#258 = CARTESIAN_POINT ( 'NONE',  ( 4.996003610813200500E-016, 2.442490654175340100E-015, 5.955890469032760300 ) ) ;
#259 = PERSON_AND_ORGANIZATION ( #252, #161 ) ;
#260 =( BOUNDED_SURFACE ( )  B_SPLINE_SURFACE ( 3, 3, ( 
 ( #245, #35, #136, #279 ),
 ( #176, #216, #86, #8 ),
 ( #177, #195, #60, #17 ),
 ( #71, #201, #199, #284 ) ),
 .UNSPECIFIED., .F., .F., .F. ) 
 B_SPLINE_SURFACE_WITH_KNOTS ( ( 4, 4 ),
 ( 4, 4 ),
 ( 0.0000000000000000000, 1.000000000000000000 ),
 ( 0.0000000000000000000, 1.000000000000000000 ),
 .UNSPECIFIED. ) 
 GEOMETRIC_REPRESENTATION_ITEM ( )  RATIONAL_B_SPLINE_SURFACE ( (
 ( 1.000000000000000000, 0.9949931634736405300, 0.9949931634736405300, 1.000000000000000000),
 ( 0.9798103638635248200, 0.9749046135448273800, 0.9749046135448273800, 0.9798103638635248200),
 ( 0.9798103638635248200, 0.9749046135448273800, 0.9749046135448273800, 0.9798103638635248200),
 ( 1.000000000000000000, 0.9949931634736405300, 0.9949931634736405300, 1.000000000000000000) ) ) 
 REPRESENTATION_ITEM ( '' )  SURFACE ( )  );
#261 = ORIENTED_EDGE ( 'NONE', *, *, #204, .F. ) ;
#262 = CC_DESIGN_DATE_AND_TIME_ASSIGNMENT ( #173, #170, ( #286 ) ) ;
#263 = CARTESIAN_POINT ( 'NONE',  ( 4.996003610813200500E-016, 2.442490654175340100E-015, -1.555890469032770000 ) ) ;
#264 = CARTESIAN_POINT ( 'NONE',  ( 1.421085471520200100E-014, -2.131628207280299900E-014, 57.00999999999999800 ) ) ;
#265 = DATE_AND_TIME ( #112, #49 ) ;
#266 = PERSON_AND_ORGANIZATION ( #252, #161 ) ;
#267 = CIRCLE ( 'NONE', #89, 12.69999999999999900 ) ;
#268 = DIRECTION ( 'NONE',  ( 1.000000000000000000, 0.0000000000000000000, 0.0000000000000000000 ) ) ;
#269 = DIRECTION ( 'NONE',  ( 0.0000000000000000000, 0.0000000000000000000, 1.000000000000000000 ) ) ;
#270 = APPROVAL_STATUS ( 'not_yet_approved' ) ;
#271 = ORIENTED_EDGE ( 'NONE', *, *, #67, .F. ) ;
#272 = ADVANCED_FACE ( 'NONE', ( #75 ), #193, .T. ) ;
#273 = CALENDAR_DATE ( 2019, 21, 1 ) ;
#274 = EDGE_CURVE ( 'NONE', #233, #236, #137, .T. ) ;
#275 = ORIENTED_EDGE ( 'NONE', *, *, #83, .F. ) ;
#276 = CARTESIAN_POINT ( 'NONE',  ( -4.356461674548953900, -4.371360765849111400, 0.5420318034561590900 ) ) ;
#277 = MANIFOLD_SOLID_BREP ( 'Imported1', #42 ) ;
#278 = CARTESIAN_POINT ( 'NONE',  ( -12.38779661715514600, 12.84931374769603500, -3.120104756776154200 ) ) ;
#279 = CARTESIAN_POINT ( 'NONE',  ( 12.38779661715511400, 12.84931374769603500, -3.120104756776158200 ) ) ;
#280 = CARTESIAN_POINT ( 'NONE',  ( -12.69999999999999900, 3.997792089092478900E-015, -1.555890469032770000 ) ) ;
#281 = CC_DESIGN_PERSON_AND_ORGANIZATION_ASSIGNMENT ( #292, #125, ( #286 ) ) ;
#282 = CIRCLE ( 'NONE', #134, 12.69999999999999900 ) ;
#283 = DIRECTION ( 'NONE',  ( 0.0000000000000000000, 1.000000000000000000, 0.0000000000000000000 ) ) ;
#284 = CARTESIAN_POINT ( 'NONE',  ( 12.38779661715511400, -12.84931374769604600, -3.120104756776158200 ) ) ;
#285 = DIRECTION ( 'NONE',  ( 1.000000000000000000, 0.0000000000000000000, 0.0000000000000000000 ) ) ;
#286 = PRODUCT_DEFINITION ( 'UNKNOWN', '', #73, #217 ) ;
#287 = CARTESIAN_POINT ( 'NONE',  ( 1.421085471520200200E-014, 4.371360765849089200, 3.857968196543839000 ) ) ;
#288 = LINE ( 'NONE', #43, #254 ) ;
#289 = ORIENTED_EDGE ( 'NONE', *, *, #30, .T. ) ;
#290 = EDGE_CURVE ( 'NONE', #233, #78, #282, .T. ) ;
#291 = APPROVAL ( #97, 'UNSPECIFIED' ) ;
#292 = PERSON_AND_ORGANIZATION ( #252, #161 ) ;
#293 = ORIENTED_EDGE ( 'NONE', *, *, #76, .T. ) ;
#294 = EDGE_CURVE ( 'NONE', #185, #85, #145, .T. ) ;
#295 = DIRECTION ( 'NONE',  ( 1.000000000000000000, 0.0000000000000000000, 0.0000000000000000000 ) ) ;
ENDSEC;
END-ISO-10303-21;
