ISO-10303-21;
HEADER;
FILE_DESCRIPTION (( 'STEP AP203' ),
    '1' );
FILE_NAME ('114-0206E BK7 bi-cv 25.4 F-40.STEP',
    '2019-01-21T06:08:11',
    ( '' ),
    ( '' ),
    'SwSTEP 2.0',
    'SolidWorks 2017',
    '' );
FILE_SCHEMA (( 'CONFIG_CONTROL_DESIGN' ));
ENDSEC;

DATA;
#1 = CARTESIAN_POINT ( 'NONE',  ( -1.561251128379126400E-014, 12.84747701039420200, -2.015743596914289600 ) ) ;
#2 = EDGE_CURVE ( 'NONE', #216, #89, #231, .T. ) ;
#3 = ORIENTED_EDGE ( 'NONE', *, *, #212, .T. ) ;
#4 = DIRECTION ( 'NONE',  ( 0.0000000000000000000, 0.0000000000000000000, 1.000000000000000000 ) ) ;
#5 = CARTESIAN_POINT ( 'NONE',  ( 8.778971615386717900, -4.424218028696322400, 2.686288854565878300 ) ) ;
#6 = PERSON_AND_ORGANIZATION ( #83, #51 ) ;
#7 = EDGE_LOOP ( 'NONE', ( #20, #73, #199 ) ) ;
#8 = DIRECTION ( 'NONE',  ( 0.0000000000000000000, 1.000000000000000000, 0.0000000000000000000 ) ) ;
#9 = AXIS2_PLACEMENT_3D ( 'NONE', #193, #214, #90 ) ;
#10 = SECURITY_CLASSIFICATION_LEVEL ( 'unclassified' ) ;
#11 = ORIENTED_EDGE ( 'NONE', *, *, #36, .T. ) ;
#12 = DATE_TIME_ROLE ( 'classification_date' ) ;
#13 = PERSON_AND_ORGANIZATION ( #83, #51 ) ;
#14 = EDGE_LOOP ( 'NONE', ( #267, #57, #109 ) ) ;
#15 = CC_DESIGN_APPROVAL ( #294, ( #170 ) ) ;
#16 = ORIENTED_EDGE ( 'NONE', *, *, #111, .T. ) ;
#17 = DIRECTION ( 'NONE',  ( 0.0000000000000000000, 0.0000000000000000000, 1.000000000000000000 ) ) ;
#18 = AXIS2_PLACEMENT_3D ( 'NONE', #253, #102, #76 ) ;
#19 = CALENDAR_DATE ( 2019, 21, 1 ) ;
#20 = ORIENTED_EDGE ( 'NONE', *, *, #75, .F. ) ;
#21 = CARTESIAN_POINT ( 'NONE',  ( 7.105427357600998700E-015, 4.424218028696312600, 2.005848988444797000 ) ) ;
#22 = CARTESIAN_POINT ( 'NONE',  ( -12.98512899490808400, 4.424218028696318000, -1.330915317034508900 ) ) ;
#23 = ORIENTED_EDGE ( 'NONE', *, *, #175, .T. ) ;
#24 = CARTESIAN_POINT ( 'NONE',  ( -12.15996703907391200, -12.84747701039420800, 6.612123665009525200 ) ) ;
#25 = CC_DESIGN_DATE_AND_TIME_ASSIGNMENT ( #166, #12, ( #269 ) ) ;
#26 = CARTESIAN_POINT ( 'NONE',  ( -4.415855548460917200, -4.424218028696317100, 0.6941510115552023100 ) ) ;
#27 = DATE_AND_TIME ( #172, #87 ) ;
#28 = CARTESIAN_POINT ( 'NONE',  ( 12.15996703907392500, 12.84747701039419700, 6.612123665009524300 ) ) ;
#29 = DATE_AND_TIME ( #204, #68 ) ;
#30 = CARTESIAN_POINT ( 'NONE',  ( 1.561251128379126400E-014, -4.424218028696323300, 2.005848988444798300 ) ) ;
#31 = CARTESIAN_POINT ( 'NONE',  ( -7.105427357601000300E-015, -12.69999999999999800, -1.968598073604270500 ) ) ;
#32 = APPROVAL_STATUS ( 'not_yet_approved' ) ;
#33 = PERSON_AND_ORGANIZATION_ROLE ( 'classification_officer' ) ;
#34 = EDGE_CURVE ( 'NONE', #148, #118, #292, .T. ) ;
#35 = LOCAL_TIME ( 8, 8, 11.00000000000000000, #56 ) ;
#36 = EDGE_CURVE ( 'NONE', #118, #89, #98, .T. ) ;
#37 = CARTESIAN_POINT ( 'NONE',  ( 7.105427357600998700E-015, 12.84747701039419900, 4.715743596914283100 ) ) ;
#38 = CARTESIAN_POINT ( 'NONE',  ( -8.778971615386700100, 4.424218028696313500, 2.686288854565877800 ) ) ;
#39 = CARTESIAN_POINT ( 'NONE',  ( -4.135242548584040300, -12.84747701039420600, 4.715743596914284000 ) ) ;
#40 = ORIENTED_EDGE ( 'NONE', *, *, #256, .T. ) ;
#41 = CARTESIAN_POINT ( 'NONE',  ( -8.778971615386719700, 4.424218028696318900, 0.01371114543411680800 ) ) ;
#42 = APPROVAL_PERSON_ORGANIZATION ( #289, #294, #183 ) ;
#43 = CARTESIAN_POINT ( 'NONE',  ( 4.996003610813200500E-016, 2.442490654175340100E-015, -1.968598073604270100 ) ) ;
#44 = CARTESIAN_POINT ( 'NONE',  ( 8.221097035072135700, -12.84747701039420800, 5.352943762376543000 ) ) ;
#45 = DIRECTION ( 'NONE',  ( 0.0000000000000000000, 0.0000000000000000000, 1.000000000000000000 ) ) ;
#46 = CIRCLE ( 'NONE', #251, 41.95000000000000300 ) ;
#47 = EDGE_LOOP ( 'NONE', ( #233, #187, #226 ) ) ;
#48 = CARTESIAN_POINT ( 'NONE',  ( 4.135242548584058900, 12.84747701039419900, 4.715743596914284900 ) ) ;
#49 = CARTESIAN_POINT ( 'NONE',  ( 8.778971615386700100, -4.424218028696317100, 0.01371114543412266100 ) ) ;
#50 = APPROVAL ( #32, 'UNSPECIFIED' ) ;
#51 = ORGANIZATION ( 'UNSPECIFIED', 'UNSPECIFIED', '' ) ;
#52 = APPLICATION_PROTOCOL_DEFINITION ( 'international standard', 'config_control_design', 1994, #54 ) ;
#53 = AXIS2_PLACEMENT_3D ( 'NONE', #86, #63, #110 ) ;
#54 = APPLICATION_CONTEXT ( 'configuration controlled 3d designs of mechanical parts and assemblies' ) ;
#55 = ADVANCED_FACE ( 'NONE', ( #180 ), #95, .F. ) ;
#56 = COORDINATED_UNIVERSAL_TIME_OFFSET ( 2, 0, .AHEAD. ) ;
#57 = ORIENTED_EDGE ( 'NONE', *, *, #201, .T. ) ;
#58 = CC_DESIGN_PERSON_AND_ORGANIZATION_ASSIGNMENT ( #13, #161, ( #170 ) ) ;
#59 = ADVANCED_FACE ( 'NONE', ( #164 ), #157, .T. ) ;
#60 = CC_DESIGN_PERSON_AND_ORGANIZATION_ASSIGNMENT ( #129, #142, ( #170 ) ) ;
#61 = CIRCLE ( 'NONE', #155, 41.95000000000000300 ) ;
#62 = CARTESIAN_POINT ( 'NONE',  ( -8.778971615386700100, -4.424218028696321500, 2.686288854565877000 ) ) ;
#63 = DIRECTION ( 'NONE',  ( 0.0000000000000000000, 0.0000000000000000000, 1.000000000000000000 ) ) ;
#64 = CARTESIAN_POINT ( 'NONE',  ( -1.561251128379126400E-014, -12.84747701039420200, -2.015743596914282500 ) ) ;
#65 = CLOSED_SHELL ( 'NONE', ( #104, #259, #59, #80, #285, #55 ) ) ;
#66 = PRODUCT_RELATED_PRODUCT_CATEGORY ( 'detail', '', ( #191 ) ) ;
#67 = CARTESIAN_POINT ( 'NONE',  ( 4.996003610813200500E-016, 2.442490654175340100E-015, 4.668598073604269600 ) ) ;
#68 = LOCAL_TIME ( 8, 8, 11.00000000000000000, #266 ) ;
#69 = VERTEX_POINT ( 'NONE', #85 ) ;
#70 = CARTESIAN_POINT ( 'NONE',  ( 1.561251128379126400E-014, -12.84747701039420800, 4.715743596914284900 ) ) ;
#71 = DIRECTION ( 'NONE',  ( 1.000000000000000000, 0.0000000000000000000, 0.0000000000000000000 ) ) ;
#72 = CARTESIAN_POINT ( 'NONE',  ( -7.105427357601000300E-015, 12.84747701039420200, -2.015743596914289200 ) ) ;
#73 = ORIENTED_EDGE ( 'NONE', *, *, #34, .F. ) ;
#74 = CARTESIAN_POINT ( 'NONE',  ( 4.135242548584040300, 12.84747701039420200, -2.015743596914289200 ) ) ;
#75 = EDGE_CURVE ( 'NONE', #118, #69, #61, .T. ) ;
#76 = DIRECTION ( 'NONE',  ( 1.000000000000000000, 0.0000000000000000000, 0.0000000000000000000 ) ) ;
#77 = CYLINDRICAL_SURFACE ( 'NONE', #53, 12.69999999999999900 ) ;
#78 = CARTESIAN_POINT ( 'NONE',  ( 12.15996703907391000, 12.84747701039420200, -3.912123665009530800 ) ) ;
#79 = ORIENTED_EDGE ( 'NONE', *, *, #111, .F. ) ;
#80 = ADVANCED_FACE ( 'NONE', ( #163 ), #77, .T. ) ;
#81 =( BOUNDED_SURFACE ( )  B_SPLINE_SURFACE ( 3, 3, ( 
 ( #239, #151, #168, #1 ),
 ( #22, #41, #149, #169 ),
 ( #218, #264, #26, #112 ),
 ( #174, #238, #171, #64 ) ),
 .UNSPECIFIED., .F., .F., .F. ) 
 B_SPLINE_SURFACE_WITH_KNOTS ( ( 4, 4 ),
 ( 4, 4 ),
 ( 0.0000000000000000000, 1.000000000000000000 ),
 ( 0.0000000000000000000, 1.000000000000000000 ),
 .UNSPECIFIED. ) 
 GEOMETRIC_REPRESENTATION_ITEM ( )  RATIONAL_B_SPLINE_SURFACE ( (
 ( 1.000000000000000000, 0.9920378612998360700, 0.9920378612998360700, 1.000000000000000000),
 ( 0.9679659340975084200, 0.9602588550731903100, 0.9602588550731903100, 0.9679659340975084200),
 ( 0.9679659340975084200, 0.9602588550731903100, 0.9602588550731903100, 0.9679659340975084200),
 ( 1.000000000000000000, 0.9920378612998360700, 0.9920378612998360700, 1.000000000000000000) ) ) 
 REPRESENTATION_ITEM ( '' )  SURFACE ( )  );
#82 = DATE_AND_TIME ( #291, #247 ) ;
#83 = PERSON ( 'UNSPECIFIED', 'UNSPECIFIED', 'UNSPECIFIED', ('UNSPECIFIED'), ('UNSPECIFIED'), ('UNSPECIFIED') ) ;
#84 = CARTESIAN_POINT ( 'NONE',  ( -4.135242548584041200, 12.84747701039419900, 4.715743596914284000 ) ) ;
#85 = CARTESIAN_POINT ( 'NONE',  ( 7.105427357600998700E-015, -12.69999999999999900, 4.668598073604270500 ) ) ;
#86 = CARTESIAN_POINT ( 'NONE',  ( 4.996003610813200500E-016, 2.442490654175340100E-015, -1.968598073604270100 ) ) ;
#87 = LOCAL_TIME ( 8, 8, 11.00000000000000000, #144 ) ;
#88 = PRODUCT_DEFINITION ( 'UNKNOWN', '', #170, #188 ) ;
#89 = VERTEX_POINT ( 'NONE', #132 ) ;
#90 = DIRECTION ( 'NONE',  ( 1.000000000000000000, 0.0000000000000000000, 0.0000000000000000000 ) ) ;
#91 = DIRECTION ( 'NONE',  ( -0.0000000000000000000, -0.0000000000000000000, -1.000000000000000000 ) ) ;
#92 = DIRECTION ( 'NONE',  ( 0.0000000000000000000, 0.0000000000000000000, 1.000000000000000000 ) ) ;
#93 = DATE_AND_TIME ( #19, #35 ) ;
#94 = DIRECTION ( 'NONE',  ( 0.0000000000000000000, 0.0000000000000000000, 1.000000000000000000 ) ) ;
#95 =( BOUNDED_SURFACE ( )  B_SPLINE_SURFACE ( 3, 3, ( 
 ( #37, #84, #130, #150 ),
 ( #21, #240, #38, #263 ),
 ( #146, #270, #62, #195 ),
 ( #217, #39, #241, #24 ) ),
 .UNSPECIFIED., .F., .F., .F. ) 
 B_SPLINE_SURFACE_WITH_KNOTS ( ( 4, 4 ),
 ( 4, 4 ),
 ( 0.0000000000000000000, 1.000000000000000000 ),
 ( 0.0000000000000000000, 1.000000000000000000 ),
 .UNSPECIFIED. ) 
 GEOMETRIC_REPRESENTATION_ITEM ( )  RATIONAL_B_SPLINE_SURFACE ( (
 ( 1.000000000000000000, 0.9920378612998360700, 0.9920378612998360700, 1.000000000000000000),
 ( 0.9679659340975084200, 0.9602588550731903100, 0.9602588550731903100, 0.9679659340975084200),
 ( 0.9679659340975084200, 0.9602588550731903100, 0.9602588550731903100, 0.9679659340975084200),
 ( 1.000000000000000000, 0.9920378612998360700, 0.9920378612998360700, 1.000000000000000000) ) ) 
 REPRESENTATION_ITEM ( '' )  SURFACE ( )  );
#96 = CARTESIAN_POINT ( 'NONE',  ( 1.734723475976807100E-014, 4.424218028696311800, 2.005848988444797400 ) ) ;
#97 = CIRCLE ( 'NONE', #143, 12.69999999999999900 ) ;
#98 = CIRCLE ( 'NONE', #262, 12.69999999999999900 ) ;
#99 = CARTESIAN_POINT ( 'NONE',  ( 8.778971615386698300, 4.424218028696318900, 0.01371114543411702500 ) ) ;
#100 = CARTESIAN_POINT ( 'NONE',  ( -7.105427357601000300E-015, -4.424218028696316200, 0.6941510115552036500 ) ) ;
#101 = CIRCLE ( 'NONE', #103, 12.69999999999999900 ) ;
#102 = DIRECTION ( 'NONE',  ( 0.0000000000000000000, 0.0000000000000000000, 1.000000000000000000 ) ) ;
#103 = AXIS2_PLACEMENT_3D ( 'NONE', #245, #271, #200 ) ;
#104 = ADVANCED_FACE ( 'NONE', ( #280 ), #81, .F. ) ;
#105 = APPROVAL_PERSON_ORGANIZATION ( #221, #288, #184 ) ;
#106 = APPROVAL_DATE_TIME ( #93, #50 ) ;
#107 = DIRECTION ( 'NONE',  ( -0.0000000000000000000, -0.0000000000000000000, -1.000000000000000000 ) ) ;
#108 = CIRCLE ( 'NONE', #290, 12.69999999999999900 ) ;
#109 = ORIENTED_EDGE ( 'NONE', *, *, #160, .F. ) ;
#110 = DIRECTION ( 'NONE',  ( 1.000000000000000000, 0.0000000000000000000, 0.0000000000000000000 ) ) ;
#111 = EDGE_CURVE ( 'NONE', #258, #216, #108, .T. ) ;
#112 = CARTESIAN_POINT ( 'NONE',  ( -1.734723475976807100E-014, -4.424218028696316200, 0.6941510115552036500 ) ) ;
#113 = DIRECTION ( 'NONE',  ( 0.0000000000000000000, 1.000000000000000000, 3.308173494115484200E-016 ) ) ;
#114 = FACE_OUTER_BOUND ( 'NONE', #248, .T. ) ;
#115 = AXIS2_PLACEMENT_3D ( 'NONE', #43, #4, #275 ) ;
#116 = CARTESIAN_POINT ( 'NONE',  ( 8.778971615386721400, 4.424218028696312600, 2.686288854565877800 ) ) ;
#117 = CARTESIAN_POINT ( 'NONE',  ( 12.15996703907392300, -12.84747701039421000, 6.612123665009524300 ) ) ;
#118 = VERTEX_POINT ( 'NONE', #219 ) ;
#119 = DIRECTION ( 'NONE',  ( -0.0000000000000000000, -0.0000000000000000000, -1.000000000000000000 ) ) ;
#120 = CARTESIAN_POINT ( 'NONE',  ( 12.98512899490807000, 4.424218028696318000, -1.330915317034510300 ) ) ;
#121 = CARTESIAN_POINT ( 'NONE',  ( 4.135242548584041200, -12.84747701039420200, -2.015743596914282500 ) ) ;
#122 = VERTEX_POINT ( 'NONE', #178 ) ;
#123 = DIRECTION ( 'NONE',  ( -0.0000000000000000000, -0.0000000000000000000, -1.000000000000000000 ) ) ;
#124 = CARTESIAN_POINT ( 'NONE',  ( -7.105427357601000300E-015, -12.84747701039420200, -2.015743596914282100 ) ) ;
#125 = VERTEX_POINT ( 'NONE', #220 ) ;
#126 = AXIS2_PLACEMENT_3D ( 'NONE', #67, #119, #273 ) ;
#127 = UNCERTAINTY_MEASURE_WITH_UNIT (LENGTH_MEASURE( 1.000000000000000100E-005 ), #206, 'distance_accuracy_value', 'NONE');
#128 = CARTESIAN_POINT ( 'NONE',  ( 12.69999999999999900, 2.442490654175340100E-015, -1.968598073604270100 ) ) ;
#129 = PERSON_AND_ORGANIZATION ( #83, #51 ) ;
#130 = CARTESIAN_POINT ( 'NONE',  ( -8.221097035072118000, 12.84747701039419900, 5.352943762376543000 ) ) ;
#131 = ORIENTED_EDGE ( 'NONE', *, *, #234, .T. ) ;
#132 = CARTESIAN_POINT ( 'NONE',  ( 12.69999999999999900, 2.442490654175340100E-015, 4.668598073604269600 ) ) ;
#133 = DIRECTION ( 'NONE',  ( 1.000000000000000000, 0.0000000000000000000, 0.0000000000000000000 ) ) ;
#134 = PERSON_AND_ORGANIZATION ( #83, #51 ) ;
#135 = CARTESIAN_POINT ( 'NONE',  ( 12.98512899490808400, -4.424218028696324200, 4.030915317034503800 ) ) ;
#136 = CC_DESIGN_SECURITY_CLASSIFICATION ( #269, ( #170 ) ) ;
#137 = PERSON_AND_ORGANIZATION_ROLE ( 'design_owner' ) ;
#138 = APPROVAL_DATE_TIME ( #27, #288 ) ;
#139 = DATE_TIME_ROLE ( 'creation_date' ) ;
#140 =( NAMED_UNIT ( * ) PLANE_ANGLE_UNIT ( ) SI_UNIT ( $, .RADIAN. ) );
#141 = LINE ( 'NONE', #176, #276 ) ;
#142 = PERSON_AND_ORGANIZATION_ROLE ( 'design_supplier' ) ;
#143 = AXIS2_PLACEMENT_3D ( 'NONE', #250, #94, #249 ) ;
#144 = COORDINATED_UNIVERSAL_TIME_OFFSET ( 2, 0, .AHEAD. ) ;
#145 = APPROVAL_PERSON_ORGANIZATION ( #134, #50, #228 ) ;
#146 = CARTESIAN_POINT ( 'NONE',  ( 7.105427357600998700E-015, -4.424218028696322400, 2.005848988444796500 ) ) ;
#147 = CC_DESIGN_PERSON_AND_ORGANIZATION_ASSIGNMENT ( #215, #159, ( #88 ) ) ;
#148 = VERTEX_POINT ( 'NONE', #293 ) ;
#149 = CARTESIAN_POINT ( 'NONE',  ( -4.415855548460916300, 4.424218028696318900, 0.6941510115551957600 ) ) ;
#150 = CARTESIAN_POINT ( 'NONE',  ( -12.15996703907391400, 12.84747701039419900, 6.612123665009526100 ) ) ;
#151 = CARTESIAN_POINT ( 'NONE',  ( -8.221097035072135700, 12.84747701039420200, -2.652943762376549100 ) ) ;
#152 = CARTESIAN_POINT ( 'NONE',  ( 8.221097035072137500, 12.84747701039419700, 5.352943762376543000 ) ) ;
#153 = CIRCLE ( 'NONE', #284, 12.69999999999999900 ) ;
#154 = CARTESIAN_POINT ( 'NONE',  ( -7.105427357601000300E-015, -3.552713678800500100E-015, -41.95000000000000300 ) ) ;
#155 = AXIS2_PLACEMENT_3D ( 'NONE', #197, #243, #113 ) ;
#156 = CARTESIAN_POINT ( 'NONE',  ( 4.415855548460915400, -4.424218028696322400, 2.005848988444799200 ) ) ;
#157 = CYLINDRICAL_SURFACE ( 'NONE', #9, 12.69999999999999900 ) ;
#158 = CC_DESIGN_APPROVAL ( #288, ( #269 ) ) ;
#159 = PERSON_AND_ORGANIZATION_ROLE ( 'creator' ) ;
#160 = EDGE_CURVE ( 'NONE', #125, #258, #101, .T. ) ;
#161 = PERSON_AND_ORGANIZATION_ROLE ( 'creator' ) ;
#162 =( BOUNDED_SURFACE ( )  B_SPLINE_SURFACE ( 3, 3, ( 
 ( #72, #74, #283, #78 ),
 ( #227, #224, #99, #120 ),
 ( #100, #255, #49, #279 ),
 ( #124, #121, #229, #277 ) ),
 .UNSPECIFIED., .F., .F., .F. ) 
 B_SPLINE_SURFACE_WITH_KNOTS ( ( 4, 4 ),
 ( 4, 4 ),
 ( 0.0000000000000000000, 1.000000000000000000 ),
 ( 0.0000000000000000000, 1.000000000000000000 ),
 .UNSPECIFIED. ) 
 GEOMETRIC_REPRESENTATION_ITEM ( )  RATIONAL_B_SPLINE_SURFACE ( (
 ( 1.000000000000000000, 0.9920378612998360700, 0.9920378612998360700, 1.000000000000000000),
 ( 0.9679659340975084200, 0.9602588550731903100, 0.9602588550731903100, 0.9679659340975084200),
 ( 0.9679659340975084200, 0.9602588550731903100, 0.9602588550731903100, 0.9679659340975084200),
 ( 1.000000000000000000, 0.9920378612998360700, 0.9920378612998360700, 1.000000000000000000) ) ) 
 REPRESENTATION_ITEM ( '' )  SURFACE ( )  );
#163 = FACE_OUTER_BOUND ( 'NONE', #237, .T. ) ;
#164 = FACE_OUTER_BOUND ( 'NONE', #205, .T. ) ;
#165 = SHAPE_DEFINITION_REPRESENTATION ( #208, #242 ) ;
#166 = DATE_AND_TIME ( #230, #179 ) ;
#167 = VECTOR ( 'NONE', #17, 1000.000000000000000 ) ;
#168 = CARTESIAN_POINT ( 'NONE',  ( -4.135242548584058000, 12.84747701039420200, -2.015743596914290500 ) ) ;
#169 = CARTESIAN_POINT ( 'NONE',  ( -1.734723475976807100E-014, 4.424218028696318000, 0.6941510115551970900 ) ) ;
#170 = PRODUCT_DEFINITION_FORMATION_WITH_SPECIFIED_SOURCE ( 'ANY', '', #191, .NOT_KNOWN. ) ;
#171 = CARTESIAN_POINT ( 'NONE',  ( -4.135242548584058000, -12.84747701039420200, -2.015743596914283800 ) ) ;
#172 = CALENDAR_DATE ( 2019, 21, 1 ) ;
#173 = ORIENTED_EDGE ( 'NONE', *, *, #201, .F. ) ;
#174 = CARTESIAN_POINT ( 'NONE',  ( -12.15996703907392300, -12.84747701039420200, -3.912123665009523200 ) ) ;
#175 = EDGE_CURVE ( 'NONE', #125, #148, #141, .T. ) ;
#176 = CARTESIAN_POINT ( 'NONE',  ( -12.69999999999999900, 3.997792089092478900E-015, -1.968598073604270100 ) ) ;
#177 = CARTESIAN_POINT ( 'NONE',  ( 1.561251128379126400E-014, 12.84747701039419900, 4.715743596914283100 ) ) ;
#178 = CARTESIAN_POINT ( 'NONE',  ( -7.105427357601000300E-015, 12.69999999999999600, -1.968598073604270500 ) ) ;
#179 = LOCAL_TIME ( 8, 8, 11.00000000000000000, #235 ) ;
#180 = FACE_OUTER_BOUND ( 'NONE', #7, .T. ) ;
#181 = CARTESIAN_POINT ( 'NONE',  ( 4.996003610813200500E-016, 2.442490654175340100E-015, -1.968598073604270100 ) ) ;
#182 = ORIENTED_EDGE ( 'NONE', *, *, #2, .F. ) ;
#183 = APPROVAL_ROLE ( '' ) ;
#184 = APPROVAL_ROLE ( '' ) ;
#185 =( NAMED_UNIT ( * ) SI_UNIT ( $, .STERADIAN. ) SOLID_ANGLE_UNIT ( ) );
#186 = APPROVAL_DATE_TIME ( #29, #294 ) ;
#187 = ORIENTED_EDGE ( 'NONE', *, *, #75, .T. ) ;
#188 = DESIGN_CONTEXT ( 'detailed design', #278, 'design' ) ;
#189 = PERSON_AND_ORGANIZATION ( #83, #51 ) ;
#190 = ORIENTED_EDGE ( 'NONE', *, *, #175, .F. ) ;
#191 = PRODUCT ( '114-0206E BK7 bi-cv 25.4 F-40', '114-0206E BK7 bi-cv 25.4 F-40', '', ( #281 ) ) ;
#192 =( BOUNDED_SURFACE ( )  B_SPLINE_SURFACE ( 3, 3, ( 
 ( #28, #152, #48, #177 ),
 ( #246, #116, #274, #96 ),
 ( #135, #5, #156, #30 ),
 ( #117, #44, #202, #70 ) ),
 .UNSPECIFIED., .F., .F., .F. ) 
 B_SPLINE_SURFACE_WITH_KNOTS ( ( 4, 4 ),
 ( 4, 4 ),
 ( 0.0000000000000000000, 1.000000000000000000 ),
 ( 0.0000000000000000000, 1.000000000000000000 ),
 .UNSPECIFIED. ) 
 GEOMETRIC_REPRESENTATION_ITEM ( )  RATIONAL_B_SPLINE_SURFACE ( (
 ( 1.000000000000000000, 0.9920378612998360700, 0.9920378612998360700, 1.000000000000000000),
 ( 0.9679659340975084200, 0.9602588550731903100, 0.9602588550731903100, 0.9679659340975084200),
 ( 0.9679659340975084200, 0.9602588550731903100, 0.9602588550731903100, 0.9679659340975084200),
 ( 1.000000000000000000, 0.9920378612998360700, 0.9920378612998360700, 1.000000000000000000) ) ) 
 REPRESENTATION_ITEM ( '' )  SURFACE ( )  );
#193 = CARTESIAN_POINT ( 'NONE',  ( 4.996003610813200500E-016, 2.442490654175340100E-015, -1.968598073604270100 ) ) ;
#194 = CARTESIAN_POINT ( 'NONE',  ( 4.996003610813200500E-016, 2.442490654175340100E-015, 4.668598073604269600 ) ) ;
#195 = CARTESIAN_POINT ( 'NONE',  ( -12.98512899490807400, -4.424218028696323300, 4.030915317034504700 ) ) ;
#196 = ORIENTED_EDGE ( 'NONE', *, *, #256, .F. ) ;
#197 = CARTESIAN_POINT ( 'NONE',  ( 7.105427357601000300E-015, -3.552713678800500100E-015, 44.65000000000000600 ) ) ;
#198 = COORDINATED_UNIVERSAL_TIME_OFFSET ( 2, 0, .AHEAD. ) ;
#199 = ORIENTED_EDGE ( 'NONE', *, *, #265, .F. ) ;
#200 = DIRECTION ( 'NONE',  ( 1.000000000000000000, 0.0000000000000000000, 0.0000000000000000000 ) ) ;
#201 = EDGE_CURVE ( 'NONE', #122, #258, #46, .T. ) ;
#202 = CARTESIAN_POINT ( 'NONE',  ( 4.135242548584058000, -12.84747701039420600, 4.715743596914286700 ) ) ;
#203 = CARTESIAN_POINT ( 'NONE',  ( 12.69999999999999900, 2.442490654175340100E-015, -1.968598073604270100 ) ) ;
#204 = CALENDAR_DATE ( 2019, 21, 1 ) ;
#205 = EDGE_LOOP ( 'NONE', ( #40, #3, #23, #261, #11, #182 ) ) ;
#206 =( LENGTH_UNIT ( ) NAMED_UNIT ( * ) SI_UNIT ( .MILLI., .METRE. ) );
#207 = APPROVAL_STATUS ( 'not_yet_approved' ) ;
#208 = PRODUCT_DEFINITION_SHAPE ( 'NONE', 'NONE',  #88 ) ;
#209 = APPROVAL_STATUS ( 'not_yet_approved' ) ;
#210 = CC_DESIGN_PERSON_AND_ORGANIZATION_ASSIGNMENT ( #6, #33, ( #269 ) ) ;
#211 = FACE_OUTER_BOUND ( 'NONE', #47, .T. ) ;
#212 = EDGE_CURVE ( 'NONE', #122, #125, #260, .T. ) ;
#213 = CIRCLE ( 'NONE', #126, 12.69999999999999900 ) ;
#214 = DIRECTION ( 'NONE',  ( 0.0000000000000000000, 0.0000000000000000000, 1.000000000000000000 ) ) ;
#215 = PERSON_AND_ORGANIZATION ( #83, #51 ) ;
#216 = VERTEX_POINT ( 'NONE', #203 ) ;
#217 = CARTESIAN_POINT ( 'NONE',  ( 7.105427357600998700E-015, -12.84747701039420800, 4.715743596914283100 ) ) ;
#218 = CARTESIAN_POINT ( 'NONE',  ( -12.98512899490808800, -4.424218028696316200, -1.330915317034503400 ) ) ;
#219 = CARTESIAN_POINT ( 'NONE',  ( 7.105427357600998700E-015, 12.69999999999999600, 4.668598073604270500 ) ) ;
#220 = CARTESIAN_POINT ( 'NONE',  ( -12.69999999999999900, 3.997792089092478900E-015, -1.968598073604270100 ) ) ;
#221 = PERSON_AND_ORGANIZATION ( #83, #51 ) ;
#222 = ORIENTED_EDGE ( 'NONE', *, *, #160, .T. ) ;
#223 =( GEOMETRIC_REPRESENTATION_CONTEXT ( 3 ) GLOBAL_UNCERTAINTY_ASSIGNED_CONTEXT ( ( #127 ) ) GLOBAL_UNIT_ASSIGNED_CONTEXT ( ( #206, #140, #185 ) ) REPRESENTATION_CONTEXT ( 'NONE', 'WORKASPACE' ) );
#224 = CARTESIAN_POINT ( 'NONE',  ( 4.415855548460897700, 4.424218028696318900, 0.6941510115551978700 ) ) ;
#225 = APPLICATION_PROTOCOL_DEFINITION ( 'international standard', 'config_control_design', 1994, #278 ) ;
#226 = ORIENTED_EDGE ( 'NONE', *, *, #234, .F. ) ;
#227 = CARTESIAN_POINT ( 'NONE',  ( -7.105427357601000300E-015, 4.424218028696318000, 0.6941510115551979800 ) ) ;
#228 = APPROVAL_ROLE ( '' ) ;
#229 = CARTESIAN_POINT ( 'NONE',  ( 8.221097035072118000, -12.84747701039420200, -2.652943762376541900 ) ) ;
#230 = CALENDAR_DATE ( 2019, 21, 1 ) ;
#231 = LINE ( 'NONE', #128, #167 ) ;
#232 = CC_DESIGN_APPROVAL ( #50, ( #88 ) ) ;
#233 = ORIENTED_EDGE ( 'NONE', *, *, #36, .F. ) ;
#234 = EDGE_CURVE ( 'NONE', #89, #69, #213, .T. ) ;
#235 = COORDINATED_UNIVERSAL_TIME_OFFSET ( 2, 0, .AHEAD. ) ;
#236 = CARTESIAN_POINT ( 'NONE',  ( 4.996003610813200500E-016, 2.442490654175340100E-015, 4.668598073604269600 ) ) ;
#237 = EDGE_LOOP ( 'NONE', ( #190, #222, #16, #252, #131, #286 ) ) ;
#238 = CARTESIAN_POINT ( 'NONE',  ( -8.221097035072137500, -12.84747701039420200, -2.652943762376541500 ) ) ;
#239 = CARTESIAN_POINT ( 'NONE',  ( -12.15996703907392300, 12.84747701039420200, -3.912123665009529900 ) ) ;
#240 = CARTESIAN_POINT ( 'NONE',  ( -4.415855548460897700, 4.424218028696313500, 2.005848988444796500 ) ) ;
#241 = CARTESIAN_POINT ( 'NONE',  ( -8.221097035072118000, -12.84747701039420600, 5.352943762376543000 ) ) ;
#242 = ADVANCED_BREP_SHAPE_REPRESENTATION ( '114-0206E BK7 bi-cv 25.4 F-40', ( #268, #18 ), #223 ) ;
#243 = DIRECTION ( 'NONE',  ( -1.000000000000000000, 0.0000000000000000000, 0.0000000000000000000 ) ) ;
#244 = CC_DESIGN_PERSON_AND_ORGANIZATION_ASSIGNMENT ( #189, #137, ( #191 ) ) ;
#245 = CARTESIAN_POINT ( 'NONE',  ( 4.996003610813200500E-016, 2.442490654175340100E-015, -1.968598073604270100 ) ) ;
#246 = CARTESIAN_POINT ( 'NONE',  ( 12.98512899490808800, 4.424218028696310900, 4.030915317034503800 ) ) ;
#247 = LOCAL_TIME ( 8, 8, 11.00000000000000000, #198 ) ;
#248 = EDGE_LOOP ( 'NONE', ( #173, #196, #79 ) ) ;
#249 = DIRECTION ( 'NONE',  ( 1.000000000000000000, 0.0000000000000000000, 0.0000000000000000000 ) ) ;
#250 = CARTESIAN_POINT ( 'NONE',  ( 4.996003610813200500E-016, 2.442490654175340100E-015, -1.968598073604270100 ) ) ;
#251 = AXIS2_PLACEMENT_3D ( 'NONE', #154, #71, #8 ) ;
#252 = ORIENTED_EDGE ( 'NONE', *, *, #2, .T. ) ;
#253 = CARTESIAN_POINT ( 'NONE',  ( 0.0000000000000000000, 0.0000000000000000000, 0.0000000000000000000 ) ) ;
#254 = CARTESIAN_POINT ( 'NONE',  ( 4.996003610813200500E-016, 2.442490654175340100E-015, 4.668598073604269600 ) ) ;
#255 = CARTESIAN_POINT ( 'NONE',  ( 4.415855548460897700, -4.424218028696317100, 0.6941510115552035300 ) ) ;
#256 = EDGE_CURVE ( 'NONE', #216, #122, #97, .T. ) ;
#257 = DIRECTION ( 'NONE',  ( 1.000000000000000000, 0.0000000000000000000, 0.0000000000000000000 ) ) ;
#258 = VERTEX_POINT ( 'NONE', #31 ) ;
#259 = ADVANCED_FACE ( 'NONE', ( #211 ), #192, .F. ) ;
#260 = CIRCLE ( 'NONE', #115, 12.69999999999999900 ) ;
#261 = ORIENTED_EDGE ( 'NONE', *, *, #34, .T. ) ;
#262 = AXIS2_PLACEMENT_3D ( 'NONE', #194, #91, #295 ) ;
#263 = CARTESIAN_POINT ( 'NONE',  ( -12.98512899490807400, 4.424218028696311800, 4.030915317034506500 ) ) ;
#264 = CARTESIAN_POINT ( 'NONE',  ( -8.778971615386721400, -4.424218028696317100, 0.01371114543412266100 ) ) ;
#265 = EDGE_CURVE ( 'NONE', #69, #148, #153, .T. ) ;
#266 = COORDINATED_UNIVERSAL_TIME_OFFSET ( 2, 0, .AHEAD. ) ;
#267 = ORIENTED_EDGE ( 'NONE', *, *, #212, .F. ) ;
#268 = MANIFOLD_SOLID_BREP ( 'Imported1', #65 ) ;
#269 = SECURITY_CLASSIFICATION ( '', '', #10 ) ;
#270 = CARTESIAN_POINT ( 'NONE',  ( -4.415855548460897700, -4.424218028696321500, 2.005848988444796100 ) ) ;
#271 = DIRECTION ( 'NONE',  ( 0.0000000000000000000, 0.0000000000000000000, 1.000000000000000000 ) ) ;
#272 = AXIS2_PLACEMENT_3D ( 'NONE', #236, #107, #287 ) ;
#273 = DIRECTION ( 'NONE',  ( 1.000000000000000000, 0.0000000000000000000, 0.0000000000000000000 ) ) ;
#274 = CARTESIAN_POINT ( 'NONE',  ( 4.415855548460917200, 4.424218028696312600, 2.005848988444798300 ) ) ;
#275 = DIRECTION ( 'NONE',  ( 1.000000000000000000, 0.0000000000000000000, 0.0000000000000000000 ) ) ;
#276 = VECTOR ( 'NONE', #45, 1000.000000000000000 ) ;
#277 = CARTESIAN_POINT ( 'NONE',  ( 12.15996703907391200, -12.84747701039420200, -3.912123665009525000 ) ) ;
#278 = APPLICATION_CONTEXT ( 'configuration controlled 3d designs of mechanical parts and assemblies' ) ;
#279 = CARTESIAN_POINT ( 'NONE',  ( 12.98512899490807200, -4.424218028696316200, -1.330915317034505400 ) ) ;
#280 = FACE_OUTER_BOUND ( 'NONE', #14, .T. ) ;
#281 = MECHANICAL_CONTEXT ( 'NONE', #54, 'mechanical' ) ;
#282 = CC_DESIGN_DATE_AND_TIME_ASSIGNMENT ( #82, #139, ( #88 ) ) ;
#283 = CARTESIAN_POINT ( 'NONE',  ( 8.221097035072118000, 12.84747701039420200, -2.652943762376548200 ) ) ;
#284 = AXIS2_PLACEMENT_3D ( 'NONE', #254, #123, #257 ) ;
#285 = ADVANCED_FACE ( 'NONE', ( #114 ), #162, .F. ) ;
#286 = ORIENTED_EDGE ( 'NONE', *, *, #265, .T. ) ;
#287 = DIRECTION ( 'NONE',  ( 1.000000000000000000, 8.881784197001252300E-016, 0.0000000000000000000 ) ) ;
#288 = APPROVAL ( #209, 'UNSPECIFIED' ) ;
#289 = PERSON_AND_ORGANIZATION ( #83, #51 ) ;
#290 = AXIS2_PLACEMENT_3D ( 'NONE', #181, #92, #133 ) ;
#291 = CALENDAR_DATE ( 2019, 21, 1 ) ;
#292 = CIRCLE ( 'NONE', #272, 12.69999999999999900 ) ;
#293 = CARTESIAN_POINT ( 'NONE',  ( -12.69999999999999900, 3.997792089092478900E-015, 4.668598073604269600 ) ) ;
#294 = APPROVAL ( #207, 'UNSPECIFIED' ) ;
#295 = DIRECTION ( 'NONE',  ( 1.000000000000000000, -1.776356839400250500E-015, 0.0000000000000000000 ) ) ;
ENDSEC;
END-ISO-10303-21;
