ISO-10303-21;
HEADER;
FILE_DESCRIPTION (( 'STEP AP203' ),
    '1' );
FILE_NAME ('114-0204E BK7 bi-cv 25.4 F-25.STEP',
    '2019-01-21T05:59:37',
    ( '' ),
    ( '' ),
    'SwSTEP 2.0',
    'SolidWorks 2017',
    '' );
FILE_SCHEMA (( 'CONFIG_CONTROL_DESIGN' ));
ENDSEC;

DATA;
#1 = LOCAL_TIME ( 7, 59, 37.00000000000000000, #166 ) ;
#2 = EDGE_LOOP ( 'NONE', ( #57, #241, #171 ) ) ;
#3 = PERSON_AND_ORGANIZATION ( #182, #65 ) ;
#4 = PRODUCT_RELATED_PRODUCT_CATEGORY ( 'detail', '', ( #113 ) ) ;
#5 = CARTESIAN_POINT ( 'NONE',  ( -12.69999999999999900, 3.997792089092478900E-015, 8.009734270208589600 ) ) ;
#6 =( BOUNDED_SURFACE ( )  B_SPLINE_SURFACE ( 3, 3, ( 
 ( #74, #226, #224, #46 ),
 ( #25, #257, #10, #183 ),
 ( #185, #209, #254, #274 ),
 ( #255, #94, #116, #96 ) ),
 .UNSPECIFIED., .F., .F., .F. ) 
 B_SPLINE_SURFACE_WITH_KNOTS ( ( 4, 4 ),
 ( 4, 4 ),
 ( 0.0000000000000000000, 1.000000000000000000 ),
 ( 0.0000000000000000000, 1.000000000000000000 ),
 .UNSPECIFIED. ) 
 GEOMETRIC_REPRESENTATION_ITEM ( )  RATIONAL_B_SPLINE_SURFACE ( (
 ( 1.000000000000000000, 0.9794335786791421600, 0.9794335786791421600, 1.000000000000000000),
 ( 0.9180545576164660400, 0.8991734607889920700, 0.8991734607889920700, 0.9180545576164660400),
 ( 0.9180545576164660400, 0.8991734607889920700, 0.8991734607889920700, 0.9180545576164660400),
 ( 1.000000000000000000, 0.9794335786791421600, 0.9794335786791421600, 1.000000000000000000) ) ) 
 REPRESENTATION_ITEM ( '' )  SURFACE ( )  );
#7 = CALENDAR_DATE ( 2019, 21, 1 ) ;
#8 = FACE_OUTER_BOUND ( 'NONE', #2, .T. ) ;
#9 = ORIENTED_EDGE ( 'NONE', *, *, #230, .F. ) ;
#10 = CARTESIAN_POINT ( 'NONE',  ( -9.224407818941118700, 4.661855933592097000, 4.761621712554892300 ) ) ;
#11 = CARTESIAN_POINT ( 'NONE',  ( -6.938893903907228400E-015, -4.661855933592093500, 1.192958336048550500 ) ) ;
#12 = CARTESIAN_POINT ( 'NONE',  ( 12.69999999999999900, 2.442490654175340100E-015, 8.009734270208589600 ) ) ;
#13 = CARTESIAN_POINT ( 'NONE',  ( 4.996003610813200500E-016, 2.442490654175340100E-015, -3.209734270208589800 ) ) ;
#14 = ADVANCED_FACE ( 'NONE', ( #181 ), #6, .F. ) ;
#15 = ORIENTED_EDGE ( 'NONE', *, *, #95, .T. ) ;
#16 = DIRECTION ( 'NONE',  ( 1.000000000000000000, 0.0000000000000000000, 0.0000000000000000000 ) ) ;
#17 = AXIS2_PLACEMENT_3D ( 'NONE', #272, #50, #145 ) ;
#18 = CARTESIAN_POINT ( 'NONE',  ( 1.110597453446535100E-015, -12.83951426035676500, -3.285602512367799700 ) ) ;
#19 = CC_DESIGN_PERSON_AND_ORGANIZATION_ASSIGNMENT ( #273, #205, ( #113 ) ) ;
#20 = PERSON_AND_ORGANIZATION_ROLE ( 'creator' ) ;
#21 = DIRECTION ( 'NONE',  ( 1.000000000000000000, 0.0000000000000000000, 0.0000000000000000000 ) ) ;
#22 = AXIS2_PLACEMENT_3D ( 'NONE', #288, #156, #21 ) ;
#23 = APPROVAL_DATE_TIME ( #279, #240 ) ;
#24 = CIRCLE ( 'NONE', #213, 12.69999999999999900 ) ;
#25 = CARTESIAN_POINT ( 'NONE',  ( 7.260912313766168900E-015, 4.661855933592096200, 3.607041663951452200 ) ) ;
#26 = CC_DESIGN_PERSON_AND_ORGANIZATION_ASSIGNMENT ( #76, #66, ( #269 ) ) ;
#27 = ORIENTED_EDGE ( 'NONE', *, *, #218, .T. ) ;
#28 = CARTESIAN_POINT ( 'NONE',  ( 11.20017145259504700, 12.83951426035675600, 10.93398259394379600 ) ) ;
#29 = DATE_AND_TIME ( #7, #68 ) ;
#30 = CARTESIAN_POINT ( 'NONE',  ( 9.224407818941111600, -4.661855933592102400, 4.761621712554890500 ) ) ;
#31 = DIRECTION ( 'NONE',  ( 0.0000000000000000000, 0.0000000000000000000, 1.000000000000000000 ) ) ;
#32 = EDGE_CURVE ( 'NONE', #189, #282, #121, .T. ) ;
#33 = CARTESIAN_POINT ( 'NONE',  ( -9.224407818941125800, -4.661855933592091700, 0.03837828744510845400 ) ) ;
#34 = CARTESIAN_POINT ( 'NONE',  ( 1.110597453446530500E-015, 12.83951426035677200, -3.285602512367803200 ) ) ;
#35 = VERTEX_POINT ( 'NONE', #48 ) ;
#36 = CARTESIAN_POINT ( 'NONE',  ( 4.996003610813200500E-016, 2.442490654175340100E-015, 8.009734270208589600 ) ) ;
#37 = CIRCLE ( 'NONE', #236, 12.69999999999999900 ) ;
#38 = CARTESIAN_POINT ( 'NONE',  ( -12.69999999999999900, 3.997792089092478900E-015, -3.209734270208589800 ) ) ;
#39 = APPLICATION_CONTEXT ( 'configuration controlled 3d designs of mechanical parts and assemblies' ) ;
#40 = ORIENTED_EDGE ( 'NONE', *, *, #134, .T. ) ;
#41 = CC_DESIGN_DATE_AND_TIME_ASSIGNMENT ( #136, #177, ( #199 ) ) ;
#42 = AXIS2_PLACEMENT_3D ( 'NONE', #262, #124, #215 ) ;
#43 = CC_DESIGN_APPROVAL ( #240, ( #67 ) ) ;
#44 = CALENDAR_DATE ( 2019, 21, 1 ) ;
#45 = ORIENTED_EDGE ( 'NONE', *, *, #207, .F. ) ;
#46 = CARTESIAN_POINT ( 'NONE',  ( -11.20017145259504700, 12.83951426035676300, 10.93398259394380600 ) ) ;
#47 = COORDINATED_UNIVERSAL_TIME_OFFSET ( 2, 0, .AHEAD. ) ;
#48 = CARTESIAN_POINT ( 'NONE',  ( 9.620763115210551700E-015, 12.69999999999998500, 8.009734270208589600 ) ) ;
#49 = ADVANCED_BREP_SHAPE_REPRESENTATION ( '114-0204E BK7 bi-cv 25.4 F-25', ( #275, #22 ), #252 ) ;
#50 = DIRECTION ( 'NONE',  ( 0.0000000000000000000, 0.0000000000000000000, 1.000000000000000000 ) ) ;
#51 = COORDINATED_UNIVERSAL_TIME_OFFSET ( 2, 0, .AHEAD. ) ;
#52 = CARTESIAN_POINT ( 'NONE',  ( 4.996003610813200500E-016, 2.442490654175340100E-015, -3.209734270208589800 ) ) ;
#53 = CARTESIAN_POINT ( 'NONE',  ( 4.684460856192704800, 4.661855933592093500, 3.607041663951456200 ) ) ;
#54 = ORIENTED_EDGE ( 'NONE', *, *, #251, .T. ) ;
#55 = CARTESIAN_POINT ( 'NONE',  ( 1.387778780781445700E-014, 12.83951426035676100, 8.085602512367804800 ) ) ;
#56 = PERSON_AND_ORGANIZATION ( #182, #65 ) ;
#57 = ORIENTED_EDGE ( 'NONE', *, *, #32, .F. ) ;
#58 = UNCERTAINTY_MEASURE_WITH_UNIT (LENGTH_MEASURE( 1.000000000000000100E-005 ), #167, 'distance_accuracy_value', 'NONE');
#59 = DIRECTION ( 'NONE',  ( 1.000000000000000000, 0.0000000000000000000, 0.0000000000000000000 ) ) ;
#60 = COORDINATED_UNIVERSAL_TIME_OFFSET ( 2, 0, .AHEAD. ) ;
#61 = FACE_OUTER_BOUND ( 'NONE', #99, .T. ) ;
#62 = DIRECTION ( 'NONE',  ( -0.0000000000000000000, -0.0000000000000000000, -1.000000000000000000 ) ) ;
#63 =( NAMED_UNIT ( * ) SI_UNIT ( $, .STERADIAN. ) SOLID_ANGLE_UNIT ( ) );
#64 = PERSON_AND_ORGANIZATION ( #182, #65 ) ;
#65 = ORGANIZATION ( 'UNSPECIFIED', 'UNSPECIFIED', '' ) ;
#66 = PERSON_AND_ORGANIZATION_ROLE ( 'design_supplier' ) ;
#67 = PRODUCT_DEFINITION ( 'UNKNOWN', '', #269, #123 ) ;
#68 = LOCAL_TIME ( 7, 59, 37.00000000000000000, #51 ) ;
#69 = EDGE_LOOP ( 'NONE', ( #45, #137, #223, #97, #15, #54 ) ) ;
#70 = AXIS2_PLACEMENT_3D ( 'NONE', #268, #168, #130 ) ;
#71 = SHAPE_DEFINITION_REPRESENTATION ( #118, #49 ) ;
#72 = VERTEX_POINT ( 'NONE', #187 ) ;
#73 = CC_DESIGN_APPROVAL ( #293, ( #199 ) ) ;
#74 = CARTESIAN_POINT ( 'NONE',  ( 9.661700145819114500E-015, 12.83951426035676100, 8.085602512367801300 ) ) ;
#75 = CARTESIAN_POINT ( 'NONE',  ( -9.224407818941124000, 4.661855933592103300, 0.03837828744511018900 ) ) ;
#76 = PERSON_AND_ORGANIZATION ( #182, #65 ) ;
#77 = CARTESIAN_POINT ( 'NONE',  ( 7.744905854623763000, -12.83951426035676800, 9.054999567829623800 ) ) ;
#78 = ADVANCED_FACE ( 'NONE', ( #292 ), #253, .T. ) ;
#79 = CARTESIAN_POINT ( 'NONE',  ( -13.33972950221455800, -4.661855933592091700, -2.199545070577066900 ) ) ;
#80 = AXIS2_PLACEMENT_3D ( 'NONE', #52, #217, #59 ) ;
#81 = VERTEX_POINT ( 'NONE', #5 ) ;
#82 = CARTESIAN_POINT ( 'NONE',  ( 11.20017145259504300, 12.83951426035677400, -6.133982593943803100 ) ) ;
#83 = CARTESIAN_POINT ( 'NONE',  ( 11.20017145259505200, -12.83951426035676300, -6.133982593943802200 ) ) ;
#84 = EDGE_LOOP ( 'NONE', ( #271, #162, #250 ) ) ;
#85 = CARTESIAN_POINT ( 'NONE',  ( 3.933120588660990800, 12.83951426035677200, -3.285602512367803700 ) ) ;
#86 = AXIS2_PLACEMENT_3D ( 'NONE', #143, #229, #256 ) ;
#87 = CARTESIAN_POINT ( 'NONE',  ( 4.684460856192706600, 4.661855933592102400, 1.192958336048549800 ) ) ;
#88 = ORIENTED_EDGE ( 'NONE', *, *, #230, .T. ) ;
#89 = APPLICATION_PROTOCOL_DEFINITION ( 'international standard', 'config_control_design', 1994, #290 ) ;
#90 = APPROVAL_ROLE ( '' ) ;
#91 = CALENDAR_DATE ( 2019, 21, 1 ) ;
#92 = CYLINDRICAL_SURFACE ( 'NONE', #80, 12.69999999999999900 ) ;
#93 = CLOSED_SHELL ( 'NONE', ( #128, #197, #220, #78, #285, #14 ) ) ;
#94 = CARTESIAN_POINT ( 'NONE',  ( -3.933120588660989900, -12.83951426035676300, 8.085602512367797700 ) ) ;
#95 = EDGE_CURVE ( 'NONE', #140, #72, #227, .T. ) ;
#96 = CARTESIAN_POINT ( 'NONE',  ( -11.20017145259504900, -12.83951426035676300, 10.93398259394380100 ) ) ;
#97 = ORIENTED_EDGE ( 'NONE', *, *, #192, .T. ) ;
#98 = CARTESIAN_POINT ( 'NONE',  ( 1.040834085586084400E-014, -4.661855933592099700, 3.607041663951455800 ) ) ;
#99 = EDGE_LOOP ( 'NONE', ( #9, #40, #159 ) ) ;
#100 = AXIS2_PLACEMENT_3D ( 'NONE', #36, #62, #16 ) ;
#101 = CARTESIAN_POINT ( 'NONE',  ( 6.938893903907228400E-015, -12.83951426035676500, 8.085602512367801300 ) ) ;
#102 = CARTESIAN_POINT ( 'NONE',  ( -3.933120588660995200, 12.83951426035677200, -3.285602512367804100 ) ) ;
#103 = CC_DESIGN_PERSON_AND_ORGANIZATION_ASSIGNMENT ( #214, #20, ( #67 ) ) ;
#104 = CALENDAR_DATE ( 2019, 21, 1 ) ;
#105 = CARTESIAN_POINT ( 'NONE',  ( 1.131436815573690900E-015, 12.69999999999999200, -3.209734270208592000 ) ) ;
#106 = DIRECTION ( 'NONE',  ( 0.0000000000000000000, 0.0000000000000000000, 1.000000000000000000 ) ) ;
#107 = CARTESIAN_POINT ( 'NONE',  ( -12.69999999999999900, 3.997792089092478900E-015, -3.209734270208589800 ) ) ;
#108 = CARTESIAN_POINT ( 'NONE',  ( 7.744905854623771900, -12.83951426035676500, -4.254999567829627500 ) ) ;
#109 = ORIENTED_EDGE ( 'NONE', *, *, #228, .T. ) ;
#110 = MECHANICAL_CONTEXT ( 'NONE', #290, 'mechanical' ) ;
#111 = APPROVAL_DATE_TIME ( #231, #293 ) ;
#112 = VERTEX_POINT ( 'NONE', #211 ) ;
#113 = PRODUCT ( '114-0204E BK7 bi-cv 25.4 F-25', '114-0204E BK7 bi-cv 25.4 F-25', '', ( #110 ) ) ;
#114 = EDGE_LOOP ( 'NONE', ( #109, #186, #289, #27, #88, #294 ) ) ;
#115 = APPROVAL_DATE_TIME ( #142, #120 ) ;
#116 = CARTESIAN_POINT ( 'NONE',  ( -7.744905854623769200, -12.83951426035676300, 9.054999567829625600 ) ) ;
#117 = LINE ( 'NONE', #107, #222 ) ;
#118 = PRODUCT_DEFINITION_SHAPE ( 'NONE', 'NONE',  #67 ) ;
#119 = CC_DESIGN_PERSON_AND_ORGANIZATION_ASSIGNMENT ( #179, #160, ( #199 ) ) ;
#120 = APPROVAL ( #206, 'UNSPECIFIED' ) ;
#121 = CIRCLE ( 'NONE', #17, 12.69999999999999900 ) ;
#122 = CARTESIAN_POINT ( 'NONE',  ( -11.20017145259504900, 12.83951426035677400, -6.133982593943803100 ) ) ;
#123 = DESIGN_CONTEXT ( 'detailed design', #39, 'design' ) ;
#124 = DIRECTION ( 'NONE',  ( -0.0000000000000000000, -0.0000000000000000000, -1.000000000000000000 ) ) ;
#125 = DIRECTION ( 'NONE',  ( 1.000000000000000000, 0.0000000000000000000, 0.0000000000000000000 ) ) ;
#126 = CARTESIAN_POINT ( 'NONE',  ( 3.933120588660999200, 12.83951426035676000, 8.085602512367806600 ) ) ;
#127 = CARTESIAN_POINT ( 'NONE',  ( -11.20017145259505800, -12.83951426035676300, -6.133982593943803100 ) ) ;
#128 = ADVANCED_FACE ( 'NONE', ( #8 ), #247, .F. ) ;
#129 = DIRECTION ( 'NONE',  ( 1.000000000000000000, 0.0000000000000000000, 0.0000000000000000000 ) ) ;
#130 = DIRECTION ( 'NONE',  ( 1.000000000000000000, 8.881784197001252300E-016, 0.0000000000000000000 ) ) ;
#131 = ORIENTED_EDGE ( 'NONE', *, *, #218, .F. ) ;
#132 = CARTESIAN_POINT ( 'NONE',  ( 13.33972950221454900, -4.661855933592091700, -2.199545070577066500 ) ) ;
#133 = DIRECTION ( 'NONE',  ( 0.0000000000000000000, 0.0000000000000000000, 1.000000000000000000 ) ) ;
#134 = EDGE_CURVE ( 'NONE', #35, #72, #248, .T. ) ;
#135 = CARTESIAN_POINT ( 'NONE',  ( 4.996003610813200500E-016, 2.442490654175340100E-015, 8.009734270208589600 ) ) ;
#136 = DATE_AND_TIME ( #44, #193 ) ;
#137 = ORIENTED_EDGE ( 'NONE', *, *, #266, .T. ) ;
#138 = VERTEX_POINT ( 'NONE', #146 ) ;
#139 = APPROVAL_ROLE ( '' ) ;
#140 = VERTEX_POINT ( 'NONE', #12 ) ;
#141 = AXIS2_PLACEMENT_3D ( 'NONE', #239, #195, #149 ) ;
#142 = DATE_AND_TIME ( #243, #203 ) ;
#143 = CARTESIAN_POINT ( 'NONE',  ( 4.996003610813200500E-016, 2.442490654175340100E-015, -3.209734270208589800 ) ) ;
#144 = ORIENTED_EDGE ( 'NONE', *, *, #134, .F. ) ;
#145 = DIRECTION ( 'NONE',  ( 1.000000000000000000, 0.0000000000000000000, 0.0000000000000000000 ) ) ;
#146 = CARTESIAN_POINT ( 'NONE',  ( 12.69999999999999900, 2.442490654175340100E-015, -3.209734270208589800 ) ) ;
#147 = CIRCLE ( 'NONE', #201, 12.69999999999999900 ) ;
#148 =( BOUNDED_SURFACE ( )  B_SPLINE_SURFACE ( 3, 3, ( 
 ( #28, #259, #126, #55 ),
 ( #278, #165, #53, #153 ),
 ( #191, #30, #233, #98 ),
 ( #260, #77, #235, #101 ) ),
 .UNSPECIFIED., .F., .F., .T. ) 
 B_SPLINE_SURFACE_WITH_KNOTS ( ( 4, 4 ),
 ( 4, 4 ),
 ( 0.0000000000000000000, 1.000000000000000000 ),
 ( 0.0000000000000000000, 1.000000000000000000 ),
 .UNSPECIFIED. ) 
 GEOMETRIC_REPRESENTATION_ITEM ( )  RATIONAL_B_SPLINE_SURFACE ( (
 ( 1.000000000000000000, 0.9794335786791421600, 0.9794335786791421600, 1.000000000000000000),
 ( 0.9180545576164660400, 0.8991734607889920700, 0.8991734607889920700, 0.9180545576164660400),
 ( 0.9180545576164660400, 0.8991734607889920700, 0.8991734607889920700, 0.9180545576164660400),
 ( 1.000000000000000000, 0.9794335786791421600, 0.9794335786791421600, 1.000000000000000000) ) ) 
 REPRESENTATION_ITEM ( '' )  SURFACE ( )  );
#149 = DIRECTION ( 'NONE',  ( 2.717786755315381200E-016, 1.000000000000000000, 5.191839808385506200E-016 ) ) ;
#150 = CARTESIAN_POINT ( 'NONE',  ( -4.684460856192712800, -4.661855933592093500, 1.192958336048550500 ) ) ;
#151 = EDGE_CURVE ( 'NONE', #189, #112, #280, .T. ) ;
#152 = DIRECTION ( 'NONE',  ( 0.0000000000000000000, 1.000000000000000000, 5.191839808385506200E-016 ) ) ;
#153 = CARTESIAN_POINT ( 'NONE',  ( 8.673617379884035500E-015, 4.661855933592093500, 3.607041663951456200 ) ) ;
#154 = FACE_OUTER_BOUND ( 'NONE', #114, .T. ) ;
#155 = CARTESIAN_POINT ( 'NONE',  ( 9.224407818941122300, 4.661855933592103300, 0.03837828744510974500 ) ) ;
#156 = DIRECTION ( 'NONE',  ( 0.0000000000000000000, 0.0000000000000000000, 1.000000000000000000 ) ) ;
#157 = DATE_TIME_ROLE ( 'creation_date' ) ;
#158 = APPROVAL_STATUS ( 'not_yet_approved' ) ;
#159 = ORIENTED_EDGE ( 'NONE', *, *, #95, .F. ) ;
#160 = PERSON_AND_ORGANIZATION_ROLE ( 'classification_officer' ) ;
#161 = FACE_OUTER_BOUND ( 'NONE', #84, .T. ) ;
#162 = ORIENTED_EDGE ( 'NONE', *, *, #228, .F. ) ;
#163 = PERSON_AND_ORGANIZATION ( #182, #65 ) ;
#164 = DIRECTION ( 'NONE',  ( 0.0000000000000000000, 0.0000000000000000000, 1.000000000000000000 ) ) ;
#165 = CARTESIAN_POINT ( 'NONE',  ( 9.224407818941116900, 4.661855933592091700, 4.761621712554890500 ) ) ;
#166 = COORDINATED_UNIVERSAL_TIME_OFFSET ( 2, 0, .AHEAD. ) ;
#167 =( LENGTH_UNIT ( ) NAMED_UNIT ( * ) SI_UNIT ( .MILLI., .METRE. ) );
#168 = DIRECTION ( 'NONE',  ( -0.0000000000000000000, -0.0000000000000000000, -1.000000000000000000 ) ) ;
#169 = CARTESIAN_POINT ( 'NONE',  ( 3.933120588660994300, -12.83951426035676500, -3.285602512367800100 ) ) ;
#170 = CIRCLE ( 'NONE', #180, 12.69999999999999900 ) ;
#171 = ORIENTED_EDGE ( 'NONE', *, *, #266, .F. ) ;
#172 =( NAMED_UNIT ( * ) PLANE_ANGLE_UNIT ( ) SI_UNIT ( $, .RADIAN. ) );
#173 = EDGE_CURVE ( 'NONE', #112, #138, #170, .T. ) ;
#174 = APPROVAL_ROLE ( '' ) ;
#175 = COORDINATED_UNIVERSAL_TIME_OFFSET ( 2, 0, .AHEAD. ) ;
#176 = VECTOR ( 'NONE', #31, 1000.000000000000000 ) ;
#177 = DATE_TIME_ROLE ( 'classification_date' ) ;
#178 = CC_DESIGN_APPROVAL ( #120, ( #269 ) ) ;
#179 = PERSON_AND_ORGANIZATION ( #182, #65 ) ;
#180 = AXIS2_PLACEMENT_3D ( 'NONE', #13, #164, #125 ) ;
#181 = FACE_OUTER_BOUND ( 'NONE', #234, .T. ) ;
#182 = PERSON ( 'UNSPECIFIED', 'UNSPECIFIED', 'UNSPECIFIED', ('UNSPECIFIED'), ('UNSPECIFIED'), ('UNSPECIFIED') ) ;
#183 = CARTESIAN_POINT ( 'NONE',  ( -13.33972950221454900, 4.661855933592097900, 6.999545070577069900 ) ) ;
#184 = LINE ( 'NONE', #277, #176 ) ;
#185 = CARTESIAN_POINT ( 'NONE',  ( 4.726926251465164300E-015, -4.661855933592097900, 3.607041663951450900 ) ) ;
#186 = ORIENTED_EDGE ( 'NONE', *, *, #32, .T. ) ;
#187 = CARTESIAN_POINT ( 'NONE',  ( 2.717584756709491400E-015, -12.69999999999998900, 8.009734270208589600 ) ) ;
#188 =( BOUNDED_SURFACE ( )  B_SPLINE_SURFACE ( 3, 3, ( 
 ( #34, #85, #286, #82 ),
 ( #244, #87, #155, #219 ),
 ( #245, #267, #202, #132 ),
 ( #18, #169, #108, #83 ) ),
 .UNSPECIFIED., .F., .F., .F. ) 
 B_SPLINE_SURFACE_WITH_KNOTS ( ( 4, 4 ),
 ( 4, 4 ),
 ( 0.0000000000000000000, 1.000000000000000000 ),
 ( 0.0000000000000000000, 1.000000000000000000 ),
 .UNSPECIFIED. ) 
 GEOMETRIC_REPRESENTATION_ITEM ( )  RATIONAL_B_SPLINE_SURFACE ( (
 ( 1.000000000000000000, 0.9794335786791421600, 0.9794335786791421600, 1.000000000000000000),
 ( 0.9180545576164658200, 0.8991734607889918500, 0.8991734607889918500, 0.9180545576164658200),
 ( 0.9180545576164658200, 0.8991734607889918500, 0.8991734607889918500, 0.9180545576164658200),
 ( 1.000000000000000000, 0.9794335786791421600, 0.9794335786791421600, 1.000000000000000000) ) ) 
 REPRESENTATION_ITEM ( '' )  SURFACE ( )  );
#189 = VERTEX_POINT ( 'NONE', #105 ) ;
#190 = CARTESIAN_POINT ( 'NONE',  ( -13.33972950221455100, 4.661855933592104200, -2.199545070577064300 ) ) ;
#191 = CARTESIAN_POINT ( 'NONE',  ( 13.33972950221453900, -4.661855933592104200, 6.999545070577059200 ) ) ;
#192 = EDGE_CURVE ( 'NONE', #138, #140, #184, .T. ) ;
#193 = LOCAL_TIME ( 7, 59, 37.00000000000000000, #60 ) ;
#194 = CARTESIAN_POINT ( 'NONE',  ( -5.329070518200749800E-015, -1.776356839400250100E-015, -26.73000000000000000 ) ) ;
#195 = DIRECTION ( 'NONE',  ( -1.000000000000000000, 2.717786755315380200E-016, 3.980624336463580100E-017 ) ) ;
#196 = CARTESIAN_POINT ( 'NONE',  ( 4.996003610813200500E-016, 2.442490654175340100E-015, -3.209734270208589800 ) ) ;
#197 = ADVANCED_FACE ( 'NONE', ( #61 ), #148, .F. ) ;
#198 = DIRECTION ( 'NONE',  ( 1.000000000000000000, 0.0000000000000000000, 0.0000000000000000000 ) ) ;
#199 = SECURITY_CLASSIFICATION ( '', '', #295 ) ;
#200 = CARTESIAN_POINT ( 'NONE',  ( 4.996003610813200500E-016, 2.442490654175340100E-015, -3.209734270208589800 ) ) ;
#201 = AXIS2_PLACEMENT_3D ( 'NONE', #135, #242, #129 ) ;
#202 = CARTESIAN_POINT ( 'NONE',  ( 9.224407818941122300, -4.661855933592091700, 0.03837828744510974500 ) ) ;
#203 = LOCAL_TIME ( 7, 59, 37.00000000000000000, #175 ) ;
#204 = CIRCLE ( 'NONE', #100, 12.69999999999999900 ) ;
#205 = PERSON_AND_ORGANIZATION_ROLE ( 'design_owner' ) ;
#206 = APPROVAL_STATUS ( 'not_yet_approved' ) ;
#207 = EDGE_CURVE ( 'NONE', #282, #81, #117, .T. ) ;
#208 = AXIS2_PLACEMENT_3D ( 'NONE', #194, #232, #152 ) ;
#209 = CARTESIAN_POINT ( 'NONE',  ( -4.684460856192701300, -4.661855933592096200, 3.607041663951450900 ) ) ;
#210 = CC_DESIGN_SECURITY_CLASSIFICATION ( #199, ( #269 ) ) ;
#211 = CARTESIAN_POINT ( 'NONE',  ( 1.131436815573695000E-015, -12.69999999999999000, -3.209734270208590300 ) ) ;
#212 = CARTESIAN_POINT ( 'NONE',  ( -7.744905854623771900, 12.83951426035677200, -4.254999567829631100 ) ) ;
#213 = AXIS2_PLACEMENT_3D ( 'NONE', #200, #106, #198 ) ;
#214 = PERSON_AND_ORGANIZATION ( #182, #65 ) ;
#215 = DIRECTION ( 'NONE',  ( 1.000000000000000000, 0.0000000000000000000, 0.0000000000000000000 ) ) ;
#216 = CARTESIAN_POINT ( 'NONE',  ( -4.684460856192711900, 4.661855933592102400, 1.192958336048550500 ) ) ;
#217 = DIRECTION ( 'NONE',  ( 0.0000000000000000000, 0.0000000000000000000, 1.000000000000000000 ) ) ;
#218 = EDGE_CURVE ( 'NONE', #81, #35, #147, .T. ) ;
#219 = CARTESIAN_POINT ( 'NONE',  ( 13.33972950221454700, 4.661855933592104200, -2.199545070577066100 ) ) ;
#220 = ADVANCED_FACE ( 'NONE', ( #154 ), #92, .T. ) ;
#221 = DIRECTION ( 'NONE',  ( 1.000000000000000000, 0.0000000000000000000, 0.0000000000000000000 ) ) ;
#222 = VECTOR ( 'NONE', #284, 1000.000000000000000 ) ;
#223 = ORIENTED_EDGE ( 'NONE', *, *, #173, .T. ) ;
#224 = CARTESIAN_POINT ( 'NONE',  ( -7.744905854623766600, 12.83951426035676300, 9.054999567829629100 ) ) ;
#225 = APPROVAL_PERSON_ORGANIZATION ( #56, #293, #90 ) ;
#226 = CARTESIAN_POINT ( 'NONE',  ( -3.933120588660984100, 12.83951426035676300, 8.085602512367803000 ) ) ;
#227 = CIRCLE ( 'NONE', #42, 12.69999999999999900 ) ;
#228 = EDGE_CURVE ( 'NONE', #138, #189, #24, .T. ) ;
#229 = DIRECTION ( 'NONE',  ( 0.0000000000000000000, 0.0000000000000000000, 1.000000000000000000 ) ) ;
#230 = EDGE_CURVE ( 'NONE', #35, #140, #270, .T. ) ;
#231 = DATE_AND_TIME ( #91, #1 ) ;
#232 = DIRECTION ( 'NONE',  ( 1.000000000000000000, 1.493034259567080100E-031, -2.746783309336249800E-016 ) ) ;
#233 = CARTESIAN_POINT ( 'NONE',  ( 4.684460856192706600, -4.661855933592100600, 3.607041663951456200 ) ) ;
#234 = EDGE_LOOP ( 'NONE', ( #144, #131, #258 ) ) ;
#235 = CARTESIAN_POINT ( 'NONE',  ( 3.933120588660990800, -12.83951426035676700, 8.085602512367803000 ) ) ;
#236 = AXIS2_PLACEMENT_3D ( 'NONE', #196, #133, #221 ) ;
#237 = LOCAL_TIME ( 7, 59, 37.00000000000000000, #47 ) ;
#238 = CARTESIAN_POINT ( 'NONE',  ( -5.204170427930421300E-015, 12.83951426035677200, -3.285602512367804100 ) ) ;
#239 = CARTESIAN_POINT ( 'NONE',  ( 7.105427357601000300E-015, -5.329070518200749800E-015, 31.53000000000000100 ) ) ;
#240 = APPROVAL ( #291, 'UNSPECIFIED' ) ;
#241 = ORIENTED_EDGE ( 'NONE', *, *, #151, .T. ) ;
#242 = DIRECTION ( 'NONE',  ( -0.0000000000000000000, -0.0000000000000000000, -1.000000000000000000 ) ) ;
#243 = CALENDAR_DATE ( 2019, 21, 1 ) ;
#244 = CARTESIAN_POINT ( 'NONE',  ( 2.340761072274215000E-015, 4.661855933592102400, 1.192958336048550900 ) ) ;
#245 = CARTESIAN_POINT ( 'NONE',  ( 2.340761072274217400E-015, -4.661855933592093500, 1.192958336048550900 ) ) ;
#246 = PERSON_AND_ORGANIZATION_ROLE ( 'creator' ) ;
#247 =( BOUNDED_SURFACE ( )  B_SPLINE_SURFACE ( 3, 3, ( 
 ( #122, #212, #102, #238 ),
 ( #190, #75, #216, #264 ),
 ( #79, #33, #150, #11 ),
 ( #127, #263, #281, #276 ) ),
 .UNSPECIFIED., .F., .F., .F. ) 
 B_SPLINE_SURFACE_WITH_KNOTS ( ( 4, 4 ),
 ( 4, 4 ),
 ( 0.0000000000000000000, 1.000000000000000000 ),
 ( 0.0000000000000000000, 1.000000000000000000 ),
 .UNSPECIFIED. ) 
 GEOMETRIC_REPRESENTATION_ITEM ( )  RATIONAL_B_SPLINE_SURFACE ( (
 ( 1.000000000000000000, 0.9794335786791421600, 0.9794335786791421600, 1.000000000000000000),
 ( 0.9180545576164658200, 0.8991734607889918500, 0.8991734607889918500, 0.9180545576164658200),
 ( 0.9180545576164658200, 0.8991734607889918500, 0.8991734607889918500, 0.9180545576164658200),
 ( 1.000000000000000000, 0.9794335786791421600, 0.9794335786791421600, 1.000000000000000000) ) ) 
 REPRESENTATION_ITEM ( '' )  SURFACE ( )  );
#248 = CIRCLE ( 'NONE', #141, 26.72999999999999700 ) ;
#249 = APPLICATION_PROTOCOL_DEFINITION ( 'international standard', 'config_control_design', 1994, #39 ) ;
#250 = ORIENTED_EDGE ( 'NONE', *, *, #173, .F. ) ;
#251 = EDGE_CURVE ( 'NONE', #72, #81, #204, .T. ) ;
#252 =( GEOMETRIC_REPRESENTATION_CONTEXT ( 3 ) GLOBAL_UNCERTAINTY_ASSIGNED_CONTEXT ( ( #58 ) ) GLOBAL_UNIT_ASSIGNED_CONTEXT ( ( #167, #172, #63 ) ) REPRESENTATION_CONTEXT ( 'NONE', 'WORKASPACE' ) );
#253 = CYLINDRICAL_SURFACE ( 'NONE', #86, 12.69999999999999900 ) ;
#254 = CARTESIAN_POINT ( 'NONE',  ( -9.224407818941118700, -4.661855933592095300, 4.761621712554890500 ) ) ;
#255 = CARTESIAN_POINT ( 'NONE',  ( 2.682687785523000400E-015, -12.83951426035676500, 8.085602512367797700 ) ) ;
#256 = DIRECTION ( 'NONE',  ( 1.000000000000000000, 0.0000000000000000000, 0.0000000000000000000 ) ) ;
#257 = CARTESIAN_POINT ( 'NONE',  ( -4.684460856192698600, 4.661855933592096200, 3.607041663951451800 ) ) ;
#258 = ORIENTED_EDGE ( 'NONE', *, *, #251, .F. ) ;
#259 = CARTESIAN_POINT ( 'NONE',  ( 7.744905854623771900, 12.83951426035675800, 9.054999567829627300 ) ) ;
#260 = CARTESIAN_POINT ( 'NONE',  ( 11.20017145259503400, -12.83951426035677000, 10.93398259394379200 ) ) ;
#261 = APPROVAL_PERSON_ORGANIZATION ( #163, #120, #139 ) ;
#262 = CARTESIAN_POINT ( 'NONE',  ( 4.996003610813200500E-016, 2.442490654175340100E-015, 8.009734270208589600 ) ) ;
#263 = CARTESIAN_POINT ( 'NONE',  ( -7.744905854623778100, -12.83951426035676500, -4.254999567829629300 ) ) ;
#264 = CARTESIAN_POINT ( 'NONE',  ( -6.938893903907228400E-015, 4.661855933592102400, 1.192958336048550500 ) ) ;
#265 = APPROVAL_PERSON_ORGANIZATION ( #3, #240, #174 ) ;
#266 = EDGE_CURVE ( 'NONE', #282, #112, #37, .T. ) ;
#267 = CARTESIAN_POINT ( 'NONE',  ( 4.684460856192707500, -4.661855933592093500, 1.192958336048549800 ) ) ;
#268 = CARTESIAN_POINT ( 'NONE',  ( 4.996003610813200500E-016, 2.442490654175340100E-015, 8.009734270208589600 ) ) ;
#269 = PRODUCT_DEFINITION_FORMATION_WITH_SPECIFIED_SOURCE ( 'ANY', '', #113, .NOT_KNOWN. ) ;
#270 = CIRCLE ( 'NONE', #70, 12.69999999999999900 ) ;
#271 = ORIENTED_EDGE ( 'NONE', *, *, #151, .F. ) ;
#272 = CARTESIAN_POINT ( 'NONE',  ( 4.996003610813200500E-016, 2.442490654175340100E-015, -3.209734270208589800 ) ) ;
#273 = PERSON_AND_ORGANIZATION ( #182, #65 ) ;
#274 = CARTESIAN_POINT ( 'NONE',  ( -13.33972950221454900, -4.661855933592096200, 6.999545070577067200 ) ) ;
#275 = MANIFOLD_SOLID_BREP ( 'Imported1', #93 ) ;
#276 = CARTESIAN_POINT ( 'NONE',  ( -6.938893903907228400E-015, -12.83951426035676500, -3.285602512367801900 ) ) ;
#277 = CARTESIAN_POINT ( 'NONE',  ( 12.69999999999999900, 2.442490654175340100E-015, -3.209734270208589800 ) ) ;
#278 = CARTESIAN_POINT ( 'NONE',  ( 13.33972950221453900, 4.661855933592089100, 6.999545070577059200 ) ) ;
#279 = DATE_AND_TIME ( #104, #237 ) ;
#280 = CIRCLE ( 'NONE', #208, 26.72999999999999700 ) ;
#281 = CARTESIAN_POINT ( 'NONE',  ( -3.933120588660999200, -12.83951426035676500, -3.285602512367801900 ) ) ;
#282 = VERTEX_POINT ( 'NONE', #38 ) ;
#283 = CC_DESIGN_PERSON_AND_ORGANIZATION_ASSIGNMENT ( #64, #246, ( #269 ) ) ;
#284 = DIRECTION ( 'NONE',  ( 0.0000000000000000000, 0.0000000000000000000, 1.000000000000000000 ) ) ;
#285 = ADVANCED_FACE ( 'NONE', ( #161 ), #188, .F. ) ;
#286 = CARTESIAN_POINT ( 'NONE',  ( 7.744905854623766600, 12.83951426035677200, -4.254999567829630200 ) ) ;
#287 = CC_DESIGN_DATE_AND_TIME_ASSIGNMENT ( #29, #157, ( #67 ) ) ;
#288 = CARTESIAN_POINT ( 'NONE',  ( 0.0000000000000000000, 0.0000000000000000000, 0.0000000000000000000 ) ) ;
#289 = ORIENTED_EDGE ( 'NONE', *, *, #207, .T. ) ;
#290 = APPLICATION_CONTEXT ( 'configuration controlled 3d designs of mechanical parts and assemblies' ) ;
#291 = APPROVAL_STATUS ( 'not_yet_approved' ) ;
#292 = FACE_OUTER_BOUND ( 'NONE', #69, .T. ) ;
#293 = APPROVAL ( #158, 'UNSPECIFIED' ) ;
#294 = ORIENTED_EDGE ( 'NONE', *, *, #192, .F. ) ;
#295 = SECURITY_CLASSIFICATION_LEVEL ( 'unclassified' ) ;
ENDSEC;
END-ISO-10303-21;
