ISO-10303-21;
HEADER;
FILE_DESCRIPTION (( 'STEP AP203' ),
    '1' );
FILE_NAME ('114-0128E BK7 bi-cv 12.7 F-200.STEP',
    '2019-01-21T00:12:01',
    ( '' ),
    ( '' ),
    'SwSTEP 2.0',
    'SolidWorks 2017',
    '' );
FILE_SCHEMA (( 'CONFIG_CONTROL_DESIGN' ));
ENDSEC;

DATA;
#1 = CARTESIAN_POINT ( 'NONE',  ( -3.232720634427607500E-014, -6.426175843702910000, 1.899387906472899100 ) ) ;
#2 = LOCAL_TIME ( 2, 12, 1.000000000000000000, #294 ) ;
#3 = ORIENTED_EDGE ( 'NONE', *, *, #9, .T. ) ;
#4 = AXIS2_PLACEMENT_3D ( 'NONE', #77, #100, #257 ) ;
#5 = CARTESIAN_POINT ( 'NONE',  ( 1.908195823574487800E-014, -6.426175843702910000, 1.899387906472876900 ) ) ;
#6 = APPROVAL_PERSON_ORGANIZATION ( #204, #29, #13 ) ;
#7 = EDGE_LOOP ( 'NONE', ( #295, #130, #228 ) ) ;
#8 = PRODUCT ( '114-0128E BK7 bi-cv 12.7 F-200', '114-0128E BK7 bi-cv 12.7 F-200', '', ( #260 ) ) ;
#9 = EDGE_CURVE ( 'NONE', #122, #127, #247, .T. ) ;
#10 = PRODUCT_RELATED_PRODUCT_CATEGORY ( 'detail', '', ( #8 ) ) ;
#11 = DIRECTION ( 'NONE',  ( -0.0000000000000000000, -0.0000000000000000000, -1.000000000000000000 ) ) ;
#12 = PERSON_AND_ORGANIZATION ( #126, #289 ) ;
#13 = APPROVAL_ROLE ( '' ) ;
#14 = DIRECTION ( 'NONE',  ( 0.0000000000000000000, 0.0000000000000000000, 1.000000000000000000 ) ) ;
#15 =( LENGTH_UNIT ( ) NAMED_UNIT ( * ) SI_UNIT ( .MILLI., .METRE. ) );
#16 = ORIENTED_EDGE ( 'NONE', *, *, #264, .T. ) ;
#17 = DIRECTION ( 'NONE',  ( 0.0000000000000000000, 0.0000000000000000000, 1.000000000000000000 ) ) ;
#18 = DIRECTION ( 'NONE',  ( -0.0000000000000000000, -0.0000000000000000000, -1.000000000000000000 ) ) ;
#19 = VECTOR ( 'NONE', #164, 1000.000000000000000 ) ;
#20 = CARTESIAN_POINT ( 'NONE',  ( 6.385032693861609800, 6.426175843702879800, 1.997553912473998300 ) ) ;
#21 = CARTESIAN_POINT ( 'NONE',  ( -6.349999999999999600, 1.998896044546239400E-015, -0.09704503787145170300 ) ) ;
#22 = CARTESIAN_POINT ( 'NONE',  ( -6.389106799234145500, -2.142741844038264200, 1.865088773844833000 ) ) ;
#23 = CARTESIAN_POINT ( 'NONE',  ( -3.234841510364268900E-014, -6.349999999999830000, 1.897045037871446300 ) ) ;
#24 = ADVANCED_BREP_SHAPE_REPRESENTATION ( '114-0128E BK7 bi-cv 12.7 F-200', ( #30, #86 ), #58 ) ;
#25 = CC_DESIGN_DATE_AND_TIME_ASSIGNMENT ( #145, #235, ( #94 ) ) ;
#26 = CARTESIAN_POINT ( 'NONE',  ( 4.259991806995044400, 2.142741844038231800, 1.799605591490098100 ) ) ;
#27 = CARTESIAN_POINT ( 'NONE',  ( 2.130121756460982200, 2.142741844038230900, 1.766860130944003500 ) ) ;
#28 = EDGE_LOOP ( 'NONE', ( #31, #102, #112, #162, #174, #134 ) ) ;
#29 = APPROVAL ( #262, 'UNSPECIFIED' ) ;
#30 = MANIFOLD_SOLID_BREP ( 'Imported1', #80 ) ;
#31 = ORIENTED_EDGE ( 'NONE', *, *, #271, .F. ) ;
#32 = PERSON_AND_ORGANIZATION_ROLE ( 'classification_officer' ) ;
#33 = CARTESIAN_POINT ( 'NONE',  ( -4.263256414560599900E-014, -4.263256414560599900E-014, 209.6000000000000200 ) ) ;
#34 = AXIS2_PLACEMENT_3D ( 'NONE', #231, #56, #123 ) ;
#35 = FACE_OUTER_BOUND ( 'NONE', #28, .T. ) ;
#36 = COORDINATED_UNIVERSAL_TIME_OFFSET ( 2, 0, .AHEAD. ) ;
#37 = ORIENTED_EDGE ( 'NONE', *, *, #179, .F. ) ;
#38 = CARTESIAN_POINT ( 'NONE',  ( 2.498001805406600200E-016, 1.221245327087670000E-015, -0.09704503787145170300 ) ) ;
#39 = AXIS2_PLACEMENT_3D ( 'NONE', #38, #109, #136 ) ;
#40 = CC_DESIGN_DATE_AND_TIME_ASSIGNMENT ( #74, #169, ( #286 ) ) ;
#41 = CARTESIAN_POINT ( 'NONE',  ( 4.259991806995088800, 2.142741844038224200, 0.0003944085098940402500 ) ) ;
#42 = CARTESIAN_POINT ( 'NONE',  ( 4.257275362262994600, 6.426175843702886000, -0.1321124864075077500 ) ) ;
#43 = PERSON_AND_ORGANIZATION ( #126, #289 ) ;
#44 = CARTESIAN_POINT ( 'NONE',  ( 2.130121756461012000, -2.142741844038283700, 0.03313986905597135500 ) ) ;
#45 = CARTESIAN_POINT ( 'NONE',  ( 3.592173029163721700E-014, 6.426175843702886900, -0.09938790647290307600 ) ) ;
#46 = CARTESIAN_POINT ( 'NONE',  ( -6.385032693861674600, 6.426175843702876200, 1.997553912474003400 ) ) ;
#47 = CYLINDRICAL_SURFACE ( 'NONE', #119, 6.349999999999999600 ) ;
#48 = CARTESIAN_POINT ( 'NONE',  ( -6.385032693861671000, -6.426175843702911700, 1.997553912474003400 ) ) ;
#49 = CARTESIAN_POINT ( 'NONE',  ( -6.389106799234146400, 2.142741844038228200, 1.865088773844831800 ) ) ;
#50 = UNCERTAINTY_MEASURE_WITH_UNIT (LENGTH_MEASURE( 1.000000000000000100E-005 ), #15, 'distance_accuracy_value', 'NONE');
#51 = CARTESIAN_POINT ( 'NONE',  ( -2.128763453843025100, 6.426175843702876200, 1.899387906472899300 ) ) ;
#52 = CARTESIAN_POINT ( 'NONE',  ( 2.128763453842994000, -6.426175843702909100, 1.899387906472877800 ) ) ;
#53 = AXIS2_PLACEMENT_3D ( 'NONE', #33, #192, #131 ) ;
#54 = PERSON_AND_ORGANIZATION ( #126, #289 ) ;
#55 = ORIENTED_EDGE ( 'NONE', *, *, #78, .F. ) ;
#56 = DIRECTION ( 'NONE',  ( 0.0000000000000000000, 0.0000000000000000000, 1.000000000000000000 ) ) ;
#57 = PERSON_AND_ORGANIZATION_ROLE ( 'creator' ) ;
#58 =( GEOMETRIC_REPRESENTATION_CONTEXT ( 3 ) GLOBAL_UNCERTAINTY_ASSIGNED_CONTEXT ( ( #50 ) ) GLOBAL_UNIT_ASSIGNED_CONTEXT ( ( #15, #85, #89 ) ) REPRESENTATION_CONTEXT ( 'NONE', 'WORKASPACE' ) );
#59 = DIRECTION ( 'NONE',  ( 0.0000000000000000000, 0.0000000000000000000, 1.000000000000000000 ) ) ;
#60 = ORIENTED_EDGE ( 'NONE', *, *, #181, .F. ) ;
#61 = CC_DESIGN_PERSON_AND_ORGANIZATION_ASSIGNMENT ( #190, #285, ( #286 ) ) ;
#62 = COORDINATED_UNIVERSAL_TIME_OFFSET ( 2, 0, .AHEAD. ) ;
#63 = DIRECTION ( 'NONE',  ( 1.000000000000000000, 0.0000000000000000000, 0.0000000000000000000 ) ) ;
#64 =( BOUNDED_SURFACE ( )  B_SPLINE_SURFACE ( 3, 3, ( 
 ( #175, #135, #88, #160 ),
 ( #153, #222, #201, #115 ),
 ( #92, #91, #246, #116 ),
 ( #270, #163, #186, #95 ) ),
 .UNSPECIFIED., .F., .F., .F. ) 
 B_SPLINE_SURFACE_WITH_KNOTS ( ( 4, 4 ),
 ( 4, 4 ),
 ( 0.0000000000000000000, 1.000000000000000000 ),
 ( 0.0000000000000000000, 1.000000000000000000 ),
 .UNSPECIFIED. ) 
 GEOMETRIC_REPRESENTATION_ITEM ( )  RATIONAL_B_SPLINE_SURFACE ( (
 ( 1.000000000000000000, 0.9999212233053067500, 0.9999212233053067500, 1.000000000000000000),
 ( 0.9996811424238917200, 0.9996023908477443800, 0.9996023908477443800, 0.9996811424238917200),
 ( 0.9996811424238917200, 0.9996023908477443800, 0.9996023908477443800, 0.9996811424238917200),
 ( 1.000000000000000000, 0.9999212233053067500, 0.9999212233053067500, 1.000000000000000000) ) ) 
 REPRESENTATION_ITEM ( '' )  SURFACE ( )  );
#65 = CARTESIAN_POINT ( 'NONE',  ( 6.385032693861668400, 6.426175843702885100, -0.1975539124740073300 ) ) ;
#66 = CARTESIAN_POINT ( 'NONE',  ( 2.498001805406600200E-016, 1.221245327087670000E-015, 1.897045037871450300 ) ) ;
#67 = DIRECTION ( 'NONE',  ( 1.000000000000000000, 0.0000000000000000000, 0.0000000000000000000 ) ) ;
#68 = EDGE_LOOP ( 'NONE', ( #293, #60, #265 ) ) ;
#69 = CARTESIAN_POINT ( 'NONE',  ( 4.257275362262948400, 6.426175843702878000, 1.932112486407499200 ) ) ;
#70 = AXIS2_PLACEMENT_3D ( 'NONE', #191, #59, #148 ) ;
#71 = LINE ( 'NONE', #96, #194 ) ;
#72 = CIRCLE ( 'NONE', #281, 6.349999999999999600 ) ;
#73 = CC_DESIGN_PERSON_AND_ORGANIZATION_ASSIGNMENT ( #54, #57, ( #198 ) ) ;
#74 = DATE_AND_TIME ( #141, #111 ) ;
#75 = CIRCLE ( 'NONE', #193, 6.349999999999999600 ) ;
#76 = CARTESIAN_POINT ( 'NONE',  ( 2.128763453842990500, 6.426175843702878000, 1.899387906472877800 ) ) ;
#77 = CARTESIAN_POINT ( 'NONE',  ( 4.263256414560599900E-014, -4.263256414560599900E-014, -207.8000000000000100 ) ) ;
#78 = EDGE_CURVE ( 'NONE', #250, #239, #72, .T. ) ;
#79 = EDGE_LOOP ( 'NONE', ( #37, #176, #209 ) ) ;
#80 = CLOSED_SHELL ( 'NONE', ( #238, #150, #199, #132, #217, #133 ) ) ;
#81 = PERSON_AND_ORGANIZATION_ROLE ( 'design_owner' ) ;
#82 = CC_DESIGN_APPROVAL ( #254, ( #198 ) ) ;
#83 = CIRCLE ( 'NONE', #219, 6.349999999999999600 ) ;
#84 = LOCAL_TIME ( 2, 12, 1.000000000000000000, #237 ) ;
#85 =( NAMED_UNIT ( * ) PLANE_ANGLE_UNIT ( ) SI_UNIT ( $, .RADIAN. ) );
#86 = AXIS2_PLACEMENT_3D ( 'NONE', #258, #124, #215 ) ;
#87 = CARTESIAN_POINT ( 'NONE',  ( 3.590032958916199200E-014, 6.349999999999788300, -0.09704503787144887200 ) ) ;
#88 = CARTESIAN_POINT ( 'NONE',  ( -2.128763453842990500, 6.426175843702887700, -0.09938790647288144000 ) ) ;
#89 =( NAMED_UNIT ( * ) SI_UNIT ( $, .STERADIAN. ) SOLID_ANGLE_UNIT ( ) );
#90 = CARTESIAN_POINT ( 'NONE',  ( 6.385032693861663900, -6.426175843702948100, -0.1975539124740073300 ) ) ;
#91 = CARTESIAN_POINT ( 'NONE',  ( -4.259991806995046200, -2.142741844038281900, 0.0003944085098985396300 ) ) ;
#92 = CARTESIAN_POINT ( 'NONE',  ( -6.389106799234085100, -2.142741844038282400, -0.06508877384483051400 ) ) ;
#93 = CARTESIAN_POINT ( 'NONE',  ( -2.130121756461015100, 2.142741844038230000, 1.766860130944025100 ) ) ;
#94 = SECURITY_CLASSIFICATION ( '', '', #172 ) ;
#95 = CARTESIAN_POINT ( 'NONE',  ( -1.908195823574487800E-014, -6.426175843702946400, -0.09938790647288083000 ) ) ;
#96 = CARTESIAN_POINT ( 'NONE',  ( -6.349999999999999600, 1.998896044546239400E-015, -0.09704503787145170300 ) ) ;
#97 = CARTESIAN_POINT ( 'NONE',  ( 4.259991806995046200, -2.142741844038261500, 1.799605591490099200 ) ) ;
#98 = CYLINDRICAL_SURFACE ( 'NONE', #70, 6.349999999999999600 ) ;
#99 = CARTESIAN_POINT ( 'NONE',  ( 6.389106799234085100, -2.142741844038260600, 1.865088773844827900 ) ) ;
#100 = DIRECTION ( 'NONE',  ( 1.000000000000000000, -2.796783059464110200E-016, 4.096326795521520000E-017 ) ) ;
#101 = CIRCLE ( 'NONE', #206, 6.349999999999999600 ) ;
#102 = ORIENTED_EDGE ( 'NONE', *, *, #78, .T. ) ;
#103 = APPLICATION_CONTEXT ( 'configuration controlled 3d designs of mechanical parts and assemblies' ) ;
#104 = FACE_OUTER_BOUND ( 'NONE', #120, .T. ) ;
#105 = SHAPE_DEFINITION_REPRESENTATION ( #292, #24 ) ;
#106 = DIRECTION ( 'NONE',  ( 1.000000000000000000, -8.881784197001252300E-016, 0.0000000000000000000 ) ) ;
#107 = ORIENTED_EDGE ( 'NONE', *, *, #264, .F. ) ;
#108 = CC_DESIGN_SECURITY_CLASSIFICATION ( #94, ( #198 ) ) ;
#109 = DIRECTION ( 'NONE',  ( 0.0000000000000000000, 0.0000000000000000000, 1.000000000000000000 ) ) ;
#110 = CIRCLE ( 'NONE', #187, 6.349999999999999600 ) ;
#111 = LOCAL_TIME ( 2, 12, 1.000000000000000000, #36 ) ;
#112 = ORIENTED_EDGE ( 'NONE', *, *, #143, .T. ) ;
#113 = ORIENTED_EDGE ( 'NONE', *, *, #276, .T. ) ;
#114 = CARTESIAN_POINT ( 'NONE',  ( 2.128763453843020200, -6.426175843702946400, -0.09938790647290297900 ) ) ;
#115 = CARTESIAN_POINT ( 'NONE',  ( -1.734723475976807100E-014, 2.142741844038225100, 0.03313986905599405200 ) ) ;
#116 = CARTESIAN_POINT ( 'NONE',  ( -1.908195823574487800E-014, -2.142741844038283700, 0.03313986905599353900 ) ) ;
#117 = VERTEX_POINT ( 'NONE', #241 ) ;
#118 = CARTESIAN_POINT ( 'NONE',  ( -3.471831795619724500E-014, 2.142741844038230000, 1.766860130944025100 ) ) ;
#119 = AXIS2_PLACEMENT_3D ( 'NONE', #263, #14, #288 ) ;
#120 = EDGE_LOOP ( 'NONE', ( #107, #113, #55 ) ) ;
#121 = APPROVAL_DATE_TIME ( #171, #29 ) ;
#122 = VERTEX_POINT ( 'NONE', #154 ) ;
#123 = DIRECTION ( 'NONE',  ( 1.000000000000000000, 0.0000000000000000000, 0.0000000000000000000 ) ) ;
#124 = DIRECTION ( 'NONE',  ( 0.0000000000000000000, 0.0000000000000000000, 1.000000000000000000 ) ) ;
#125 =( BOUNDED_SURFACE ( )  B_SPLINE_SURFACE ( 3, 3, ( 
 ( #45, #290, #42, #65 ),
 ( #267, #158, #41, #178 ),
 ( #195, #44, #242, #218 ),
 ( #138, #114, #221, #90 ) ),
 .UNSPECIFIED., .F., .F., .F. ) 
 B_SPLINE_SURFACE_WITH_KNOTS ( ( 4, 4 ),
 ( 4, 4 ),
 ( 0.0000000000000000000, 1.000000000000000000 ),
 ( 0.0000000000000000000, 1.000000000000000000 ),
 .UNSPECIFIED. ) 
 GEOMETRIC_REPRESENTATION_ITEM ( )  RATIONAL_B_SPLINE_SURFACE ( (
 ( 1.000000000000000000, 0.9999212233053067500, 0.9999212233053067500, 1.000000000000000000),
 ( 0.9996811424238917200, 0.9996023908477443800, 0.9996023908477443800, 0.9996811424238917200),
 ( 0.9996811424238917200, 0.9996023908477443800, 0.9996023908477443800, 0.9996811424238917200),
 ( 1.000000000000000000, 0.9999212233053067500, 0.9999212233053067500, 1.000000000000000000) ) ) 
 REPRESENTATION_ITEM ( '' )  SURFACE ( )  );
#126 = PERSON ( 'UNSPECIFIED', 'UNSPECIFIED', 'UNSPECIFIED', ('UNSPECIFIED'), ('UNSPECIFIED'), ('UNSPECIFIED') ) ;
#127 = VERTEX_POINT ( 'NONE', #87 ) ;
#128 = APPROVAL_STATUS ( 'not_yet_approved' ) ;
#129 = APPROVAL_STATUS ( 'not_yet_approved' ) ;
#130 = ORIENTED_EDGE ( 'NONE', *, *, #9, .F. ) ;
#131 = DIRECTION ( 'NONE',  ( -2.796783059464110200E-016, 1.000000000000000000, -2.671373976480165000E-016 ) ) ;
#132 = ADVANCED_FACE ( 'NONE', ( #266 ), #125, .F. ) ;
#133 = ADVANCED_FACE ( 'NONE', ( #205 ), #284, .F. ) ;
#134 = ORIENTED_EDGE ( 'NONE', *, *, #223, .T. ) ;
#135 = CARTESIAN_POINT ( 'NONE',  ( -4.257275362262948400, 6.426175843702887700, -0.1321124864075027500 ) ) ;
#136 = DIRECTION ( 'NONE',  ( 1.000000000000000000, 0.0000000000000000000, 0.0000000000000000000 ) ) ;
#137 = CARTESIAN_POINT ( 'NONE',  ( 2.498001805406600200E-016, 1.221245327087670000E-015, 1.897045037871450300 ) ) ;
#138 = CARTESIAN_POINT ( 'NONE',  ( 3.232720634427605600E-014, -6.426175843702946400, -0.09938790647290307600 ) ) ;
#139 = CARTESIAN_POINT ( 'NONE',  ( -4.257275362262999100, 6.426175843702876200, 1.932112486407504100 ) ) ;
#140 = CARTESIAN_POINT ( 'NONE',  ( 1.734723475976807100E-014, -2.142741844038262400, 1.766860130944004200 ) ) ;
#141 = CALENDAR_DATE ( 2019, 21, 1 ) ;
#142 = VERTEX_POINT ( 'NONE', #269 ) ;
#143 = EDGE_CURVE ( 'NONE', #239, #122, #75, .T. ) ;
#144 = APPROVAL_ROLE ( '' ) ;
#145 = DATE_AND_TIME ( #282, #2 ) ;
#146 = APPROVAL ( #128, 'UNSPECIFIED' ) ;
#147 = CARTESIAN_POINT ( 'NONE',  ( -3.590032958916199900E-014, 6.349999999999788300, 1.897045037871446300 ) ) ;
#148 = DIRECTION ( 'NONE',  ( 1.000000000000000000, 0.0000000000000000000, 0.0000000000000000000 ) ) ;
#149 = CIRCLE ( 'NONE', #4, 207.8000000000000100 ) ;
#150 = ADVANCED_FACE ( 'NONE', ( #212 ), #259, .F. ) ;
#151 = DIRECTION ( 'NONE',  ( -0.0000000000000000000, -0.0000000000000000000, -1.000000000000000000 ) ) ;
#152 = CARTESIAN_POINT ( 'NONE',  ( 2.498001805406600200E-016, 1.221245327087670000E-015, -0.09704503787145170300 ) ) ;
#153 = CARTESIAN_POINT ( 'NONE',  ( -6.389106799234084200, 2.142741844038226900, -0.06508877384482998600 ) ) ;
#154 = CARTESIAN_POINT ( 'NONE',  ( 6.349999999999999600, 1.221245327087670000E-015, -0.09704503787145170300 ) ) ;
#155 = CARTESIAN_POINT ( 'NONE',  ( 3.234841510364267600E-014, -6.349999999999830000, -0.09704503787144887200 ) ) ;
#156 = CALENDAR_DATE ( 2019, 21, 1 ) ;
#157 = CARTESIAN_POINT ( 'NONE',  ( 6.349999999999999600, 1.221245327087670000E-015, -0.09704503787145170300 ) ) ;
#158 = CARTESIAN_POINT ( 'NONE',  ( 2.130121756461013300, 2.142741844038224700, 0.03313986905597189600 ) ) ;
#159 = DIRECTION ( 'NONE',  ( -0.0000000000000000000, -0.0000000000000000000, -1.000000000000000000 ) ) ;
#160 = CARTESIAN_POINT ( 'NONE',  ( -1.561251128379126400E-014, 6.426175843702886900, -0.09938790647288083000 ) ) ;
#161 = CARTESIAN_POINT ( 'NONE',  ( -4.259991806995092400, 2.142741844038229100, 1.799605591490102800 ) ) ;
#162 = ORIENTED_EDGE ( 'NONE', *, *, #256, .T. ) ;
#163 = CARTESIAN_POINT ( 'NONE',  ( -4.257275362262952000, -6.426175843702945500, -0.1321124864075027500 ) ) ;
#164 = DIRECTION ( 'NONE',  ( 0.0000000000000000000, 0.0000000000000000000, 1.000000000000000000 ) ) ;
#165 = CARTESIAN_POINT ( 'NONE',  ( 6.385032693861612400, -6.426175843702908200, 1.997553912473998300 ) ) ;
#166 = APPROVAL_DATE_TIME ( #180, #254 ) ;
#167 = PERSON_AND_ORGANIZATION ( #126, #289 ) ;
#168 = ORIENTED_EDGE ( 'NONE', *, *, #179, .T. ) ;
#169 = DATE_TIME_ROLE ( 'creation_date' ) ;
#170 = FACE_OUTER_BOUND ( 'NONE', #210, .T. ) ;
#171 = DATE_AND_TIME ( #220, #84 ) ;
#172 = SECURITY_CLASSIFICATION_LEVEL ( 'unclassified' ) ;
#173 = APPLICATION_PROTOCOL_DEFINITION ( 'international standard', 'config_control_design', 1994, #103 ) ;
#174 = ORIENTED_EDGE ( 'NONE', *, *, #240, .T. ) ;
#175 = CARTESIAN_POINT ( 'NONE',  ( -6.385032693861609800, 6.426175843702888600, -0.1975539124740022200 ) ) ;
#176 = ORIENTED_EDGE ( 'NONE', *, *, #197, .T. ) ;
#177 = CC_DESIGN_APPROVAL ( #29, ( #286 ) ) ;
#178 = CARTESIAN_POINT ( 'NONE',  ( 6.389106799234140200, 2.142741844038223300, -0.06508877384483509300 ) ) ;
#179 = EDGE_CURVE ( 'NONE', #200, #142, #110, .T. ) ;
#180 = DATE_AND_TIME ( #184, #261 ) ;
#181 = EDGE_CURVE ( 'NONE', #117, #200, #101, .T. ) ;
#182 = CARTESIAN_POINT ( 'NONE',  ( -2.128763453843022000, -6.426175843702910000, 1.899387906472899300 ) ) ;
#183 = DIRECTION ( 'NONE',  ( 0.0000000000000000000, 0.0000000000000000000, 1.000000000000000000 ) ) ;
#184 = CALENDAR_DATE ( 2019, 21, 1 ) ;
#185 = CC_DESIGN_PERSON_AND_ORGANIZATION_ASSIGNMENT ( #12, #32, ( #94 ) ) ;
#186 = CARTESIAN_POINT ( 'NONE',  ( -2.128763453842994000, -6.426175843702945500, -0.09938790647288144000 ) ) ;
#187 = AXIS2_PLACEMENT_3D ( 'NONE', #287, #11, #283 ) ;
#188 = DATE_AND_TIME ( #156, #229 ) ;
#189 = ORIENTED_EDGE ( 'NONE', *, *, #181, .T. ) ;
#190 = PERSON_AND_ORGANIZATION ( #126, #289 ) ;
#191 = CARTESIAN_POINT ( 'NONE',  ( 2.498001805406600200E-016, 1.221245327087670000E-015, -0.09704503787145170300 ) ) ;
#192 = DIRECTION ( 'NONE',  ( -1.000000000000000000, -2.796783059464110200E-016, -4.096326795521520000E-017 ) ) ;
#193 = AXIS2_PLACEMENT_3D ( 'NONE', #255, #208, #207 ) ;
#194 = VECTOR ( 'NONE', #183, 1000.000000000000000 ) ;
#195 = CARTESIAN_POINT ( 'NONE',  ( 3.351976113815503200E-014, -2.142741844038283700, 0.03313986905597127200 ) ) ;
#196 = CARTESIAN_POINT ( 'NONE',  ( 2.498001805406600200E-016, 1.221245327087670000E-015, 1.897045037871450300 ) ) ;
#197 = EDGE_CURVE ( 'NONE', #200, #248, #227, .T. ) ;
#198 = PRODUCT_DEFINITION_FORMATION_WITH_SPECIFIED_SOURCE ( 'ANY', '', #8, .NOT_KNOWN. ) ;
#199 = ADVANCED_FACE ( 'NONE', ( #170 ), #47, .T. ) ;
#200 = VERTEX_POINT ( 'NONE', #147 ) ;
#201 = CARTESIAN_POINT ( 'NONE',  ( -2.130121756460983100, 2.142741844038225500, 0.03313986905599342800 ) ) ;
#202 = CARTESIAN_POINT ( 'NONE',  ( -4.259991806995091500, -2.142741844038263700, 1.799605591490103900 ) ) ;
#203 = CARTESIAN_POINT ( 'NONE',  ( -2.130121756461013800, -2.142741844038262800, 1.766860130944026200 ) ) ;
#204 = PERSON_AND_ORGANIZATION ( #126, #289 ) ;
#205 = FACE_OUTER_BOUND ( 'NONE', #68, .T. ) ;
#206 = AXIS2_PLACEMENT_3D ( 'NONE', #196, #151, #106 ) ;
#207 = DIRECTION ( 'NONE',  ( 1.000000000000000000, 0.0000000000000000000, 0.0000000000000000000 ) ) ;
#208 = DIRECTION ( 'NONE',  ( 0.0000000000000000000, 0.0000000000000000000, 1.000000000000000000 ) ) ;
#209 = ORIENTED_EDGE ( 'NONE', *, *, #240, .F. ) ;
#210 = EDGE_LOOP ( 'NONE', ( #3, #16, #275, #189, #168, #232 ) ) ;
#211 = COORDINATED_UNIVERSAL_TIME_OFFSET ( 2, 0, .AHEAD. ) ;
#212 = FACE_OUTER_BOUND ( 'NONE', #79, .T. ) ;
#213 = APPROVAL_ROLE ( '' ) ;
#214 = AXIS2_PLACEMENT_3D ( 'NONE', #137, #18, #67 ) ;
#215 = DIRECTION ( 'NONE',  ( 1.000000000000000000, 0.0000000000000000000, 0.0000000000000000000 ) ) ;
#216 = DESIGN_CONTEXT ( 'detailed design', #103, 'design' ) ;
#217 = ADVANCED_FACE ( 'NONE', ( #35 ), #98, .T. ) ;
#218 = CARTESIAN_POINT ( 'NONE',  ( 6.389106799234139300, -2.142741844038285500, -0.06508877384483563500 ) ) ;
#219 = AXIS2_PLACEMENT_3D ( 'NONE', #66, #159, #279 ) ;
#220 = CALENDAR_DATE ( 2019, 21, 1 ) ;
#221 = CARTESIAN_POINT ( 'NONE',  ( 4.257275362262990200, -6.426175843702946400, -0.1321124864075077500 ) ) ;
#222 = CARTESIAN_POINT ( 'NONE',  ( -4.259991806995044400, 2.142741844038226400, 0.0003944085098990545700 ) ) ;
#223 = EDGE_CURVE ( 'NONE', #248, #117, #273, .T. ) ;
#224 = APPROVAL_PERSON_ORGANIZATION ( #167, #254, #144 ) ;
#225 = CIRCLE ( 'NONE', #34, 6.349999999999999600 ) ;
#226 = APPLICATION_PROTOCOL_DEFINITION ( 'international standard', 'config_control_design', 1994, #243 ) ;
#227 = CIRCLE ( 'NONE', #53, 207.8000000000000100 ) ;
#228 = ORIENTED_EDGE ( 'NONE', *, *, #143, .F. ) ;
#229 = LOCAL_TIME ( 2, 12, 1.000000000000000000, #211 ) ;
#230 = CARTESIAN_POINT ( 'NONE',  ( 6.389106799234084200, 2.142741844038231800, 1.865088773844826700 ) ) ;
#231 = CARTESIAN_POINT ( 'NONE',  ( 2.498001805406600200E-016, 1.221245327087670000E-015, -0.09704503787145170300 ) ) ;
#232 = ORIENTED_EDGE ( 'NONE', *, *, #256, .F. ) ;
#233 = CC_DESIGN_PERSON_AND_ORGANIZATION_ASSIGNMENT ( #291, #81, ( #8 ) ) ;
#234 = PERSON_AND_ORGANIZATION_ROLE ( 'design_supplier' ) ;
#235 = DATE_TIME_ROLE ( 'classification_date' ) ;
#236 = CC_DESIGN_APPROVAL ( #146, ( #94 ) ) ;
#237 = COORDINATED_UNIVERSAL_TIME_OFFSET ( 2, 0, .AHEAD. ) ;
#238 = ADVANCED_FACE ( 'NONE', ( #104 ), #64, .F. ) ;
#239 = VERTEX_POINT ( 'NONE', #155 ) ;
#240 = EDGE_CURVE ( 'NONE', #142, #248, #83, .T. ) ;
#241 = CARTESIAN_POINT ( 'NONE',  ( -6.349999999999999600, 1.998896044546239400E-015, 1.897045037871450300 ) ) ;
#242 = CARTESIAN_POINT ( 'NONE',  ( 4.259991806995087900, -2.142741844038284600, 0.0003944085098935116500 ) ) ;
#243 = APPLICATION_CONTEXT ( 'configuration controlled 3d designs of mechanical parts and assemblies' ) ;
#244 = APPROVAL_PERSON_ORGANIZATION ( #278, #146, #213 ) ;
#245 = CARTESIAN_POINT ( 'NONE',  ( -3.351976113815504400E-014, -2.142741844038262400, 1.766860130944026200 ) ) ;
#246 = CARTESIAN_POINT ( 'NONE',  ( -2.130121756460984900, -2.142741844038282800, 0.03313986905599290700 ) ) ;
#247 = CIRCLE ( 'NONE', #39, 6.349999999999999600 ) ;
#248 = VERTEX_POINT ( 'NONE', #23 ) ;
#249 = CARTESIAN_POINT ( 'NONE',  ( -4.257275362262995500, -6.426175843702910000, 1.932112486407504100 ) ) ;
#250 = VERTEX_POINT ( 'NONE', #21 ) ;
#251 = CARTESIAN_POINT ( 'NONE',  ( 1.561251128379126400E-014, 6.426175843702878000, 1.899387906472876900 ) ) ;
#252 = CARTESIAN_POINT ( 'NONE',  ( 2.130121756460983100, -2.142741844038262000, 1.766860130944004600 ) ) ;
#253 = LINE ( 'NONE', #157, #19 ) ;
#254 = APPROVAL ( #129, 'UNSPECIFIED' ) ;
#255 = CARTESIAN_POINT ( 'NONE',  ( 2.498001805406600200E-016, 1.221245327087670000E-015, -0.09704503787145170300 ) ) ;
#256 = EDGE_CURVE ( 'NONE', #122, #142, #253, .T. ) ;
#257 = DIRECTION ( 'NONE',  ( 2.796783059464110200E-016, 1.000000000000000000, 0.0000000000000000000 ) ) ;
#258 = CARTESIAN_POINT ( 'NONE',  ( 0.0000000000000000000, 0.0000000000000000000, 0.0000000000000000000 ) ) ;
#259 =( BOUNDED_SURFACE ( )  B_SPLINE_SURFACE ( 3, 3, ( 
 ( #20, #69, #76, #251 ),
 ( #230, #26, #27, #277 ),
 ( #99, #97, #252, #140 ),
 ( #165, #280, #52, #5 ) ),
 .UNSPECIFIED., .F., .F., .F. ) 
 B_SPLINE_SURFACE_WITH_KNOTS ( ( 4, 4 ),
 ( 4, 4 ),
 ( 0.0000000000000000000, 1.000000000000000000 ),
 ( 0.0000000000000000000, 1.000000000000000000 ),
 .UNSPECIFIED. ) 
 GEOMETRIC_REPRESENTATION_ITEM ( )  RATIONAL_B_SPLINE_SURFACE ( (
 ( 1.000000000000000000, 0.9999212233053067500, 0.9999212233053067500, 1.000000000000000000),
 ( 0.9996811424238917200, 0.9996023908477443800, 0.9996023908477443800, 0.9996811424238917200),
 ( 0.9996811424238917200, 0.9996023908477443800, 0.9996023908477443800, 0.9996811424238917200),
 ( 1.000000000000000000, 0.9999212233053067500, 0.9999212233053067500, 1.000000000000000000) ) ) 
 REPRESENTATION_ITEM ( '' )  SURFACE ( )  );
#260 = MECHANICAL_CONTEXT ( 'NONE', #243, 'mechanical' ) ;
#261 = LOCAL_TIME ( 2, 12, 1.000000000000000000, #62 ) ;
#262 = APPROVAL_STATUS ( 'not_yet_approved' ) ;
#263 = CARTESIAN_POINT ( 'NONE',  ( 2.498001805406600200E-016, 1.221245327087670000E-015, -0.09704503787145170300 ) ) ;
#264 = EDGE_CURVE ( 'NONE', #127, #250, #225, .T. ) ;
#265 = ORIENTED_EDGE ( 'NONE', *, *, #223, .F. ) ;
#266 = FACE_OUTER_BOUND ( 'NONE', #7, .T. ) ;
#267 = CARTESIAN_POINT ( 'NONE',  ( 3.471831795619723800E-014, 2.142741844038225100, 0.03313986905597181300 ) ) ;
#268 = CC_DESIGN_PERSON_AND_ORGANIZATION_ASSIGNMENT ( #43, #234, ( #198 ) ) ;
#269 = CARTESIAN_POINT ( 'NONE',  ( 6.349999999999999600, 1.221245327087670000E-015, 1.897045037871450300 ) ) ;
#270 = CARTESIAN_POINT ( 'NONE',  ( -6.385032693861612400, -6.426175843702944600, -0.1975539124740022200 ) ) ;
#271 = EDGE_CURVE ( 'NONE', #250, #117, #71, .T. ) ;
#272 = CARTESIAN_POINT ( 'NONE',  ( -3.592173029163722300E-014, 6.426175843702878000, 1.899387906472899100 ) ) ;
#273 = CIRCLE ( 'NONE', #214, 6.349999999999999600 ) ;
#274 = APPROVAL_DATE_TIME ( #188, #146 ) ;
#275 = ORIENTED_EDGE ( 'NONE', *, *, #271, .T. ) ;
#276 = EDGE_CURVE ( 'NONE', #127, #239, #149, .T. ) ;
#277 = CARTESIAN_POINT ( 'NONE',  ( 1.647987302177966700E-014, 2.142741844038230000, 1.766860130944003100 ) ) ;
#278 = PERSON_AND_ORGANIZATION ( #126, #289 ) ;
#279 = DIRECTION ( 'NONE',  ( 1.000000000000000000, 0.0000000000000000000, 0.0000000000000000000 ) ) ;
#280 = CARTESIAN_POINT ( 'NONE',  ( 4.257275362262952000, -6.426175843702909100, 1.932112486407499200 ) ) ;
#281 = AXIS2_PLACEMENT_3D ( 'NONE', #152, #17, #63 ) ;
#282 = CALENDAR_DATE ( 2019, 21, 1 ) ;
#283 = DIRECTION ( 'NONE',  ( 1.000000000000000000, 1.776356839400250500E-015, 0.0000000000000000000 ) ) ;
#284 =( BOUNDED_SURFACE ( )  B_SPLINE_SURFACE ( 3, 3, ( 
 ( #272, #51, #139, #46 ),
 ( #118, #93, #161, #49 ),
 ( #245, #203, #202, #22 ),
 ( #1, #182, #249, #48 ) ),
 .UNSPECIFIED., .F., .F., .F. ) 
 B_SPLINE_SURFACE_WITH_KNOTS ( ( 4, 4 ),
 ( 4, 4 ),
 ( 0.0000000000000000000, 1.000000000000000000 ),
 ( 0.0000000000000000000, 1.000000000000000000 ),
 .UNSPECIFIED. ) 
 GEOMETRIC_REPRESENTATION_ITEM ( )  RATIONAL_B_SPLINE_SURFACE ( (
 ( 1.000000000000000000, 0.9999212233053067500, 0.9999212233053067500, 1.000000000000000000),
 ( 0.9996811424238917200, 0.9996023908477443800, 0.9996023908477443800, 0.9996811424238917200),
 ( 0.9996811424238917200, 0.9996023908477443800, 0.9996023908477443800, 0.9996811424238917200),
 ( 1.000000000000000000, 0.9999212233053067500, 0.9999212233053067500, 1.000000000000000000) ) ) 
 REPRESENTATION_ITEM ( '' )  SURFACE ( )  );
#285 = PERSON_AND_ORGANIZATION_ROLE ( 'creator' ) ;
#286 = PRODUCT_DEFINITION ( 'UNKNOWN', '', #198, #216 ) ;
#287 = CARTESIAN_POINT ( 'NONE',  ( 2.498001805406600200E-016, 1.221245327087670000E-015, 1.897045037871450300 ) ) ;
#288 = DIRECTION ( 'NONE',  ( 1.000000000000000000, 0.0000000000000000000, 0.0000000000000000000 ) ) ;
#289 = ORGANIZATION ( 'UNSPECIFIED', 'UNSPECIFIED', '' ) ;
#290 = CARTESIAN_POINT ( 'NONE',  ( 2.128763453843023300, 6.426175843702886000, -0.09938790647290297900 ) ) ;
#291 = PERSON_AND_ORGANIZATION ( #126, #289 ) ;
#292 = PRODUCT_DEFINITION_SHAPE ( 'NONE', 'NONE',  #286 ) ;
#293 = ORIENTED_EDGE ( 'NONE', *, *, #197, .F. ) ;
#294 = COORDINATED_UNIVERSAL_TIME_OFFSET ( 2, 0, .AHEAD. ) ;
#295 = ORIENTED_EDGE ( 'NONE', *, *, #276, .F. ) ;
ENDSEC;
END-ISO-10303-21;
