ISO-10303-21;
HEADER;
FILE_DESCRIPTION (( 'STEP AP203' ),
    '1' );
FILE_NAME ('114-0124E BK7 bi-cv 12.7 F-150.STEP',
    '2019-01-21T00:02:26',
    ( '' ),
    ( '' ),
    'SwSTEP 2.0',
    'SolidWorks 2017',
    '' );
FILE_SCHEMA (( 'CONFIG_CONTROL_DESIGN' ));
ENDSEC;

DATA;
#1 = CARTESIAN_POINT ( 'NONE',  ( -4.256142348670874900, 6.426157070588621100, 1.976111673138490000 ) ) ;
#2 = CC_DESIGN_PERSON_AND_ORGANIZATION_ASSIGNMENT ( #100, #64, ( #14 ) ) ;
#3 = CARTESIAN_POINT ( 'NONE',  ( -1.382138345132036000E-013, 2.143266723985255900, 1.755808775221007900 ) ) ;
#4 = ADVANCED_FACE ( 'NONE', ( #264 ), #85, .T. ) ;
#5 = DATE_AND_TIME ( #91, #41 ) ;
#6 = CARTESIAN_POINT ( 'NONE',  ( -4.256142348670860700, 6.426157070588375000, -0.1761116731384951600 ) ) ;
#7 = CARTESIAN_POINT ( 'NONE',  ( -6.382649532942495300, 6.426157070588375000, -0.2633195861471704400 ) ) ;
#8 = ORIENTED_EDGE ( 'NONE', *, *, #261, .F. ) ;
#9 = DATE_TIME_ROLE ( 'creation_date' ) ;
#10 = ADVANCED_FACE ( 'NONE', ( #15 ), #112, .F. ) ;
#11 = CIRCLE ( 'NONE', #187, 6.349999999999999600 ) ;
#12 = SECURITY_CLASSIFICATION_LEVEL ( 'unclassified' ) ;
#13 =( BOUNDED_SURFACE ( )  B_SPLINE_SURFACE ( 3, 3, ( 
 ( #77, #245, #1, #182 ),
 ( #3, #54, #52, #207 ),
 ( #32, #183, #230, #292 ),
 ( #24, #179, #203, #74 ) ),
 .UNSPECIFIED., .F., .F., .F. ) 
 B_SPLINE_SURFACE_WITH_KNOTS ( ( 4, 4 ),
 ( 4, 4 ),
 ( 0.0000000000000000000, 1.000000000000000000 ),
 ( 0.0000000000000000000, 1.000000000000000000 ),
 .UNSPECIFIED. ) 
 GEOMETRIC_REPRESENTATION_ITEM ( )  RATIONAL_B_SPLINE_SURFACE ( (
 ( 1.000000000000000000, 0.9998600106323337600, 0.9998600106323337600, 1.000000000000000000),
 ( 0.9994334036408992800, 0.9992934935906990800, 0.9992934935906990800, 0.9994334036408992800),
 ( 0.9994334036408992800, 0.9992934935906990800, 0.9992934935906990800, 0.9994334036408992800),
 ( 1.000000000000000000, 0.9998600106323337600, 0.9998600106323337600, 1.000000000000000000) ) ) 
 REPRESENTATION_ITEM ( '' )  SURFACE ( )  );
#14 = PRODUCT_DEFINITION_FORMATION_WITH_SPECIFIED_SOURCE ( 'ANY', '', #262, .NOT_KNOWN. ) ;
#15 = FACE_OUTER_BOUND ( 'NONE', #81, .T. ) ;
#16 = CARTESIAN_POINT ( 'NONE',  ( 2.498001805406600200E-016, 1.221245327087670000E-015, 1.929375362361750000 ) ) ;
#17 = CARTESIAN_POINT ( 'NONE',  ( 4.256142348670866000, -6.426157070588651300, 1.976111673138490500 ) ) ;
#18 = EDGE_CURVE ( 'NONE', #195, #228, #246, .T. ) ;
#19 = COORDINATED_UNIVERSAL_TIME_OFFSET ( 2, 0, .AHEAD. ) ;
#20 = ORIENTED_EDGE ( 'NONE', *, *, #18, .T. ) ;
#21 = CARTESIAN_POINT ( 'NONE',  ( 2.498001805406600200E-016, 1.221245327087670000E-015, -0.1293753623617540100 ) ) ;
#22 = CARTESIAN_POINT ( 'NONE',  ( 6.382649532942499700, -6.426157070588650400, 2.063319586147166300 ) ) ;
#23 = CARTESIAN_POINT ( 'NONE',  ( 1.396869382386152900E-013, 6.426157070588373300, -0.1324985585756666100 ) ) ;
#24 = CARTESIAN_POINT ( 'NONE',  ( -1.348957907454673200E-013, -6.426157070588653000, 1.932498558575662700 ) ) ;
#25 = FACE_OUTER_BOUND ( 'NONE', #38, .T. ) ;
#26 = ORIENTED_EDGE ( 'NONE', *, *, #125, .F. ) ;
#27 = DIRECTION ( 'NONE',  ( 0.0000000000000000000, 0.0000000000000000000, 1.000000000000000000 ) ) ;
#28 = CARTESIAN_POINT ( 'NONE',  ( 2.498001805406600200E-016, 1.221245327087670000E-015, 1.929375362361750000 ) ) ;
#29 = DIRECTION ( 'NONE',  ( 0.0000000000000000000, 0.0000000000000000000, 1.000000000000000000 ) ) ;
#30 = APPROVAL_DATE_TIME ( #267, #180 ) ;
#31 = MANIFOLD_SOLID_BREP ( 'Imported1', #220 ) ;
#32 = CARTESIAN_POINT ( 'NONE',  ( -1.366158799535854600E-013, -2.143266723985286100, 1.755808775221008800 ) ) ;
#33 = DIRECTION ( 'NONE',  ( 1.000000000000000000, 0.0000000000000000000, 0.0000000000000000000 ) ) ;
#34 = DIRECTION ( 'NONE',  ( 1.000000000000000000, 0.0000000000000000000, 0.0000000000000000000 ) ) ;
#35 = CARTESIAN_POINT ( 'NONE',  ( -4.260970164887687900, -2.143266723985187900, 0.0005286391025150022600 ) ) ;
#36 = CC_DESIGN_APPROVAL ( #180, ( #14 ) ) ;
#37 = SHAPE_DEFINITION_REPRESENTATION ( #47, #169 ) ;
#38 = EDGE_LOOP ( 'NONE', ( #294, #140, #204 ) ) ;
#39 = CARTESIAN_POINT ( 'NONE',  ( -2.130708789875925800, -2.143266723985188400, 0.04419122477897528800 ) ) ;
#40 = APPROVAL_ROLE ( '' ) ;
#41 = LOCAL_TIME ( 2, 2, 26.00000000000000000, #274 ) ;
#42 = DATE_AND_TIME ( #103, #48 ) ;
#43 = VERTEX_POINT ( 'NONE', #96 ) ;
#44 = LOCAL_TIME ( 2, 2, 26.00000000000000000, #150 ) ;
#45 = CARTESIAN_POINT ( 'NONE',  ( 4.260970164887687000, 2.143266723985258100, 1.799471360897465700 ) ) ;
#46 = CARTESIAN_POINT ( 'NONE',  ( 2.130708789875925800, -2.143266723985285600, 1.755808775221006300 ) ) ;
#47 = PRODUCT_DEFINITION_SHAPE ( 'NONE', 'NONE',  #83 ) ;
#48 = LOCAL_TIME ( 2, 2, 26.00000000000000000, #57 ) ;
#49 = DIRECTION ( 'NONE',  ( 0.0000000000000000000, 0.0000000000000000000, 1.000000000000000000 ) ) ;
#50 = ORIENTED_EDGE ( 'NONE', *, *, #75, .F. ) ;
#51 = CARTESIAN_POINT ( 'NONE',  ( 4.260970164887695000, -2.143266723985191000, 0.0005286391025155712500 ) ) ;
#52 = CARTESIAN_POINT ( 'NONE',  ( -4.260970164887696800, 2.143266723985254500, 1.799471360897465100 ) ) ;
#53 = CARTESIAN_POINT ( 'NONE',  ( 6.389889483206526500, 2.143266723985177700, -0.08677819535711997500 ) ) ;
#54 = CARTESIAN_POINT ( 'NONE',  ( -2.130708789876048800, 2.143266723985255400, 1.755808775221009600 ) ) ;
#55 = CARTESIAN_POINT ( 'NONE',  ( 2.842170943040400100E-014, -2.842170943040400100E-014, -155.9000000000000100 ) ) ;
#56 = AXIS2_PLACEMENT_3D ( 'NONE', #55, #235, #164 ) ;
#57 = COORDINATED_UNIVERSAL_TIME_OFFSET ( 2, 0, .AHEAD. ) ;
#58 = CARTESIAN_POINT ( 'NONE',  ( -2.128294628299801000, -6.426157070588383000, -0.1324985585756638900 ) ) ;
#59 = CARTESIAN_POINT ( 'NONE',  ( 1.032160468206200200E-013, 6.426157070588373300, -0.1324985585756648900 ) ) ;
#60 = CARTESIAN_POINT ( 'NONE',  ( 1.014813233446432200E-013, 2.143266723985180400, 0.04419122477897563500 ) ) ;
#61 = PERSON_AND_ORGANIZATION_ROLE ( 'creator' ) ;
#62 = DATE_TIME_ROLE ( 'classification_date' ) ;
#63 = ORIENTED_EDGE ( 'NONE', *, *, #79, .F. ) ;
#64 = PERSON_AND_ORGANIZATION_ROLE ( 'design_supplier' ) ;
#65 = CC_DESIGN_DATE_AND_TIME_ASSIGNMENT ( #5, #62, ( #226 ) ) ;
#66 = VERTEX_POINT ( 'NONE', #223 ) ;
#67 = CARTESIAN_POINT ( 'NONE',  ( 6.382649532942494400, 6.426157070588625500, 2.063319586147166300 ) ) ;
#68 = CARTESIAN_POINT ( 'NONE',  ( -9.714451465470119700E-014, -6.426157070588653000, 1.932498558575660900 ) ) ;
#69 = EDGE_CURVE ( 'NONE', #210, #195, #218, .T. ) ;
#70 = APPROVAL_PERSON_ORGANIZATION ( #153, #240, #173 ) ;
#71 = DIRECTION ( 'NONE',  ( -1.000000000000000000, -3.727848106200400200E-016, 6.989240634547720400E-016 ) ) ;
#72 = AXIS2_PLACEMENT_3D ( 'NONE', #78, #251, #159 ) ;
#73 = DIRECTION ( 'NONE',  ( -0.0000000000000000000, -0.0000000000000000000, -1.000000000000000000 ) ) ;
#74 = CARTESIAN_POINT ( 'NONE',  ( -6.382649532942388700, -6.426157070588655700, 2.063319586147159200 ) ) ;
#75 = EDGE_CURVE ( 'NONE', #66, #43, #145, .T. ) ;
#76 = CIRCLE ( 'NONE', #72, 6.349999999999999600 ) ;
#77 = CARTESIAN_POINT ( 'NONE',  ( -1.396869382386153700E-013, 6.426157070588622800, 1.932498558575662700 ) ) ;
#78 = CARTESIAN_POINT ( 'NONE',  ( 2.498001805406600200E-016, 1.221245327087670000E-015, -0.1293753623617540100 ) ) ;
#79 = EDGE_CURVE ( 'NONE', #43, #241, #238, .T. ) ;
#80 = CALENDAR_DATE ( 2019, 21, 1 ) ;
#81 = EDGE_LOOP ( 'NONE', ( #106, #20, #110 ) ) ;
#82 = CARTESIAN_POINT ( 'NONE',  ( -6.349999999999999600, 1.998896044546239400E-015, -0.1293753623617540100 ) ) ;
#83 = PRODUCT_DEFINITION ( 'UNKNOWN', '', #14, #198 ) ;
#84 = CARTESIAN_POINT ( 'NONE',  ( -2.130708789875924000, 2.143266723985180800, 0.04419122477897662000 ) ) ;
#85 = CYLINDRICAL_SURFACE ( 'NONE', #171, 6.349999999999999600 ) ;
#86 = ORIENTED_EDGE ( 'NONE', *, *, #75, .T. ) ;
#87 = CARTESIAN_POINT ( 'NONE',  ( -6.349999999999999600, 1.998896044546239400E-015, -0.1293753623617540100 ) ) ;
#88 = DIRECTION ( 'NONE',  ( 1.000000000000000000, 0.0000000000000000000, 0.0000000000000000000 ) ) ;
#89 = APPROVAL_STATUS ( 'not_yet_approved' ) ;
#90 = AXIS2_PLACEMENT_3D ( 'NONE', #16, #73, #178 ) ;
#91 = CALENDAR_DATE ( 2019, 21, 1 ) ;
#92 = ORIENTED_EDGE ( 'NONE', *, *, #221, .F. ) ;
#93 = UNCERTAINTY_MEASURE_WITH_UNIT (LENGTH_MEASURE( 1.000000000000000100E-005 ), #263, 'distance_accuracy_value', 'NONE');
#94 = VECTOR ( 'NONE', #168, 1000.000000000000000 ) ;
#95 = APPROVAL ( #89, 'UNSPECIFIED' ) ;
#96 = CARTESIAN_POINT ( 'NONE',  ( 1.396607309164675900E-013, 6.350000000000478400, -0.1293753623617603100 ) ) ;
#97 = DIRECTION ( 'NONE',  ( 1.000000000000000000, 0.0000000000000000000, 0.0000000000000000000 ) ) ;
#98 = FACE_OUTER_BOUND ( 'NONE', #224, .T. ) ;
#99 = CARTESIAN_POINT ( 'NONE',  ( 2.130708789876047500, -2.143266723985190600, 0.04419122477897113200 ) ) ;
#100 = PERSON_AND_ORGANIZATION ( #283, #219 ) ;
#101 = CARTESIAN_POINT ( 'NONE',  ( 2.128294628299919100, -6.426157070588384800, -0.1324985585756680900 ) ) ;
#102 = DIRECTION ( 'NONE',  ( 0.0000000000000000000, 0.0000000000000000000, 1.000000000000000000 ) ) ;
#103 = CALENDAR_DATE ( 2019, 21, 1 ) ;
#104 = CARTESIAN_POINT ( 'NONE',  ( -6.389889483206630400, 2.143266723985182600, -0.08677819535712746900 ) ) ;
#105 = PERSON_AND_ORGANIZATION ( #283, #219 ) ;
#106 = ORIENTED_EDGE ( 'NONE', *, *, #175, .F. ) ;
#107 = APPLICATION_PROTOCOL_DEFINITION ( 'international standard', 'config_control_design', 1994, #191 ) ;
#108 = CYLINDRICAL_SURFACE ( 'NONE', #248, 6.349999999999999600 ) ;
#109 = CIRCLE ( 'NONE', #56, 155.9000000000000100 ) ;
#110 = ORIENTED_EDGE ( 'NONE', *, *, #123, .F. ) ;
#111 = CARTESIAN_POINT ( 'NONE',  ( 2.498001805406600200E-016, 1.221245327087670000E-015, -0.1293753623617540100 ) ) ;
#112 =( BOUNDED_SURFACE ( )  B_SPLINE_SURFACE ( 3, 3, ( 
 ( #67, #154, #289, #242 ),
 ( #133, #45, #131, #287 ),
 ( #176, #155, #46, #114 ),
 ( #22, #17, #269, #68 ) ),
 .UNSPECIFIED., .F., .F., .F. ) 
 B_SPLINE_SURFACE_WITH_KNOTS ( ( 4, 4 ),
 ( 4, 4 ),
 ( 0.0000000000000000000, 1.000000000000000000 ),
 ( 0.0000000000000000000, 1.000000000000000000 ),
 .UNSPECIFIED. ) 
 GEOMETRIC_REPRESENTATION_ITEM ( )  RATIONAL_B_SPLINE_SURFACE ( (
 ( 1.000000000000000000, 0.9998600106323337600, 0.9998600106323337600, 1.000000000000000000),
 ( 0.9994334036408992800, 0.9992934935906990800, 0.9992934935906990800, 0.9994334036408992800),
 ( 0.9994334036408992800, 0.9992934935906990800, 0.9992934935906990800, 0.9994334036408992800),
 ( 1.000000000000000000, 0.9998600106323337600, 0.9998600106323337600, 1.000000000000000000) ) ) 
 REPRESENTATION_ITEM ( '' )  SURFACE ( )  );
#113 = EDGE_CURVE ( 'NONE', #228, #210, #132, .T. ) ;
#114 = CARTESIAN_POINT ( 'NONE',  ( -9.887923813067799200E-014, -2.143266723985286100, 1.755808775221007000 ) ) ;
#115 = VECTOR ( 'NONE', #234, 1000.000000000000000 ) ;
#116 = CC_DESIGN_APPROVAL ( #240, ( #226 ) ) ;
#117 = CARTESIAN_POINT ( 'NONE',  ( 6.382649532942389600, -6.426157070588385700, -0.2633195861471629400 ) ) ;
#118 = EDGE_CURVE ( 'NONE', #241, #259, #76, .T. ) ;
#119 = CARTESIAN_POINT ( 'NONE',  ( 6.389889483206524700, -2.143266723985192400, -0.08677819535712125200 ) ) ;
#120 = CARTESIAN_POINT ( 'NONE',  ( 2.130708789876049300, 2.143266723985178600, 0.04419122477897240900 ) ) ;
#121 = ADVANCED_FACE ( 'NONE', ( #157 ), #227, .F. ) ;
#122 = ORIENTED_EDGE ( 'NONE', *, *, #123, .T. ) ;
#123 = EDGE_CURVE ( 'NONE', #265, #228, #11, .T. ) ;
#124 = CARTESIAN_POINT ( 'NONE',  ( 6.349999999999999600, 1.221245327087670000E-015, 1.929375362361750000 ) ) ;
#125 = EDGE_CURVE ( 'NONE', #259, #66, #185, .T. ) ;
#126 = PERSON_AND_ORGANIZATION_ROLE ( 'creator' ) ;
#127 = DATE_AND_TIME ( #288, #215 ) ;
#128 = APPROVAL_STATUS ( 'not_yet_approved' ) ;
#129 = ORIENTED_EDGE ( 'NONE', *, *, #239, .T. ) ;
#130 = APPROVAL_DATE_TIME ( #208, #240 ) ;
#131 = CARTESIAN_POINT ( 'NONE',  ( 2.130708789875924000, 2.143266723985257200, 1.755808775221005400 ) ) ;
#132 = CIRCLE ( 'NONE', #148, 6.349999999999999600 ) ;
#133 = CARTESIAN_POINT ( 'NONE',  ( 6.389889483206628600, 2.143266723985258500, 1.886778195357109200 ) ) ;
#134 = ORIENTED_EDGE ( 'NONE', *, *, #125, .T. ) ;
#135 = DIRECTION ( 'NONE',  ( 1.000000000000000000, 8.881784197001252300E-016, 0.0000000000000000000 ) ) ;
#136 = EDGE_LOOP ( 'NONE', ( #162, #50, #26 ) ) ;
#137 = CARTESIAN_POINT ( 'NONE',  ( 4.260970164887696800, 2.143266723985178100, 0.0005286391025168451800 ) ) ;
#138 = DIRECTION ( 'NONE',  ( 1.000000000000000000, 0.0000000000000000000, 0.0000000000000000000 ) ) ;
#139 = DIRECTION ( 'NONE',  ( 1.000000000000000000, 0.0000000000000000000, 0.0000000000000000000 ) ) ;
#140 = ORIENTED_EDGE ( 'NONE', *, *, #69, .F. ) ;
#141 = CARTESIAN_POINT ( 'NONE',  ( 6.349999999999999600, 1.221245327087670000E-015, -0.1293753623617540100 ) ) ;
#142 = AXIS2_PLACEMENT_3D ( 'NONE', #196, #71, #286 ) ;
#143 = CARTESIAN_POINT ( 'NONE',  ( -1.396607309164676900E-013, 6.350000000000751000, 1.929375362361756400 ) ) ;
#144 = AXIS2_PLACEMENT_3D ( 'NONE', #209, #102, #88 ) ;
#145 = CIRCLE ( 'NONE', #291, 6.349999999999999600 ) ;
#146 = ORIENTED_EDGE ( 'NONE', *, *, #221, .T. ) ;
#147 = PERSON_AND_ORGANIZATION_ROLE ( 'design_owner' ) ;
#148 = AXIS2_PLACEMENT_3D ( 'NONE', #205, #271, #135 ) ;
#149 = MECHANICAL_CONTEXT ( 'NONE', #191, 'mechanical' ) ;
#150 = COORDINATED_UNIVERSAL_TIME_OFFSET ( 2, 0, .AHEAD. ) ;
#151 = PERSON_AND_ORGANIZATION_ROLE ( 'classification_officer' ) ;
#152 = PERSON_AND_ORGANIZATION ( #283, #219 ) ;
#153 = PERSON_AND_ORGANIZATION ( #283, #219 ) ;
#154 = CARTESIAN_POINT ( 'NONE',  ( 4.256142348670860700, 6.426157070588624600, 1.976111673138490500 ) ) ;
#155 = CARTESIAN_POINT ( 'NONE',  ( 4.260970164887688800, -2.143266723985284700, 1.799471360897466600 ) ) ;
#156 = CC_DESIGN_PERSON_AND_ORGANIZATION_ASSIGNMENT ( #177, #147, ( #262 ) ) ;
#157 = FACE_OUTER_BOUND ( 'NONE', #136, .T. ) ;
#158 = CARTESIAN_POINT ( 'NONE',  ( 1.382138345132036300E-013, 2.143266723985179900, 0.04419122477897390000 ) ) ;
#159 = DIRECTION ( 'NONE',  ( 1.000000000000000000, 0.0000000000000000000, 0.0000000000000000000 ) ) ;
#160 = CALENDAR_DATE ( 2019, 21, 1 ) ;
#161 = CARTESIAN_POINT ( 'NONE',  ( 2.498001805406600200E-016, 1.221245327087670000E-015, -0.1293753623617540100 ) ) ;
#162 = ORIENTED_EDGE ( 'NONE', *, *, #239, .F. ) ;
#163 = CARTESIAN_POINT ( 'NONE',  ( 6.382649532942394000, 6.426157070588370600, -0.2633195861471629400 ) ) ;
#164 = DIRECTION ( 'NONE',  ( 3.727848106200391900E-016, 1.000000000000000000, 3.560689623557269300E-016 ) ) ;
#165 = CIRCLE ( 'NONE', #206, 6.349999999999999600 ) ;
#166 = ORIENTED_EDGE ( 'NONE', *, *, #69, .T. ) ;
#167 = CARTESIAN_POINT ( 'NONE',  ( -1.349263638215925900E-013, -6.350000000000779500, 1.929375362361756400 ) ) ;
#168 = DIRECTION ( 'NONE',  ( 0.0000000000000000000, 0.0000000000000000000, 1.000000000000000000 ) ) ;
#169 = ADVANCED_BREP_SHAPE_REPRESENTATION ( '114-0124E BK7 bi-cv 12.7 F-150', ( #31, #144 ), #266 ) ;
#170 = CC_DESIGN_APPROVAL ( #95, ( #83 ) ) ;
#171 = AXIS2_PLACEMENT_3D ( 'NONE', #21, #225, #222 ) ;
#172 = PERSON_AND_ORGANIZATION ( #283, #219 ) ;
#173 = APPROVAL_ROLE ( '' ) ;
#174 = ADVANCED_FACE ( 'NONE', ( #25 ), #13, .F. ) ;
#175 = EDGE_CURVE ( 'NONE', #195, #265, #165, .T. ) ;
#176 = CARTESIAN_POINT ( 'NONE',  ( 6.389889483206630400, -2.143266723985283400, 1.886778195357109900 ) ) ;
#177 = PERSON_AND_ORGANIZATION ( #283, #219 ) ;
#178 = DIRECTION ( 'NONE',  ( 1.000000000000000000, 0.0000000000000000000, 0.0000000000000000000 ) ) ;
#179 = CARTESIAN_POINT ( 'NONE',  ( -2.128294628299918700, -6.426157070588653900, 1.932498558575664200 ) ) ;
#180 = APPROVAL ( #214, 'UNSPECIFIED' ) ;
#181 = ORIENTED_EDGE ( 'NONE', *, *, #175, .T. ) ;
#182 = CARTESIAN_POINT ( 'NONE',  ( -6.382649532942394000, 6.426157070588620200, 2.063319586147159200 ) ) ;
#183 = CARTESIAN_POINT ( 'NONE',  ( -2.130708789876047100, -2.143266723985287400, 1.755808775221010300 ) ) ;
#184 = APPROVAL_PERSON_ORGANIZATION ( #172, #180, #192 ) ;
#185 = CIRCLE ( 'NONE', #284, 6.349999999999999600 ) ;
#186 = CARTESIAN_POINT ( 'NONE',  ( 9.801187639268960100E-014, -6.426157070588383000, -0.1324985585756648900 ) ) ;
#187 = AXIS2_PLACEMENT_3D ( 'NONE', #28, #273, #138 ) ;
#188 = CARTESIAN_POINT ( 'NONE',  ( -4.256142348670866000, -6.426157070588382100, -0.1761116731384951600 ) ) ;
#189 = CARTESIAN_POINT ( 'NONE',  ( -2.128294628299795700, 6.426157070588374200, -0.1324985585756638900 ) ) ;
#190 = CARTESIAN_POINT ( 'NONE',  ( 1.349263638215927400E-013, -6.350000000000505900, -0.1293753623617603100 ) ) ;
#191 = APPLICATION_CONTEXT ( 'configuration controlled 3d designs of mechanical parts and assemblies' ) ;
#192 = APPROVAL_ROLE ( '' ) ;
#193 = LOCAL_TIME ( 2, 2, 26.00000000000000000, #250 ) ;
#194 = ADVANCED_FACE ( 'NONE', ( #236 ), #108, .T. ) ;
#195 = VERTEX_POINT ( 'NONE', #143 ) ;
#196 = CARTESIAN_POINT ( 'NONE',  ( -2.842170943040400100E-014, -2.842170943040400100E-014, 157.6999999999999900 ) ) ;
#197 = PERSON_AND_ORGANIZATION ( #283, #219 ) ;
#198 = DESIGN_CONTEXT ( 'detailed design', #260, 'design' ) ;
#199 = DIRECTION ( 'NONE',  ( 0.0000000000000000000, 0.0000000000000000000, 1.000000000000000000 ) ) ;
#200 = CC_DESIGN_PERSON_AND_ORGANIZATION_ASSIGNMENT ( #152, #126, ( #83 ) ) ;
#201 = DIRECTION ( 'NONE',  ( 1.000000000000000000, 0.0000000000000000000, 0.0000000000000000000 ) ) ;
#202 = ORIENTED_EDGE ( 'NONE', *, *, #118, .F. ) ;
#203 = CARTESIAN_POINT ( 'NONE',  ( -4.256142348670869600, -6.426157070588654800, 1.976111673138490000 ) ) ;
#204 = ORIENTED_EDGE ( 'NONE', *, *, #113, .F. ) ;
#205 = CARTESIAN_POINT ( 'NONE',  ( 2.498001805406600200E-016, 1.221245327087670000E-015, 1.929375362361750000 ) ) ;
#206 = AXIS2_PLACEMENT_3D ( 'NONE', #277, #276, #34 ) ;
#207 = CARTESIAN_POINT ( 'NONE',  ( -6.389889483206523800, 2.143266723985253200, 1.886778195357101700 ) ) ;
#208 = DATE_AND_TIME ( #80, #44 ) ;
#209 = CARTESIAN_POINT ( 'NONE',  ( 0.0000000000000000000, 0.0000000000000000000, 0.0000000000000000000 ) ) ;
#210 = VERTEX_POINT ( 'NONE', #233 ) ;
#211 = EDGE_LOOP ( 'NONE', ( #86, #278, #252, #166, #181, #92 ) ) ;
#212 = CARTESIAN_POINT ( 'NONE',  ( -4.260970164887686100, 2.143266723985181300, 0.0005286391025162759800 ) ) ;
#213 = CC_DESIGN_PERSON_AND_ORGANIZATION_ASSIGNMENT ( #105, #61, ( #14 ) ) ;
#214 = APPROVAL_STATUS ( 'not_yet_approved' ) ;
#215 = LOCAL_TIME ( 2, 2, 26.00000000000000000, #19 ) ;
#216 = ORIENTED_EDGE ( 'NONE', *, *, #118, .T. ) ;
#217 = AXIS2_PLACEMENT_3D ( 'NONE', #290, #49, #201 ) ;
#218 = CIRCLE ( 'NONE', #90, 6.349999999999999600 ) ;
#219 = ORGANIZATION ( 'UNSPECIFIED', 'UNSPECIFIED', '' ) ;
#220 = CLOSED_SHELL ( 'NONE', ( #231, #10, #194, #121, #4, #174 ) ) ;
#221 = EDGE_CURVE ( 'NONE', #66, #265, #281, .T. ) ;
#222 = DIRECTION ( 'NONE',  ( 1.000000000000000000, 0.0000000000000000000, 0.0000000000000000000 ) ) ;
#223 = CARTESIAN_POINT ( 'NONE',  ( 6.349999999999999600, 1.221245327087670000E-015, -0.1293753623617540100 ) ) ;
#224 = EDGE_LOOP ( 'NONE', ( #63, #129, #202 ) ) ;
#225 = DIRECTION ( 'NONE',  ( 0.0000000000000000000, 0.0000000000000000000, 1.000000000000000000 ) ) ;
#226 = SECURITY_CLASSIFICATION ( '', '', #12 ) ;
#227 =( BOUNDED_SURFACE ( )  B_SPLINE_SURFACE ( 3, 3, ( 
 ( #23, #229, #247, #163 ),
 ( #158, #120, #137, #53 ),
 ( #295, #99, #51, #119 ),
 ( #249, #101, #275, #117 ) ),
 .UNSPECIFIED., .F., .F., .T. ) 
 B_SPLINE_SURFACE_WITH_KNOTS ( ( 4, 4 ),
 ( 4, 4 ),
 ( 0.0000000000000000000, 1.000000000000000000 ),
 ( 0.0000000000000000000, 1.000000000000000000 ),
 .UNSPECIFIED. ) 
 GEOMETRIC_REPRESENTATION_ITEM ( )  RATIONAL_B_SPLINE_SURFACE ( (
 ( 1.000000000000000000, 0.9998600106323337600, 0.9998600106323337600, 1.000000000000000000),
 ( 0.9994334036408993900, 0.9992934935906991900, 0.9992934935906991900, 0.9994334036408993900),
 ( 0.9994334036408993900, 0.9992934935906991900, 0.9992934935906991900, 0.9994334036408993900),
 ( 1.000000000000000000, 0.9998600106323337600, 0.9998600106323337600, 1.000000000000000000) ) ) 
 REPRESENTATION_ITEM ( '' )  SURFACE ( )  );
#228 = VERTEX_POINT ( 'NONE', #167 ) ;
#229 = CARTESIAN_POINT ( 'NONE',  ( 2.128294628299924000, 6.426157070588372400, -0.1324985585756680900 ) ) ;
#230 = CARTESIAN_POINT ( 'NONE',  ( -4.260970164887695000, -2.143266723985288300, 1.799471360897466000 ) ) ;
#231 = ADVANCED_FACE ( 'NONE', ( #98 ), #253, .F. ) ;
#232 = PERSON_AND_ORGANIZATION ( #283, #219 ) ;
#233 = CARTESIAN_POINT ( 'NONE',  ( -6.349999999999999600, 1.998896044546239400E-015, 1.929375362361750000 ) ) ;
#234 = DIRECTION ( 'NONE',  ( 0.0000000000000000000, 0.0000000000000000000, 1.000000000000000000 ) ) ;
#235 = DIRECTION ( 'NONE',  ( 1.000000000000000000, -3.727848106200389900E-016, -6.989240634547720400E-016 ) ) ;
#236 = FACE_OUTER_BOUND ( 'NONE', #211, .T. ) ;
#237 =( NAMED_UNIT ( * ) SI_UNIT ( $, .STERADIAN. ) SOLID_ANGLE_UNIT ( ) );
#238 = CIRCLE ( 'NONE', #217, 6.349999999999999600 ) ;
#239 = EDGE_CURVE ( 'NONE', #43, #259, #109, .T. ) ;
#240 = APPROVAL ( #128, 'UNSPECIFIED' ) ;
#241 = VERTEX_POINT ( 'NONE', #87 ) ;
#242 = CARTESIAN_POINT ( 'NONE',  ( -1.023486850826316200E-013, 6.426157070588622800, 1.932498558575660900 ) ) ;
#243 = LINE ( 'NONE', #82, #115 ) ;
#244 = CC_DESIGN_DATE_AND_TIME_ASSIGNMENT ( #127, #9, ( #83 ) ) ;
#245 = CARTESIAN_POINT ( 'NONE',  ( -2.128294628299923600, 6.426157070588622000, 1.932498558575664200 ) ) ;
#246 = CIRCLE ( 'NONE', #142, 155.9000000000000100 ) ;
#247 = CARTESIAN_POINT ( 'NONE',  ( 4.256142348670874000, 6.426157070588371500, -0.1761116731384946000 ) ) ;
#248 = AXIS2_PLACEMENT_3D ( 'NONE', #293, #27, #33 ) ;
#249 = CARTESIAN_POINT ( 'NONE',  ( 1.348957907454674500E-013, -6.426157070588383000, -0.1324985585756666100 ) ) ;
#250 = COORDINATED_UNIVERSAL_TIME_OFFSET ( 2, 0, .AHEAD. ) ;
#251 = DIRECTION ( 'NONE',  ( 0.0000000000000000000, 0.0000000000000000000, 1.000000000000000000 ) ) ;
#252 = ORIENTED_EDGE ( 'NONE', *, *, #261, .T. ) ;
#253 =( BOUNDED_SURFACE ( )  B_SPLINE_SURFACE ( 3, 3, ( 
 ( #7, #6, #189, #59 ),
 ( #104, #212, #84, #60 ),
 ( #255, #35, #39, #279 ),
 ( #257, #188, #58, #186 ) ),
 .UNSPECIFIED., .F., .F., .F. ) 
 B_SPLINE_SURFACE_WITH_KNOTS ( ( 4, 4 ),
 ( 4, 4 ),
 ( 0.0000000000000000000, 1.000000000000000000 ),
 ( 0.0000000000000000000, 1.000000000000000000 ),
 .UNSPECIFIED. ) 
 GEOMETRIC_REPRESENTATION_ITEM ( )  RATIONAL_B_SPLINE_SURFACE ( (
 ( 1.000000000000000000, 0.9998600106323337600, 0.9998600106323337600, 1.000000000000000000),
 ( 0.9994334036408993900, 0.9992934935906991900, 0.9992934935906991900, 0.9994334036408993900),
 ( 0.9994334036408993900, 0.9992934935906991900, 0.9992934935906991900, 0.9994334036408993900),
 ( 1.000000000000000000, 0.9998600106323337600, 0.9998600106323337600, 1.000000000000000000) ) ) 
 REPRESENTATION_ITEM ( '' )  SURFACE ( )  );
#254 = APPROVAL_PERSON_ORGANIZATION ( #232, #95, #40 ) ;
#255 = CARTESIAN_POINT ( 'NONE',  ( -6.389889483206632200, -2.143266723985187500, -0.08677819535712871800 ) ) ;
#256 = CC_DESIGN_SECURITY_CLASSIFICATION ( #226, ( #14 ) ) ;
#257 = CARTESIAN_POINT ( 'NONE',  ( -6.382649532942500600, -6.426157070588380400, -0.2633195861471704400 ) ) ;
#258 = APPLICATION_PROTOCOL_DEFINITION ( 'international standard', 'config_control_design', 1994, #260 ) ;
#259 = VERTEX_POINT ( 'NONE', #190 ) ;
#260 = APPLICATION_CONTEXT ( 'configuration controlled 3d designs of mechanical parts and assemblies' ) ;
#261 = EDGE_CURVE ( 'NONE', #241, #210, #243, .T. ) ;
#262 = PRODUCT ( '114-0124E BK7 bi-cv 12.7 F-150', '114-0124E BK7 bi-cv 12.7 F-150', '', ( #149 ) ) ;
#263 =( LENGTH_UNIT ( ) NAMED_UNIT ( * ) SI_UNIT ( .MILLI., .METRE. ) );
#264 = FACE_OUTER_BOUND ( 'NONE', #270, .T. ) ;
#265 = VERTEX_POINT ( 'NONE', #124 ) ;
#266 =( GEOMETRIC_REPRESENTATION_CONTEXT ( 3 ) GLOBAL_UNCERTAINTY_ASSIGNED_CONTEXT ( ( #93 ) ) GLOBAL_UNIT_ASSIGNED_CONTEXT ( ( #263, #280, #237 ) ) REPRESENTATION_CONTEXT ( 'NONE', 'WORKASPACE' ) );
#267 = DATE_AND_TIME ( #160, #193 ) ;
#268 = APPROVAL_DATE_TIME ( #42, #95 ) ;
#269 = CARTESIAN_POINT ( 'NONE',  ( 2.128294628299801400, -6.426157070588652200, 1.932498558575660000 ) ) ;
#270 = EDGE_LOOP ( 'NONE', ( #8, #216, #134, #146, #122, #285 ) ) ;
#271 = DIRECTION ( 'NONE',  ( -0.0000000000000000000, -0.0000000000000000000, -1.000000000000000000 ) ) ;
#272 = PRODUCT_RELATED_PRODUCT_CATEGORY ( 'detail', '', ( #262 ) ) ;
#273 = DIRECTION ( 'NONE',  ( -0.0000000000000000000, -0.0000000000000000000, -1.000000000000000000 ) ) ;
#274 = COORDINATED_UNIVERSAL_TIME_OFFSET ( 2, 0, .AHEAD. ) ;
#275 = CARTESIAN_POINT ( 'NONE',  ( 4.256142348670869600, -6.426157070588385700, -0.1761116731384945700 ) ) ;
#276 = DIRECTION ( 'NONE',  ( -0.0000000000000000000, -0.0000000000000000000, -1.000000000000000000 ) ) ;
#277 = CARTESIAN_POINT ( 'NONE',  ( 2.498001805406600200E-016, 1.221245327087670000E-015, 1.929375362361750000 ) ) ;
#278 = ORIENTED_EDGE ( 'NONE', *, *, #79, .T. ) ;
#279 = CARTESIAN_POINT ( 'NONE',  ( 9.974659986866639500E-014, -2.143266723985189700, 0.04419122477897431000 ) ) ;
#280 =( NAMED_UNIT ( * ) PLANE_ANGLE_UNIT ( ) SI_UNIT ( $, .RADIAN. ) );
#281 = LINE ( 'NONE', #141, #94 ) ;
#282 = CC_DESIGN_PERSON_AND_ORGANIZATION_ASSIGNMENT ( #197, #151, ( #226 ) ) ;
#283 = PERSON ( 'UNSPECIFIED', 'UNSPECIFIED', 'UNSPECIFIED', ('UNSPECIFIED'), ('UNSPECIFIED'), ('UNSPECIFIED') ) ;
#284 = AXIS2_PLACEMENT_3D ( 'NONE', #161, #29, #139 ) ;
#285 = ORIENTED_EDGE ( 'NONE', *, *, #113, .T. ) ;
#286 = DIRECTION ( 'NONE',  ( -3.727848106200396800E-016, 1.000000000000000000, 3.560689623557269300E-016 ) ) ;
#287 = CARTESIAN_POINT ( 'NONE',  ( -1.006139616066548100E-013, 2.143266723985255900, 1.755808775221006100 ) ) ;
#288 = CALENDAR_DATE ( 2019, 21, 1 ) ;
#289 = CARTESIAN_POINT ( 'NONE',  ( 2.128294628299796100, 6.426157070588623700, 1.932498558575659800 ) ) ;
#290 = CARTESIAN_POINT ( 'NONE',  ( 2.498001805406600200E-016, 1.221245327087670000E-015, -0.1293753623617540100 ) ) ;
#291 = AXIS2_PLACEMENT_3D ( 'NONE', #111, #199, #97 ) ;
#292 = CARTESIAN_POINT ( 'NONE',  ( -6.389889483206522100, -2.143266723985288700, 1.886778195357102600 ) ) ;
#293 = CARTESIAN_POINT ( 'NONE',  ( 2.498001805406600200E-016, 1.221245327087670000E-015, -0.1293753623617540100 ) ) ;
#294 = ORIENTED_EDGE ( 'NONE', *, *, #18, .F. ) ;
#295 = CARTESIAN_POINT ( 'NONE',  ( 1.366158799535854800E-013, -2.143266723985190100, 0.04419122477897263100 ) ) ;
ENDSEC;
END-ISO-10303-21;
