ISO-10303-21;
HEADER;
FILE_DESCRIPTION (( 'STEP AP203' ),
    '1' );
FILE_NAME ('114-0114E BK7 bi-cv 12.7 F-75.STEP',
    '2019-01-20T23:19:17',
    ( '' ),
    ( '' ),
    'SwSTEP 2.0',
    'SolidWorks 2017',
    '' );
FILE_SCHEMA (( 'CONFIG_CONTROL_DESIGN' ));
ENDSEC;

DATA;
#1 = APPROVAL ( #226, 'UNSPECIFIED' ) ;
#2 = APPROVAL_PERSON_ORGANIZATION ( #15, #183, #92 ) ;
#3 = DIRECTION ( 'NONE',  ( -0.0000000000000000000, -0.0000000000000000000, -1.000000000000000000 ) ) ;
#4 = CARTESIAN_POINT ( 'NONE',  ( -6.366466304591690500, -6.426029478944221800, -0.5242695185172924200 ) ) ;
#5 = DIRECTION ( 'NONE',  ( -0.0000000000000000000, -0.0000000000000000000, -1.000000000000000000 ) ) ;
#6 = ORIENTED_EDGE ( 'NONE', *, *, #41, .F. ) ;
#7 = PERSON_AND_ORGANIZATION ( #193, #106 ) ;
#8 = DIRECTION ( 'NONE',  ( 1.000000000000000000, 0.0000000000000000000, 0.0000000000000000000 ) ) ;
#9 = ADVANCED_FACE ( 'NONE', ( #59 ), #188, .F. ) ;
#10 = FACE_OUTER_BOUND ( 'NONE', #290, .T. ) ;
#11 = CARTESIAN_POINT ( 'NONE',  ( 3.451805512947803500E-014, 6.426029478944125900, 2.964135520033245500 ) ) ;
#12 = DIRECTION ( 'NONE',  ( -0.0000000000000000000, -0.0000000000000000000, -1.000000000000000000 ) ) ;
#13 = CARTESIAN_POINT ( 'NONE',  ( 3.449183520609471800E-014, 6.349999999999863800, 2.957911996154285900 ) ) ;
#14 = DIRECTION ( 'NONE',  ( 1.000000000000000000, 0.0000000000000000000, 0.0000000000000000000 ) ) ;
#15 = PERSON_AND_ORGANIZATION ( #193, #106 ) ;
#16 = EDGE_CURVE ( 'NONE', #225, #229, #249, .T. ) ;
#17 = APPROVAL_STATUS ( 'not_yet_approved' ) ;
#18 = CC_DESIGN_APPROVAL ( #1, ( #246 ) ) ;
#19 = CIRCLE ( 'NONE', #196, 6.349999999999999600 ) ;
#20 = DATE_AND_TIME ( #156, #244 ) ;
#21 = EDGE_CURVE ( 'NONE', #170, #26, #135, .T. ) ;
#22 = ORIENTED_EDGE ( 'NONE', *, *, #179, .T. ) ;
#23 = CIRCLE ( 'NONE', #243, 6.349999999999999600 ) ;
#24 = CARTESIAN_POINT ( 'NONE',  ( 4.267627297153851800, -2.146837890534759400, 2.698907701150461900 ) ) ;
#25 = AXIS2_PLACEMENT_3D ( 'NONE', #112, #175, #96 ) ;
#26 = VERTEX_POINT ( 'NONE', #164 ) ;
#27 = CARTESIAN_POINT ( 'NONE',  ( 2.125107383054474700, -6.426029478944143700, 2.964135520033228200 ) ) ;
#28 = AXIS2_PLACEMENT_3D ( 'NONE', #220, #241, #124 ) ;
#29 = CARTESIAN_POINT ( 'NONE',  ( -5.204170427930422500E-014, 2.146837890534757600, 0.08824362609935676400 ) ) ;
#30 = CLOSED_SHELL ( 'NONE', ( #97, #9, #185, #192, #100, #127 ) ) ;
#31 = LOCAL_TIME ( 1, 19, 17.00000000000000000, #184 ) ;
#32 = CARTESIAN_POINT ( 'NONE',  ( -4.248443006328864500, -6.426029478944220900, -0.3508950753940501300 ) ) ;
#33 = CARTESIAN_POINT ( 'NONE',  ( -4.267627297153808300, 2.146837890534742900, 2.698907701150480100 ) ) ;
#34 = CARTESIAN_POINT ( 'NONE',  ( 2.498001805406600200E-016, 1.221245327087670000E-015, -0.2579119961542800700 ) ) ;
#35 = ORIENTED_EDGE ( 'NONE', *, *, #21, .T. ) ;
#36 = CALENDAR_DATE ( 2019, 21, 1 ) ;
#37 = CARTESIAN_POINT ( 'NONE',  ( 2.125107383054416900, -6.426029478944218300, -0.2641355200332366500 ) ) ;
#38 = DIRECTION ( 'NONE',  ( 1.000000000000000000, 0.0000000000000000000, 0.0000000000000000000 ) ) ;
#39 = DIRECTION ( 'NONE',  ( 0.0000000000000000000, 0.0000000000000000000, 1.000000000000000000 ) ) ;
#40 = ORIENTED_EDGE ( 'NONE', *, *, #202, .T. ) ;
#41 = EDGE_CURVE ( 'NONE', #26, #234, #189, .T. ) ;
#42 = APPLICATION_CONTEXT ( 'configuration controlled 3d designs of mechanical parts and assemblies' ) ;
#43 =( NAMED_UNIT ( * ) PLANE_ANGLE_UNIT ( ) SI_UNIT ( $, .RADIAN. ) );
#44 = PERSON_AND_ORGANIZATION_ROLE ( 'creator' ) ;
#45 = ORIENTED_EDGE ( 'NONE', *, *, #90, .T. ) ;
#46 = APPROVAL_DATE_TIME ( #20, #183 ) ;
#47 = DIRECTION ( 'NONE',  ( -1.000000000000000000, 3.711184672775490000E-016, -3.207218850942059900E-016 ) ) ;
#48 = AXIS2_PLACEMENT_3D ( 'NONE', #253, #151, #14 ) ;
#49 = CC_DESIGN_DATE_AND_TIME_ASSIGNMENT ( #136, #255, ( #212 ) ) ;
#50 = EDGE_LOOP ( 'NONE', ( #89, #74, #101 ) ) ;
#51 = CARTESIAN_POINT ( 'NONE',  ( 6.395214752183632000, 2.146837890534738900, 2.873065034789955300 ) ) ;
#52 = CARTESIAN_POINT ( 'NONE',  ( 4.770489558936219500E-014, -2.146837890534758000, 2.611756373900647100 ) ) ;
#53 = COORDINATED_UNIVERSAL_TIME_OFFSET ( 2, 0, .AHEAD. ) ;
#54 = CARTESIAN_POINT ( 'NONE',  ( 2.498001805406600200E-016, 1.221245327087670000E-015, 2.957911996154280100 ) ) ;
#55 = ORIENTED_EDGE ( 'NONE', *, *, #202, .F. ) ;
#56 = CARTESIAN_POINT ( 'NONE',  ( -4.248443006328869800, 6.426029478944187200, -0.3508950753940501300 ) ) ;
#57 = CARTESIAN_POINT ( 'NONE',  ( -4.857225732735059900E-014, -6.426029478944219200, -0.2641355200332323200 ) ) ;
#58 = PRODUCT_DEFINITION_SHAPE ( 'NONE', 'NONE',  #76 ) ;
#59 = FACE_OUTER_BOUND ( 'NONE', #50, .T. ) ;
#60 = CC_DESIGN_DATE_AND_TIME_ASSIGNMENT ( #288, #117, ( #76 ) ) ;
#61 = LOCAL_TIME ( 1, 19, 17.00000000000000000, #274 ) ;
#62 = CARTESIAN_POINT ( 'NONE',  ( -3.144952143515884200E-014, -2.146837890534788200, 0.08824362609935031100 ) ) ;
#63 = DIRECTION ( 'NONE',  ( 1.000000000000000000, 0.0000000000000000000, 0.0000000000000000000 ) ) ;
#64 = CARTESIAN_POINT ( 'NONE',  ( -6.395214752183604500, -2.146837890534755400, 2.873065034789979300 ) ) ;
#65 =( GEOMETRIC_REPRESENTATION_CONTEXT ( 3 ) GLOBAL_UNCERTAINTY_ASSIGNED_CONTEXT ( ( #203 ) ) GLOBAL_UNIT_ASSIGNED_CONTEXT ( ( #276, #43, #173 ) ) REPRESENTATION_CONTEXT ( 'NONE', 'WORKASPACE' ) );
#66 = PERSON_AND_ORGANIZATION ( #193, #106 ) ;
#67 = CARTESIAN_POINT ( 'NONE',  ( -3.451805512947806000E-014, 6.426029478944189000, -0.2641355200332373700 ) ) ;
#68 = DIRECTION ( 'NONE',  ( 3.711184672775492000E-016, 1.000000000000000000, -3.544773386414932500E-016 ) ) ;
#69 = PERSON_AND_ORGANIZATION_ROLE ( 'design_owner' ) ;
#70 = APPLICATION_PROTOCOL_DEFINITION ( 'international standard', 'config_control_design', 1994, #208 ) ;
#71 = PERSON_AND_ORGANIZATION ( #193, #106 ) ;
#72 = DIRECTION ( 'NONE',  ( 0.0000000000000000000, 0.0000000000000000000, 1.000000000000000000 ) ) ;
#73 = LINE ( 'NONE', #270, #216 ) ;
#74 = ORIENTED_EDGE ( 'NONE', *, *, #186, .T. ) ;
#75 = CALENDAR_DATE ( 2019, 21, 1 ) ;
#76 = PRODUCT_DEFINITION ( 'UNKNOWN', '', #246, #150 ) ;
#77 = CARTESIAN_POINT ( 'NONE',  ( 2.134703528750705500, 2.146837890534740300, 2.611756373900645300 ) ) ;
#78 = FACE_OUTER_BOUND ( 'NONE', #242, .T. ) ;
#79 = APPROVAL_DATE_TIME ( #201, #214 ) ;
#80 = CARTESIAN_POINT ( 'NONE',  ( -6.395214752183630200, -2.146837890534790900, -0.1730650347899556600 ) ) ;
#81 = DIRECTION ( 'NONE',  ( 1.000000000000000000, 0.0000000000000000000, 0.0000000000000000000 ) ) ;
#82 = CARTESIAN_POINT ( 'NONE',  ( 4.248443006328824500, -6.426029478944217400, -0.3508950753940565100 ) ) ;
#83 = CARTESIAN_POINT ( 'NONE',  ( 2.498001805406600200E-016, 1.221245327087670000E-015, -0.2579119961542800700 ) ) ;
#84 = CIRCLE ( 'NONE', #239, 78.29999999999998300 ) ;
#85 = LOCAL_TIME ( 1, 19, 17.00000000000000000, #211 ) ;
#86 = CARTESIAN_POINT ( 'NONE',  ( -6.366466304591668300, -6.426029478944140100, 3.224269518517308300 ) ) ;
#87 = CARTESIAN_POINT ( 'NONE',  ( -6.366466304591663000, 6.426029478944128600, 3.224269518517308300 ) ) ;
#88 = DIRECTION ( 'NONE',  ( 0.0000000000000000000, 0.0000000000000000000, 1.000000000000000000 ) ) ;
#89 = ORIENTED_EDGE ( 'NONE', *, *, #179, .F. ) ;
#90 = EDGE_CURVE ( 'NONE', #225, #264, #269, .T. ) ;
#91 = CARTESIAN_POINT ( 'NONE',  ( -2.977863067166991400E-014, -6.349999999999958800, -0.2579119961542818400 ) ) ;
#92 = APPROVAL_ROLE ( '' ) ;
#93 = CC_DESIGN_PERSON_AND_ORGANIZATION_ASSIGNMENT ( #66, #293, ( #246 ) ) ;
#94 = PERSON_AND_ORGANIZATION_ROLE ( 'classification_officer' ) ;
#95 = ORIENTED_EDGE ( 'NONE', *, *, #227, .T. ) ;
#96 = DIRECTION ( 'NONE',  ( 1.000000000000000000, 0.0000000000000000000, 0.0000000000000000000 ) ) ;
#97 = ADVANCED_FACE ( 'NONE', ( #180 ), #120, .F. ) ;
#98 = CARTESIAN_POINT ( 'NONE',  ( 5.030698080332741800E-014, 2.146837890534741600, 2.611756373900645300 ) ) ;
#99 = PERSON_AND_ORGANIZATION ( #193, #106 ) ;
#100 = ADVANCED_FACE ( 'NONE', ( #210 ), #113, .F. ) ;
#101 = ORIENTED_EDGE ( 'NONE', *, *, #21, .F. ) ;
#102 = CARTESIAN_POINT ( 'NONE',  ( -2.134703528750704600, -2.146837890534790000, 0.08824362609935411400 ) ) ;
#103 = CC_DESIGN_SECURITY_CLASSIFICATION ( #212, ( #246 ) ) ;
#104 = CARTESIAN_POINT ( 'NONE',  ( 2.974841870766584400E-014, -6.426029478944142800, 2.964135520033245500 ) ) ;
#105 = ORIENTED_EDGE ( 'NONE', *, *, #257, .T. ) ;
#106 = ORGANIZATION ( 'UNSPECIFIED', 'UNSPECIFIED', '' ) ;
#107 = CARTESIAN_POINT ( 'NONE',  ( 4.267627297153810100, -2.146837890534787400, 0.001092298849533264100 ) ) ;
#108 = DIRECTION ( 'NONE',  ( 1.000000000000000000, 0.0000000000000000000, 0.0000000000000000000 ) ) ;
#109 = EDGE_LOOP ( 'NONE', ( #215, #295, #6 ) ) ;
#110 = CARTESIAN_POINT ( 'NONE',  ( -2.125107383054416900, -6.426029478944141900, 2.964135520033244700 ) ) ;
#111 = CARTESIAN_POINT ( 'NONE',  ( 2.498001805406600200E-016, 1.221245327087670000E-015, 2.957911996154280100 ) ) ;
#112 = CARTESIAN_POINT ( 'NONE',  ( 0.0000000000000000000, 0.0000000000000000000, 0.0000000000000000000 ) ) ;
#113 =( BOUNDED_SURFACE ( )  B_SPLINE_SURFACE ( 3, 3, ( 
 ( #67, #247, #147, #224 ),
 ( #130, #148, #199, #271 ),
 ( #62, #200, #107, #197 ),
 ( #221, #37, #82, #268 ) ),
 .UNSPECIFIED., .F., .F., .F. ) 
 B_SPLINE_SURFACE_WITH_KNOTS ( ( 4, 4 ),
 ( 4, 4 ),
 ( 0.0000000000000000000, 1.000000000000000000 ),
 ( 0.0000000000000000000, 1.000000000000000000 ),
 .UNSPECIFIED. ) 
 GEOMETRIC_REPRESENTATION_ITEM ( )  RATIONAL_B_SPLINE_SURFACE ( (
 ( 1.000000000000000000, 0.9994441818817664200, 0.9994441818817664200, 1.000000000000000000),
 ( 0.9977510811406281600, 0.9971965130122431000, 0.9971965130122431000, 0.9977510811406281600),
 ( 0.9977510811406281600, 0.9971965130122431000, 0.9971965130122431000, 0.9977510811406281600),
 ( 1.000000000000000000, 0.9994441818817664200, 0.9994441818817664200, 1.000000000000000000) ) ) 
 REPRESENTATION_ITEM ( '' )  SURFACE ( )  );
#114 = PERSON_AND_ORGANIZATION_ROLE ( 'design_supplier' ) ;
#115 = ORIENTED_EDGE ( 'NONE', *, *, #16, .F. ) ;
#116 = SHAPE_DEFINITION_REPRESENTATION ( #58, #282 ) ;
#117 = DATE_TIME_ROLE ( 'creation_date' ) ;
#118 = AXIS2_PLACEMENT_3D ( 'NONE', #125, #142, #121 ) ;
#119 = PERSON_AND_ORGANIZATION ( #193, #106 ) ;
#120 =( BOUNDED_SURFACE ( )  B_SPLINE_SURFACE ( 3, 3, ( 
 ( #284, #56, #285, #217 ),
 ( #141, #263, #123, #29 ),
 ( #80, #267, #102, #143 ),
 ( #4, #32, #194, #57 ) ),
 .UNSPECIFIED., .F., .F., .F. ) 
 B_SPLINE_SURFACE_WITH_KNOTS ( ( 4, 4 ),
 ( 4, 4 ),
 ( 0.0000000000000000000, 1.000000000000000000 ),
 ( 0.0000000000000000000, 1.000000000000000000 ),
 .UNSPECIFIED. ) 
 GEOMETRIC_REPRESENTATION_ITEM ( )  RATIONAL_B_SPLINE_SURFACE ( (
 ( 1.000000000000000000, 0.9994441818817664200, 0.9994441818817664200, 1.000000000000000000),
 ( 0.9977510811406281600, 0.9971965130122431000, 0.9971965130122431000, 0.9977510811406281600),
 ( 0.9977510811406281600, 0.9971965130122431000, 0.9971965130122431000, 0.9977510811406281600),
 ( 1.000000000000000000, 0.9994441818817664200, 0.9994441818817664200, 1.000000000000000000) ) ) 
 REPRESENTATION_ITEM ( '' )  SURFACE ( )  );
#121 = DIRECTION ( 'NONE',  ( 1.000000000000000000, 0.0000000000000000000, 0.0000000000000000000 ) ) ;
#122 = PERSON_AND_ORGANIZATION ( #193, #106 ) ;
#123 = CARTESIAN_POINT ( 'NONE',  ( -2.134703528750706800, 2.146837890534756300, 0.08824362609935557100 ) ) ;
#124 = DIRECTION ( 'NONE',  ( -3.711184672775490000E-016, 1.000000000000000000, 0.0000000000000000000 ) ) ;
#125 = CARTESIAN_POINT ( 'NONE',  ( 2.498001805406600200E-016, 1.221245327087670000E-015, -0.2579119961542800700 ) ) ;
#126 = CARTESIAN_POINT ( 'NONE',  ( -4.248443006328822800, -6.426029478944141000, 3.050895075394064900 ) ) ;
#127 = ADVANCED_FACE ( 'NONE', ( #140 ), #178, .F. ) ;
#128 = CARTESIAN_POINT ( 'NONE',  ( 6.349999999999999600, 1.221245327087670000E-015, 2.957911996154280100 ) ) ;
#129 = CARTESIAN_POINT ( 'NONE',  ( -2.125107383054412000, 6.426029478944127700, 2.964135520033244700 ) ) ;
#130 = CARTESIAN_POINT ( 'NONE',  ( -3.304298381001610000E-014, 2.146837890534758000, 0.08824362609935178200 ) ) ;
#131 = COORDINATED_UNIVERSAL_TIME_OFFSET ( 2, 0, .AHEAD. ) ;
#132 = CARTESIAN_POINT ( 'NONE',  ( 7.105427357601000300E-015, -2.842170943040400100E-014, 81.00000000000000000 ) ) ;
#133 = CC_DESIGN_PERSON_AND_ORGANIZATION_ASSIGNMENT ( #99, #114, ( #246 ) ) ;
#134 = CARTESIAN_POINT ( 'NONE',  ( -6.349999999999999600, 1.998896044546239400E-015, 2.957911996154280100 ) ) ;
#135 = CIRCLE ( 'NONE', #262, 6.349999999999999600 ) ;
#136 = DATE_AND_TIME ( #75, #85 ) ;
#137 = ORIENTED_EDGE ( 'NONE', *, *, #233, .T. ) ;
#138 = CC_DESIGN_PERSON_AND_ORGANIZATION_ASSIGNMENT ( #71, #69, ( #266 ) ) ;
#139 = CARTESIAN_POINT ( 'NONE',  ( 4.248443006328864500, -6.426029478944144600, 3.050895075394044500 ) ) ;
#140 = FACE_OUTER_BOUND ( 'NONE', #109, .T. ) ;
#141 = CARTESIAN_POINT ( 'NONE',  ( -6.395214752183632900, 2.146837890534755400, -0.1730650347899541900 ) ) ;
#142 = DIRECTION ( 'NONE',  ( 0.0000000000000000000, 0.0000000000000000000, 1.000000000000000000 ) ) ;
#143 = CARTESIAN_POINT ( 'NONE',  ( -4.943961906533900200E-014, -2.146837890534788700, 0.08824362609935530700 ) ) ;
#144 = ORIENTED_EDGE ( 'NONE', *, *, #41, .T. ) ;
#145 = CALENDAR_DATE ( 2019, 21, 1 ) ;
#146 = EDGE_LOOP ( 'NONE', ( #287, #273, #236 ) ) ;
#147 = CARTESIAN_POINT ( 'NONE',  ( 4.248443006328819200, 6.426029478944190700, -0.3508950753940565100 ) ) ;
#148 = CARTESIAN_POINT ( 'NONE',  ( 2.134703528750640200, 2.146837890534758500, 0.08824362609935246200 ) ) ;
#149 = CARTESIAN_POINT ( 'NONE',  ( 2.498001805406600200E-016, 1.221245327087670000E-015, 2.957911996154280100 ) ) ;
#150 = DESIGN_CONTEXT ( 'detailed design', #208, 'design' ) ;
#151 = DIRECTION ( 'NONE',  ( 0.0000000000000000000, 0.0000000000000000000, 1.000000000000000000 ) ) ;
#152 = DIRECTION ( 'NONE',  ( 0.0000000000000000000, 0.0000000000000000000, 1.000000000000000000 ) ) ;
#153 = DIRECTION ( 'NONE',  ( 1.000000000000000000, 0.0000000000000000000, 0.0000000000000000000 ) ) ;
#154 = AXIS2_PLACEMENT_3D ( 'NONE', #149, #12, #63 ) ;
#155 = SECURITY_CLASSIFICATION_LEVEL ( 'unclassified' ) ;
#156 = CALENDAR_DATE ( 2019, 21, 1 ) ;
#157 = MANIFOLD_SOLID_BREP ( 'Imported1', #30 ) ;
#158 = VERTEX_POINT ( 'NONE', #166 ) ;
#159 = CARTESIAN_POINT ( 'NONE',  ( 6.395214752183629300, -2.146837890534760700, 2.873065034789957600 ) ) ;
#160 = PERSON_AND_ORGANIZATION ( #193, #106 ) ;
#161 = CARTESIAN_POINT ( 'NONE',  ( 2.125107383054480000, 6.426029478944125900, 2.964135520033228200 ) ) ;
#162 = ORIENTED_EDGE ( 'NONE', *, *, #174, .F. ) ;
#163 = DIRECTION ( 'NONE',  ( 1.000000000000000000, 0.0000000000000000000, 0.0000000000000000000 ) ) ;
#164 = CARTESIAN_POINT ( 'NONE',  ( 2.977863067166993300E-014, -6.349999999999891300, 2.957911996154285900 ) ) ;
#165 = CIRCLE ( 'NONE', #48, 6.349999999999999600 ) ;
#166 = CARTESIAN_POINT ( 'NONE',  ( 6.349999999999999600, 1.221245327087670000E-015, -0.2579119961542800700 ) ) ;
#167 = DIRECTION ( 'NONE',  ( 0.0000000000000000000, 0.0000000000000000000, 1.000000000000000000 ) ) ;
#168 = CC_DESIGN_PERSON_AND_ORGANIZATION_ASSIGNMENT ( #122, #44, ( #76 ) ) ;
#169 = CARTESIAN_POINT ( 'NONE',  ( 3.304298381001609400E-014, 2.146837890534741600, 2.611756373900663100 ) ) ;
#170 = VERTEX_POINT ( 'NONE', #128 ) ;
#171 = CARTESIAN_POINT ( 'NONE',  ( -6.395214752183602700, 2.146837890534744300, 2.873065034789977100 ) ) ;
#172 = CARTESIAN_POINT ( 'NONE',  ( -3.449183520609473700E-014, 6.349999999999931300, -0.2579119961542818400 ) ) ;
#173 =( NAMED_UNIT ( * ) SI_UNIT ( $, .STERADIAN. ) SOLID_ANGLE_UNIT ( ) );
#174 = EDGE_CURVE ( 'NONE', #229, #158, #19, .T. ) ;
#175 = DIRECTION ( 'NONE',  ( 0.0000000000000000000, 0.0000000000000000000, 1.000000000000000000 ) ) ;
#176 = CALENDAR_DATE ( 2019, 21, 1 ) ;
#177 = APPROVAL_ROLE ( '' ) ;
#178 =( BOUNDED_SURFACE ( )  B_SPLINE_SURFACE ( 3, 3, ( 
 ( #11, #129, #272, #87 ),
 ( #169, #289, #33, #171 ),
 ( #252, #223, #245, #64 ),
 ( #104, #110, #126, #86 ) ),
 .UNSPECIFIED., .F., .F., .F. ) 
 B_SPLINE_SURFACE_WITH_KNOTS ( ( 4, 4 ),
 ( 4, 4 ),
 ( 0.0000000000000000000, 1.000000000000000000 ),
 ( 0.0000000000000000000, 1.000000000000000000 ),
 .UNSPECIFIED. ) 
 GEOMETRIC_REPRESENTATION_ITEM ( )  RATIONAL_B_SPLINE_SURFACE ( (
 ( 1.000000000000000000, 0.9994441818817664200, 0.9994441818817664200, 1.000000000000000000),
 ( 0.9977510811406281600, 0.9971965130122431000, 0.9971965130122431000, 0.9977510811406281600),
 ( 0.9977510811406281600, 0.9971965130122431000, 0.9971965130122431000, 0.9977510811406281600),
 ( 1.000000000000000000, 0.9994441818817664200, 0.9994441818817664200, 1.000000000000000000) ) ) 
 REPRESENTATION_ITEM ( '' )  SURFACE ( )  );
#179 = EDGE_CURVE ( 'NONE', #195, #170, #260, .T. ) ;
#180 = FACE_OUTER_BOUND ( 'NONE', #146, .T. ) ;
#181 = APPROVAL_PERSON_ORGANIZATION ( #160, #1, #254 ) ;
#182 = CARTESIAN_POINT ( 'NONE',  ( 2.134703528750703200, -2.146837890534758500, 2.611756373900647100 ) ) ;
#183 = APPROVAL ( #228, 'UNSPECIFIED' ) ;
#184 = COORDINATED_UNIVERSAL_TIME_OFFSET ( 2, 0, .AHEAD. ) ;
#185 = ADVANCED_FACE ( 'NONE', ( #78 ), #278, .T. ) ;
#186 = EDGE_CURVE ( 'NONE', #195, #26, #84, .T. ) ;
#187 = CARTESIAN_POINT ( 'NONE',  ( 4.683753385137379200E-014, -6.426029478944142800, 2.964135520033226900 ) ) ;
#188 =( BOUNDED_SURFACE ( )  B_SPLINE_SURFACE ( 3, 3, ( 
 ( #240, #237, #161, #258 ),
 ( #51, #238, #77, #98 ),
 ( #159, #24, #182, #52 ),
 ( #259, #139, #27, #187 ) ),
 .UNSPECIFIED., .F., .F., .F. ) 
 B_SPLINE_SURFACE_WITH_KNOTS ( ( 4, 4 ),
 ( 4, 4 ),
 ( 0.0000000000000000000, 1.000000000000000000 ),
 ( 0.0000000000000000000, 1.000000000000000000 ),
 .UNSPECIFIED. ) 
 GEOMETRIC_REPRESENTATION_ITEM ( )  RATIONAL_B_SPLINE_SURFACE ( (
 ( 1.000000000000000000, 0.9994441818817664200, 0.9994441818817664200, 1.000000000000000000),
 ( 0.9977510811406281600, 0.9971965130122431000, 0.9971965130122431000, 0.9977510811406281600),
 ( 0.9977510811406281600, 0.9971965130122431000, 0.9971965130122431000, 0.9977510811406281600),
 ( 1.000000000000000000, 0.9994441818817664200, 0.9994441818817664200, 1.000000000000000000) ) ) 
 REPRESENTATION_ITEM ( '' )  SURFACE ( )  );
#189 = CIRCLE ( 'NONE', #218, 6.349999999999999600 ) ;
#190 = CC_DESIGN_APPROVAL ( #214, ( #212 ) ) ;
#191 = CARTESIAN_POINT ( 'NONE',  ( 2.498001805406600200E-016, 1.221245327087670000E-015, 2.957911996154280100 ) ) ;
#192 = ADVANCED_FACE ( 'NONE', ( #10 ), #206, .T. ) ;
#193 = PERSON ( 'UNSPECIFIED', 'UNSPECIFIED', 'UNSPECIFIED', ('UNSPECIFIED'), ('UNSPECIFIED'), ('UNSPECIFIED') ) ;
#194 = CARTESIAN_POINT ( 'NONE',  ( -2.125107383054476400, -6.426029478944220100, -0.2641355200332335400 ) ) ;
#195 = VERTEX_POINT ( 'NONE', #13 ) ;
#196 = AXIS2_PLACEMENT_3D ( 'NONE', #34, #248, #108 ) ;
#197 = CARTESIAN_POINT ( 'NONE',  ( 6.395214752183605400, -2.146837890534786000, -0.1730650347899632400 ) ) ;
#198 = CC_DESIGN_APPROVAL ( #183, ( #76 ) ) ;
#199 = CARTESIAN_POINT ( 'NONE',  ( 4.267627297153808300, 2.146837890534758900, 0.001092298849534727300 ) ) ;
#200 = CARTESIAN_POINT ( 'NONE',  ( 2.134703528750641500, -2.146837890534787800, 0.08824362609935100500 ) ) ;
#201 = DATE_AND_TIME ( #36, #61 ) ;
#202 = EDGE_CURVE ( 'NONE', #264, #234, #73, .T. ) ;
#203 = UNCERTAINTY_MEASURE_WITH_UNIT (LENGTH_MEASURE( 1.000000000000000100E-005 ), #276, 'distance_accuracy_value', 'NONE');
#204 = EDGE_LOOP ( 'NONE', ( #115, #279, #162 ) ) ;
#205 = MECHANICAL_CONTEXT ( 'NONE', #42, 'mechanical' ) ;
#206 = CYLINDRICAL_SURFACE ( 'NONE', #286, 6.349999999999999600 ) ;
#207 = CC_DESIGN_PERSON_AND_ORGANIZATION_ASSIGNMENT ( #119, #94, ( #212 ) ) ;
#208 = APPLICATION_CONTEXT ( 'configuration controlled 3d designs of mechanical parts and assemblies' ) ;
#209 = APPLICATION_PROTOCOL_DEFINITION ( 'international standard', 'config_control_design', 1994, #42 ) ;
#210 = FACE_OUTER_BOUND ( 'NONE', #204, .T. ) ;
#211 = COORDINATED_UNIVERSAL_TIME_OFFSET ( 2, 0, .AHEAD. ) ;
#212 = SECURITY_CLASSIFICATION ( '', '', #155 ) ;
#213 = ORIENTED_EDGE ( 'NONE', *, *, #174, .T. ) ;
#214 = APPROVAL ( #17, 'UNSPECIFIED' ) ;
#215 = ORIENTED_EDGE ( 'NONE', *, *, #186, .F. ) ;
#216 = VECTOR ( 'NONE', #88, 1000.000000000000000 ) ;
#217 = CARTESIAN_POINT ( 'NONE',  ( -5.377642775528102000E-014, 6.426029478944189000, -0.2641355200332323200 ) ) ;
#218 = AXIS2_PLACEMENT_3D ( 'NONE', #54, #5, #81 ) ;
#219 = ORIENTED_EDGE ( 'NONE', *, *, #257, .F. ) ;
#220 = CARTESIAN_POINT ( 'NONE',  ( -7.105427357601000300E-015, -2.842170943040400100E-014, -78.29999999999999700 ) ) ;
#221 = CARTESIAN_POINT ( 'NONE',  ( -2.974841870766581900E-014, -6.426029478944219200, -0.2641355200332373700 ) ) ;
#222 = APPROVAL_DATE_TIME ( #265, #1 ) ;
#223 = CARTESIAN_POINT ( 'NONE',  ( -2.134703528750641100, -2.146837890534756700, 2.611756373900664000 ) ) ;
#224 = CARTESIAN_POINT ( 'NONE',  ( 6.366466304591663800, 6.426029478944191600, -0.5242695185172999700 ) ) ;
#225 = VERTEX_POINT ( 'NONE', #172 ) ;
#226 = APPROVAL_STATUS ( 'not_yet_approved' ) ;
#227 = EDGE_CURVE ( 'NONE', #158, #225, #250, .T. ) ;
#228 = APPROVAL_STATUS ( 'not_yet_approved' ) ;
#229 = VERTEX_POINT ( 'NONE', #91 ) ;
#230 = DIRECTION ( 'NONE',  ( 1.000000000000000000, 0.0000000000000000000, 0.0000000000000000000 ) ) ;
#231 = LINE ( 'NONE', #291, #256 ) ;
#232 = CARTESIAN_POINT ( 'NONE',  ( 2.498001805406600200E-016, 1.221245327087670000E-015, -0.2579119961542800700 ) ) ;
#233 = EDGE_CURVE ( 'NONE', #234, #195, #23, .T. ) ;
#234 = VERTEX_POINT ( 'NONE', #134 ) ;
#235 = EDGE_CURVE ( 'NONE', #264, #229, #165, .T. ) ;
#236 = ORIENTED_EDGE ( 'NONE', *, *, #235, .F. ) ;
#237 = CARTESIAN_POINT ( 'NONE',  ( 4.248443006328869800, 6.426029478944125000, 3.050895075394044500 ) ) ;
#238 = CARTESIAN_POINT ( 'NONE',  ( 4.267627297153854500, 2.146837890534739400, 2.698907701150459600 ) ) ;
#239 = AXIS2_PLACEMENT_3D ( 'NONE', #132, #47, #68 ) ;
#240 = CARTESIAN_POINT ( 'NONE',  ( 6.366466304591695800, 6.426029478944124100, 3.224269518517286500 ) ) ;
#241 = DIRECTION ( 'NONE',  ( 1.000000000000000000, 3.711184672775490000E-016, 3.207218850942059900E-016 ) ) ;
#242 = EDGE_LOOP ( 'NONE', ( #95, #45, #40, #137, #22, #219 ) ) ;
#243 = AXIS2_PLACEMENT_3D ( 'NONE', #111, #277, #153 ) ;
#244 = LOCAL_TIME ( 1, 19, 17.00000000000000000, #53 ) ;
#245 = CARTESIAN_POINT ( 'NONE',  ( -4.267627297153810100, -2.146837890534755800, 2.698907701150482300 ) ) ;
#246 = PRODUCT_DEFINITION_FORMATION_WITH_SPECIFIED_SOURCE ( 'ANY', '', #266, .NOT_KNOWN. ) ;
#247 = CARTESIAN_POINT ( 'NONE',  ( 2.125107383054412000, 6.426029478944189900, -0.2641355200332366500 ) ) ;
#248 = DIRECTION ( 'NONE',  ( 0.0000000000000000000, 0.0000000000000000000, 1.000000000000000000 ) ) ;
#249 = CIRCLE ( 'NONE', #28, 78.29999999999998300 ) ;
#250 = CIRCLE ( 'NONE', #294, 6.349999999999999600 ) ;
#251 = CARTESIAN_POINT ( 'NONE',  ( 2.498001805406600200E-016, 1.221245327087670000E-015, -0.2579119961542800700 ) ) ;
#252 = CARTESIAN_POINT ( 'NONE',  ( 3.144952143515884200E-014, -2.146837890534758000, 2.611756373900665300 ) ) ;
#253 = CARTESIAN_POINT ( 'NONE',  ( 2.498001805406600200E-016, 1.221245327087670000E-015, -0.2579119961542800700 ) ) ;
#254 = APPROVAL_ROLE ( '' ) ;
#255 = DATE_TIME_ROLE ( 'classification_date' ) ;
#256 = VECTOR ( 'NONE', #152, 1000.000000000000000 ) ;
#257 = EDGE_CURVE ( 'NONE', #158, #170, #231, .T. ) ;
#258 = CARTESIAN_POINT ( 'NONE',  ( 5.204170427930421300E-014, 6.426029478944125900, 2.964135520033226900 ) ) ;
#259 = CARTESIAN_POINT ( 'NONE',  ( 6.366466304591690500, -6.426029478944145400, 3.224269518517286500 ) ) ;
#260 = CIRCLE ( 'NONE', #154, 6.349999999999999600 ) ;
#261 = APPROVAL_PERSON_ORGANIZATION ( #7, #214, #177 ) ;
#262 = AXIS2_PLACEMENT_3D ( 'NONE', #191, #3, #163 ) ;
#263 = CARTESIAN_POINT ( 'NONE',  ( -4.267627297153855400, 2.146837890534755800, 0.001092298849541178700 ) ) ;
#264 = VERTEX_POINT ( 'NONE', #292 ) ;
#265 = DATE_AND_TIME ( #145, #283 ) ;
#266 = PRODUCT ( '114-0114E BK7 bi-cv 12.7 F-75', '114-0114E BK7 bi-cv 12.7 F-75', '', ( #205 ) ) ;
#267 = CARTESIAN_POINT ( 'NONE',  ( -4.267627297153852700, -2.146837890534790500, 0.001092298849539688200 ) ) ;
#268 = CARTESIAN_POINT ( 'NONE',  ( 6.366466304591669200, -6.426029478944216500, -0.5242695185172999700 ) ) ;
#269 = CIRCLE ( 'NONE', #118, 6.349999999999999600 ) ;
#270 = CARTESIAN_POINT ( 'NONE',  ( -6.349999999999999600, 1.998896044546239400E-015, -0.2579119961542800700 ) ) ;
#271 = CARTESIAN_POINT ( 'NONE',  ( 6.395214752183603600, 2.146837890534760300, -0.1730650347899617700 ) ) ;
#272 = CARTESIAN_POINT ( 'NONE',  ( -4.248443006328817400, 6.426029478944128600, 3.050895075394064900 ) ) ;
#273 = ORIENTED_EDGE ( 'NONE', *, *, #16, .T. ) ;
#274 = COORDINATED_UNIVERSAL_TIME_OFFSET ( 2, 0, .AHEAD. ) ;
#275 = AXIS2_PLACEMENT_3D ( 'NONE', #251, #39, #8 ) ;
#276 =( LENGTH_UNIT ( ) NAMED_UNIT ( * ) SI_UNIT ( .MILLI., .METRE. ) );
#277 = DIRECTION ( 'NONE',  ( -0.0000000000000000000, -0.0000000000000000000, -1.000000000000000000 ) ) ;
#278 = CYLINDRICAL_SURFACE ( 'NONE', #275, 6.349999999999999600 ) ;
#279 = ORIENTED_EDGE ( 'NONE', *, *, #227, .F. ) ;
#280 = PRODUCT_RELATED_PRODUCT_CATEGORY ( 'detail', '', ( #266 ) ) ;
#281 = ORIENTED_EDGE ( 'NONE', *, *, #235, .T. ) ;
#282 = ADVANCED_BREP_SHAPE_REPRESENTATION ( '114-0114E BK7 bi-cv 12.7 F-75', ( #157, #25 ), #65 ) ;
#283 = LOCAL_TIME ( 1, 19, 17.00000000000000000, #131 ) ;
#284 = CARTESIAN_POINT ( 'NONE',  ( -6.366466304591695800, 6.426029478944186300, -0.5242695185172924200 ) ) ;
#285 = CARTESIAN_POINT ( 'NONE',  ( -2.125107383054481800, 6.426029478944188100, -0.2641355200332335400 ) ) ;
#286 = AXIS2_PLACEMENT_3D ( 'NONE', #83, #167, #38 ) ;
#287 = ORIENTED_EDGE ( 'NONE', *, *, #90, .F. ) ;
#288 = DATE_AND_TIME ( #176, #31 ) ;
#289 = CARTESIAN_POINT ( 'NONE',  ( -2.134703528750639700, 2.146837890534742100, 2.611756373900661700 ) ) ;
#290 = EDGE_LOOP ( 'NONE', ( #55, #281, #213, #105, #35, #144 ) ) ;
#291 = CARTESIAN_POINT ( 'NONE',  ( 6.349999999999999600, 1.221245327087670000E-015, -0.2579119961542800700 ) ) ;
#292 = CARTESIAN_POINT ( 'NONE',  ( -6.349999999999999600, 1.998896044546239400E-015, -0.2579119961542800700 ) ) ;
#293 = PERSON_AND_ORGANIZATION_ROLE ( 'creator' ) ;
#294 = AXIS2_PLACEMENT_3D ( 'NONE', #232, #72, #230 ) ;
#295 = ORIENTED_EDGE ( 'NONE', *, *, #233, .F. ) ;
ENDSEC;
END-ISO-10303-21;
