ISO-10303-21;
HEADER;
FILE_DESCRIPTION (( 'STEP AP203' ),
    '1' );
FILE_NAME ('114-0112E BK7 bi-cv 12.7 F-60.STEP',
    '2019-01-20T23:07:33',
    ( '' ),
    ( '' ),
    'SwSTEP 2.0',
    'SolidWorks 2017',
    '' );
FILE_SCHEMA (( 'CONFIG_CONTROL_DESIGN' ));
ENDSEC;

DATA;
#1 = EDGE_CURVE ( 'NONE', #44, #126, #117, .T. ) ;
#2 = CARTESIAN_POINT ( 'NONE',  ( 2.122711131786310100, 6.425933592214899000, -0.3302094497708926200 ) ) ;
#3 = VECTOR ( 'NONE', #36, 1000.000000000000000 ) ;
#4 = ORIENTED_EDGE ( 'NONE', *, *, #75, .F. ) ;
#5 = DESIGN_CONTEXT ( 'detailed design', #77, 'design' ) ;
#6 = DIRECTION ( 'NONE',  ( 1.000000000000000000, 0.0000000000000000000, 0.0000000000000000000 ) ) ;
#7 =( LENGTH_UNIT ( ) NAMED_UNIT ( * ) SI_UNIT ( .MILLI., .METRE. ) );
#8 = AXIS2_PLACEMENT_3D ( 'NONE', #238, #216, #149 ) ;
#9 = PERSON_AND_ORGANIZATION_ROLE ( 'classification_officer' ) ;
#10 = DIRECTION ( 'NONE',  ( 0.0000000000000000000, 0.0000000000000000000, 1.000000000000000000 ) ) ;
#11 = EDGE_LOOP ( 'NONE', ( #220, #122, #4 ) ) ;
#12 = CARTESIAN_POINT ( 'NONE',  ( 2.137711327361179400, -2.149526051605731100, 2.489542304696590300 ) ) ;
#13 = AXIS2_PLACEMENT_3D ( 'NONE', #222, #90, #251 ) ;
#14 = CARTESIAN_POINT ( 'NONE',  ( 6.354320390307557400, -6.425933592214896400, 3.254799590508582300 ) ) ;
#15 = FACE_OUTER_BOUND ( 'NONE', #11, .T. ) ;
#16 = AXIS2_PLACEMENT_3D ( 'NONE', #114, #276, #203 ) ;
#17 =( BOUNDED_SURFACE ( )  B_SPLINE_SURFACE ( 3, 3, ( 
 ( #268, #170, #288, #166 ),
 ( #34, #61, #196, #40 ),
 ( #83, #131, #12, #289 ),
 ( #14, #62, #58, #214 ) ),
 .UNSPECIFIED., .F., .F., .T. ) 
 B_SPLINE_SURFACE_WITH_KNOTS ( ( 4, 4 ),
 ( 4, 4 ),
 ( 0.0000000000000000000, 1.000000000000000000 ),
 ( 0.0000000000000000000, 1.000000000000000000 ),
 .UNSPECIFIED. ) 
 GEOMETRIC_REPRESENTATION_ITEM ( )  RATIONAL_B_SPLINE_SURFACE ( (
 ( 1.000000000000000000, 0.9991319149609232400, 0.9991319149609232400, 1.000000000000000000),
 ( 0.9964884410084448000, 0.9956234043011924500, 0.9956234043011924500, 0.9964884410084448000),
 ( 0.9964884410084448000, 0.9956234043011924500, 0.9956234043011924500, 0.9964884410084448000),
 ( 1.000000000000000000, 0.9991319149609232400, 0.9991319149609232400, 1.000000000000000000) ) ) 
 REPRESENTATION_ITEM ( '' )  SURFACE ( )  );
#18 = CARTESIAN_POINT ( 'NONE',  ( -4.272639081890634600, -2.149526051605732800, 2.598598263122052600 ) ) ;
#19 = CARTESIAN_POINT ( 'NONE',  ( -1.208020266419153600E-014, -2.149526051605732400, 2.489542304696585000 ) ) ;
#20 = EDGE_CURVE ( 'NONE', #180, #126, #245, .T. ) ;
#21 = ORIENTED_EDGE ( 'NONE', *, *, #283, .F. ) ;
#22 = ORGANIZATION ( 'UNSPECIFIED', 'UNSPECIFIED', '' ) ;
#23 = AXIS2_PLACEMENT_3D ( 'NONE', #169, #106, #194 ) ;
#24 = CARTESIAN_POINT ( 'NONE',  ( -6.354320390307553800, 6.425933592214900800, -0.6547995905085770600 ) ) ;
#25 = VERTEX_POINT ( 'NONE', #264 ) ;
#26 = CARTESIAN_POINT ( 'NONE',  ( -6.399223367058720400, -2.149526051605730600, -0.2164261704352002400 ) ) ;
#27 = CARTESIAN_POINT ( 'NONE',  ( 2.498001805406600200E-016, 1.221245327087670000E-015, -0.3224315048277680000 ) ) ;
#28 = ORIENTED_EDGE ( 'NONE', *, *, #144, .T. ) ;
#29 = DIRECTION ( 'NONE',  ( 0.0000000000000000000, 0.0000000000000000000, 1.000000000000000000 ) ) ;
#30 =( BOUNDED_SURFACE ( )  B_SPLINE_SURFACE ( 3, 3, ( 
 ( #87, #246, #108, #134 ),
 ( #107, #176, #154, #41 ),
 ( #19, #111, #18, #175 ),
 ( #137, #45, #174, #294 ) ),
 .UNSPECIFIED., .F., .F., .F. ) 
 B_SPLINE_SURFACE_WITH_KNOTS ( ( 4, 4 ),
 ( 4, 4 ),
 ( 0.0000000000000000000, 1.000000000000000000 ),
 ( 0.0000000000000000000, 1.000000000000000000 ),
 .UNSPECIFIED. ) 
 GEOMETRIC_REPRESENTATION_ITEM ( )  RATIONAL_B_SPLINE_SURFACE ( (
 ( 1.000000000000000000, 0.9991319149609232400, 0.9991319149609232400, 1.000000000000000000),
 ( 0.9964884410084448000, 0.9956234043011924500, 0.9956234043011924500, 0.9964884410084448000),
 ( 0.9964884410084448000, 0.9956234043011924500, 0.9956234043011924500, 0.9964884410084448000),
 ( 1.000000000000000000, 0.9991319149609232400, 0.9991319149609232400, 1.000000000000000000) ) ) 
 REPRESENTATION_ITEM ( '' )  SURFACE ( )  );
#31 = DIRECTION ( 'NONE',  ( 1.000000000000000000, 1.776356839400250500E-015, 0.0000000000000000000 ) ) ;
#32 = CARTESIAN_POINT ( 'NONE',  ( 6.349999999999999600, 1.221245327087670000E-015, -0.3224315048277680000 ) ) ;
#33 = CYLINDRICAL_SURFACE ( 'NONE', #16, 6.349999999999999600 ) ;
#34 = CARTESIAN_POINT ( 'NONE',  ( 6.399223367058718600, 2.149526051605735100, 2.816426170435205800 ) ) ;
#35 = APPROVAL_STATUS ( 'not_yet_approved' ) ;
#36 = DIRECTION ( 'NONE',  ( 0.0000000000000000000, 0.0000000000000000000, 1.000000000000000000 ) ) ;
#37 = PERSON_AND_ORGANIZATION ( #66, #22 ) ;
#38 = DATE_AND_TIME ( #59, #223 ) ;
#39 = DIRECTION ( 'NONE',  ( 0.0000000000000000000, 0.0000000000000000000, 1.000000000000000000 ) ) ;
#40 = CARTESIAN_POINT ( 'NONE',  ( 1.734723475976807100E-015, 2.149526051605733300, 2.489542304696590300 ) ) ;
#41 = CARTESIAN_POINT ( 'NONE',  ( -6.399223367058716900, 2.149526051605731500, 2.816426170435198700 ) ) ;
#42 = AXIS2_PLACEMENT_3D ( 'NONE', #266, #129, #82 ) ;
#43 = DATE_AND_TIME ( #271, #109 ) ;
#44 = VERTEX_POINT ( 'NONE', #147 ) ;
#45 = CARTESIAN_POINT ( 'NONE',  ( -2.122711131786307400, -6.425933592214899900, 2.930209449770898400 ) ) ;
#46 = CARTESIAN_POINT ( 'NONE',  ( -1.101997988807055200E-014, -6.349999999999997900, 2.922431504827767600 ) ) ;
#47 = CARTESIAN_POINT ( 'NONE',  ( 6.354320390307554700, 6.425933592214897200, -0.6547995905085706200 ) ) ;
#48 = CARTESIAN_POINT ( 'NONE',  ( 1.307656837017988900E-014, 2.149526051605733300, 0.1104576953034204900 ) ) ;
#49 =( GEOMETRIC_REPRESENTATION_CONTEXT ( 3 ) GLOBAL_UNCERTAINTY_ASSIGNED_CONTEXT ( ( #218 ) ) GLOBAL_UNIT_ASSIGNED_CONTEXT ( ( #7, #163, #124 ) ) REPRESENTATION_CONTEXT ( 'NONE', 'WORKASPACE' ) );
#50 = EDGE_CURVE ( 'NONE', #126, #136, #85, .T. ) ;
#51 = PERSON_AND_ORGANIZATION ( #66, #22 ) ;
#52 = ORIENTED_EDGE ( 'NONE', *, *, #277, .F. ) ;
#53 = SECURITY_CLASSIFICATION_LEVEL ( 'unclassified' ) ;
#54 = CC_DESIGN_PERSON_AND_ORGANIZATION_ASSIGNMENT ( #275, #9, ( #279 ) ) ;
#55 = PERSON_AND_ORGANIZATION_ROLE ( 'design_supplier' ) ;
#56 = VERTEX_POINT ( 'NONE', #286 ) ;
#57 = APPLICATION_PROTOCOL_DEFINITION ( 'international standard', 'config_control_design', 1994, #212 ) ;
#58 = CARTESIAN_POINT ( 'NONE',  ( 2.122711131786305200, -6.425933592214898100, 2.930209449770903300 ) ) ;
#59 = CALENDAR_DATE ( 2019, 21, 1 ) ;
#60 = CC_DESIGN_PERSON_AND_ORGANIZATION_ASSIGNMENT ( #217, #210, ( #104 ) ) ;
#61 = CARTESIAN_POINT ( 'NONE',  ( 4.272639081890632800, 2.149526051605733700, 2.598598263122058300 ) ) ;
#62 = CARTESIAN_POINT ( 'NONE',  ( 4.242658222908926500, -6.425933592214898100, 3.038500168903277600 ) ) ;
#63 =( BOUNDED_SURFACE ( )  B_SPLINE_SURFACE ( 3, 3, ( 
 ( #247, #2, #139, #47 ),
 ( #48, #253, #118, #155 ),
 ( #112, #181, #273, #158 ),
 ( #200, #69, #202, #93 ) ),
 .UNSPECIFIED., .F., .F., .F. ) 
 B_SPLINE_SURFACE_WITH_KNOTS ( ( 4, 4 ),
 ( 4, 4 ),
 ( 0.0000000000000000000, 1.000000000000000000 ),
 ( 0.0000000000000000000, 1.000000000000000000 ),
 .UNSPECIFIED. ) 
 GEOMETRIC_REPRESENTATION_ITEM ( )  RATIONAL_B_SPLINE_SURFACE ( (
 ( 1.000000000000000000, 0.9991319149609232400, 0.9991319149609232400, 1.000000000000000000),
 ( 0.9964884410084448000, 0.9956234043011924500, 0.9956234043011924500, 0.9964884410084448000),
 ( 0.9964884410084448000, 0.9956234043011924500, 0.9956234043011924500, 0.9964884410084448000),
 ( 1.000000000000000000, 0.9991319149609232400, 0.9991319149609232400, 1.000000000000000000) ) ) 
 REPRESENTATION_ITEM ( '' )  SURFACE ( )  );
#64 = ORIENTED_EDGE ( 'NONE', *, *, #277, .T. ) ;
#65 = CARTESIAN_POINT ( 'NONE',  ( -1.396338326217701100E-014, 6.349999999999995200, 2.922431504827767600 ) ) ;
#66 = PERSON ( 'UNSPECIFIED', 'UNSPECIFIED', 'UNSPECIFIED', ('UNSPECIFIED'), ('UNSPECIFIED'), ('UNSPECIFIED') ) ;
#67 = EDGE_CURVE ( 'NONE', #136, #180, #255, .T. ) ;
#68 = SHAPE_DEFINITION_REPRESENTATION ( #261, #250 ) ;
#69 = CARTESIAN_POINT ( 'NONE',  ( 2.122711131786307400, -6.425933592214899900, -0.3302094497708926200 ) ) ;
#70 = ORIENTED_EDGE ( 'NONE', *, *, #283, .T. ) ;
#71 = ADVANCED_FACE ( 'NONE', ( #172 ), #248, .T. ) ;
#72 = LOCAL_TIME ( 1, 7, 33.00000000000000000, #84 ) ;
#73 = ORIENTED_EDGE ( 'NONE', *, *, #187, .T. ) ;
#74 = CARTESIAN_POINT ( 'NONE',  ( -4.272639081890634600, -2.149526051605730200, 0.001401736877946542100 ) ) ;
#75 = EDGE_CURVE ( 'NONE', #25, #79, #125, .T. ) ;
#76 = APPROVAL_ROLE ( '' ) ;
#77 = APPLICATION_CONTEXT ( 'configuration controlled 3d designs of mechanical parts and assemblies' ) ;
#78 = MECHANICAL_CONTEXT ( 'NONE', #212, 'mechanical' ) ;
#79 = VERTEX_POINT ( 'NONE', #192 ) ;
#80 = CARTESIAN_POINT ( 'NONE',  ( 2.498001805406600200E-016, 1.221245327087670000E-015, -0.3224315048277680000 ) ) ;
#81 = MANIFOLD_SOLID_BREP ( 'Imported1', #249 ) ;
#82 = DIRECTION ( 'NONE',  ( 1.000000000000000000, -8.881784197001252300E-016, 0.0000000000000000000 ) ) ;
#83 = CARTESIAN_POINT ( 'NONE',  ( 6.399223367058720400, -2.149526051605730600, 2.816426170435206300 ) ) ;
#84 = COORDINATED_UNIVERSAL_TIME_OFFSET ( 2, 0, .AHEAD. ) ;
#85 = CIRCLE ( 'NONE', #42, 6.349999999999999600 ) ;
#86 = AXIS2_PLACEMENT_3D ( 'NONE', #150, #10, #239 ) ;
#87 = CARTESIAN_POINT ( 'NONE',  ( -1.397942408394634800E-014, 6.425933592214899000, 2.930209449770897000 ) ) ;
#88 = CARTESIAN_POINT ( 'NONE',  ( 1.396338326217700800E-014, 6.349999999999995200, -0.3224315048277644500 ) ) ;
#89 = ORIENTED_EDGE ( 'NONE', *, *, #187, .F. ) ;
#90 = DIRECTION ( 'NONE',  ( 0.0000000000000000000, 0.0000000000000000000, 1.000000000000000000 ) ) ;
#91 = CC_DESIGN_DATE_AND_TIME_ASSIGNMENT ( #290, #128, ( #153 ) ) ;
#92 = EDGE_LOOP ( 'NONE', ( #173, #205, #241 ) ) ;
#93 = CARTESIAN_POINT ( 'NONE',  ( 6.354320390307551100, -6.425933592214899900, -0.6547995905085706200 ) ) ;
#94 = DIRECTION ( 'NONE',  ( 1.000000000000000000, 0.0000000000000000000, 0.0000000000000000000 ) ) ;
#95 = CARTESIAN_POINT ( 'NONE',  ( -4.272639081890632800, 2.149526051605733700, 0.001401736877947084000 ) ) ;
#96 = APPROVAL_DATE_TIME ( #151, #123 ) ;
#97 = CIRCLE ( 'NONE', #224, 6.349999999999999600 ) ;
#98 = CARTESIAN_POINT ( 'NONE',  ( -6.354320390307557400, -6.425933592214896400, -0.6547995905085770600 ) ) ;
#99 = ADVANCED_FACE ( 'NONE', ( #213 ), #17, .F. ) ;
#100 = APPROVAL_PERSON_ORGANIZATION ( #254, #123, #127 ) ;
#101 = CARTESIAN_POINT ( 'NONE',  ( 2.498001805406600200E-016, 1.221245327087670000E-015, 2.922431504827769800 ) ) ;
#102 = DIRECTION ( 'NONE',  ( 0.0000000000000000000, 0.0000000000000000000, 1.000000000000000000 ) ) ;
#103 = CALENDAR_DATE ( 2019, 21, 1 ) ;
#104 = PRODUCT ( '114-0112E BK7 bi-cv 12.7 F-60', '114-0112E BK7 bi-cv 12.7 F-60', '', ( #78 ) ) ;
#105 = ORIENTED_EDGE ( 'NONE', *, *, #263, .F. ) ;
#106 = DIRECTION ( 'NONE',  ( -1.000000000000000000, -2.317640452052330200E-016, 2.002913032610970000E-016 ) ) ;
#107 = CARTESIAN_POINT ( 'NONE',  ( -1.307656837017988900E-014, 2.149526051605733300, 2.489542304696584600 ) ) ;
#108 = CARTESIAN_POINT ( 'NONE',  ( -4.242658222908928200, 6.425933592214899000, 3.038500168903271800 ) ) ;
#109 = LOCAL_TIME ( 1, 7, 33.00000000000000000, #145 ) ;
#110 = CIRCLE ( 'NONE', #171, 6.349999999999999600 ) ;
#111 = CARTESIAN_POINT ( 'NONE',  ( -2.137711327361183900, -2.149526051605732000, 2.489542304696585400 ) ) ;
#112 = CARTESIAN_POINT ( 'NONE',  ( 1.208020266419153400E-014, -2.149526051605732400, 0.1104576953034199900 ) ) ;
#113 = CARTESIAN_POINT ( 'NONE',  ( 0.0000000000000000000, -3.552713678800500100E-015, -62.68999999999999800 ) ) ;
#114 = CARTESIAN_POINT ( 'NONE',  ( 2.498001805406600200E-016, 1.221245327087670000E-015, -0.3224315048277680000 ) ) ;
#115 = CC_DESIGN_PERSON_AND_ORGANIZATION_ASSIGNMENT ( #51, #237, ( #153 ) ) ;
#116 = PERSON_AND_ORGANIZATION ( #66, #22 ) ;
#117 = LINE ( 'NONE', #215, #3 ) ;
#118 = CARTESIAN_POINT ( 'NONE',  ( 4.272639081890636300, 2.149526051605731500, 0.001401736877952993100 ) ) ;
#119 = ADVANCED_FACE ( 'NONE', ( #269 ), #30, .F. ) ;
#120 = CARTESIAN_POINT ( 'NONE',  ( -2.137711327361178500, -2.149526051605730600, 0.1104576953034145400 ) ) ;
#121 = ORIENTED_EDGE ( 'NONE', *, *, #227, .T. ) ;
#122 = ORIENTED_EDGE ( 'NONE', *, *, #198, .F. ) ;
#123 = APPROVAL ( #167, 'UNSPECIFIED' ) ;
#124 =( NAMED_UNIT ( * ) SI_UNIT ( $, .STERADIAN. ) SOLID_ANGLE_UNIT ( ) );
#125 = CIRCLE ( 'NONE', #86, 6.349999999999999600 ) ;
#126 = VERTEX_POINT ( 'NONE', #135 ) ;
#127 = APPROVAL_ROLE ( '' ) ;
#128 = DATE_TIME_ROLE ( 'creation_date' ) ;
#129 = DIRECTION ( 'NONE',  ( -0.0000000000000000000, -0.0000000000000000000, -1.000000000000000000 ) ) ;
#130 = CIRCLE ( 'NONE', #13, 6.349999999999999600 ) ;
#131 = CARTESIAN_POINT ( 'NONE',  ( 4.272639081890634600, -2.149526051605730200, 2.598598263122058800 ) ) ;
#132 = DATE_AND_TIME ( #179, #72 ) ;
#133 = APPROVAL ( #260, 'UNSPECIFIED' ) ;
#134 = CARTESIAN_POINT ( 'NONE',  ( -6.354320390307554700, 6.425933592214897200, 3.254799590508575600 ) ) ;
#135 = CARTESIAN_POINT ( 'NONE',  ( -6.349999999999999600, 1.998896044546239400E-015, 2.922431504827769800 ) ) ;
#136 = VERTEX_POINT ( 'NONE', #65 ) ;
#137 = CARTESIAN_POINT ( 'NONE',  ( -1.100082335684251100E-014, -6.425933592214898100, 2.930209449770897000 ) ) ;
#138 = CARTESIAN_POINT ( 'NONE',  ( 2.498001805406600200E-016, 1.221245327087670000E-015, -0.3224315048277680000 ) ) ;
#139 = CARTESIAN_POINT ( 'NONE',  ( 4.242658222908928200, 6.425933592214899000, -0.4385001689032663200 ) ) ;
#140 = EDGE_LOOP ( 'NONE', ( #186, #121, #230, #262, #64, #21 ) ) ;
#141 = ORIENTED_EDGE ( 'NONE', *, *, #227, .F. ) ;
#142 = DIRECTION ( 'NONE',  ( 1.000000000000000000, 0.0000000000000000000, 0.0000000000000000000 ) ) ;
#143 = CC_DESIGN_APPROVAL ( #267, ( #153 ) ) ;
#144 = EDGE_CURVE ( 'NONE', #152, #25, #201, .T. ) ;
#145 = COORDINATED_UNIVERSAL_TIME_OFFSET ( 2, 0, .AHEAD. ) ;
#146 = ORIENTED_EDGE ( 'NONE', *, *, #263, .T. ) ;
#147 = CARTESIAN_POINT ( 'NONE',  ( -6.349999999999999600, 1.998896044546239400E-015, -0.3224315048277680000 ) ) ;
#148 = APPLICATION_PROTOCOL_DEFINITION ( 'international standard', 'config_control_design', 1994, #77 ) ;
#149 = DIRECTION ( 'NONE',  ( 1.000000000000000000, 0.0000000000000000000, 0.0000000000000000000 ) ) ;
#150 = CARTESIAN_POINT ( 'NONE',  ( 2.498001805406600200E-016, 1.221245327087670000E-015, -0.3224315048277680000 ) ) ;
#151 = DATE_AND_TIME ( #229, #244 ) ;
#152 = VERTEX_POINT ( 'NONE', #88 ) ;
#153 = PRODUCT_DEFINITION ( 'UNKNOWN', '', #204, #5 ) ;
#154 = CARTESIAN_POINT ( 'NONE',  ( -4.272639081890635500, 2.149526051605731100, 2.598598263122052600 ) ) ;
#155 = CARTESIAN_POINT ( 'NONE',  ( 6.399223367058717700, 2.149526051605732000, -0.2164261704351932400 ) ) ;
#156 = COORDINATED_UNIVERSAL_TIME_OFFSET ( 2, 0, .AHEAD. ) ;
#157 = DIRECTION ( 'NONE',  ( 2.317640452052330200E-016, 1.000000000000000000, 0.0000000000000000000 ) ) ;
#158 = CARTESIAN_POINT ( 'NONE',  ( 6.399223367058716000, -2.149526051605733700, -0.2164261704351937400 ) ) ;
#159 = ADVANCED_FACE ( 'NONE', ( #15 ), #63, .F. ) ;
#160 = ORIENTED_EDGE ( 'NONE', *, *, #20, .T. ) ;
#161 = LOCAL_TIME ( 1, 7, 33.00000000000000000, #287 ) ;
#162 = CARTESIAN_POINT ( 'NONE',  ( -4.336808689942017700E-015, -6.425933592214898100, -0.3302094497708975600 ) ) ;
#163 =( NAMED_UNIT ( * ) PLANE_ANGLE_UNIT ( ) SI_UNIT ( $, .RADIAN. ) );
#164 = LINE ( 'NONE', #32, #240 ) ;
#165 = AXIS2_PLACEMENT_3D ( 'NONE', #138, #228, #94 ) ;
#166 = CARTESIAN_POINT ( 'NONE',  ( 8.673617379884035500E-016, 6.425933592214899000, 2.930209449770902400 ) ) ;
#167 = APPROVAL_STATUS ( 'not_yet_approved' ) ;
#168 = APPROVAL_PERSON_ORGANIZATION ( #281, #267, #76 ) ;
#169 = CARTESIAN_POINT ( 'NONE',  ( 0.0000000000000000000, -3.552713678800500100E-015, 65.29000000000000600 ) ) ;
#170 = CARTESIAN_POINT ( 'NONE',  ( 4.242658222908922900, 6.425933592214900800, 3.038500168903277600 ) ) ;
#171 = AXIS2_PLACEMENT_3D ( 'NONE', #274, #225, #199 ) ;
#172 = FACE_OUTER_BOUND ( 'NONE', #140, .T. ) ;
#173 = ORIENTED_EDGE ( 'NONE', *, *, #67, .F. ) ;
#174 = CARTESIAN_POINT ( 'NONE',  ( -4.242658222908924700, -6.425933592214899900, 3.038500168903271800 ) ) ;
#175 = CARTESIAN_POINT ( 'NONE',  ( -6.399223367058716000, -2.149526051605734200, 2.816426170435199200 ) ) ;
#176 = CARTESIAN_POINT ( 'NONE',  ( -2.137711327361184700, 2.149526051605732000, 2.489542304696585400 ) ) ;
#177 = DIRECTION ( 'NONE',  ( 1.000000000000000000, -2.317640452052330200E-016, -2.002913032610970000E-016 ) ) ;
#178 = AXIS2_PLACEMENT_3D ( 'NONE', #80, #39, #242 ) ;
#179 = CALENDAR_DATE ( 2019, 21, 1 ) ;
#180 = VERTEX_POINT ( 'NONE', #46 ) ;
#181 = CARTESIAN_POINT ( 'NONE',  ( 2.137711327361183900, -2.149526051605732000, 0.1104576953034195500 ) ) ;
#182 = CARTESIAN_POINT ( 'NONE',  ( -4.242658222908922900, 6.425933592214900800, -0.4385001689032721500 ) ) ;
#183 = CARTESIAN_POINT ( 'NONE',  ( -2.122711131786301200, 6.425933592214900800, -0.3302094497708977800 ) ) ;
#184 = CC_DESIGN_PERSON_AND_ORGANIZATION_ASSIGNMENT ( #257, #236, ( #204 ) ) ;
#185 = FACE_OUTER_BOUND ( 'NONE', #221, .T. ) ;
#186 = ORIENTED_EDGE ( 'NONE', *, *, #198, .T. ) ;
#187 = EDGE_CURVE ( 'NONE', #56, #180, #110, .T. ) ;
#188 = CARTESIAN_POINT ( 'NONE',  ( -8.673617379884035500E-016, 2.149526051605733700, 0.1104576953034149700 ) ) ;
#189 = COORDINATED_UNIVERSAL_TIME_OFFSET ( 2, 0, .AHEAD. ) ;
#190 = ORIENTED_EDGE ( 'NONE', *, *, #1, .F. ) ;
#191 = AXIS2_PLACEMENT_3D ( 'NONE', #113, #177, #157 ) ;
#192 = CARTESIAN_POINT ( 'NONE',  ( 6.349999999999999600, 1.221245327087670000E-015, -0.3224315048277680000 ) ) ;
#193 = CIRCLE ( 'NONE', #165, 6.349999999999999600 ) ;
#194 = DIRECTION ( 'NONE',  ( -2.317640452052330200E-016, 1.000000000000000000, 0.0000000000000000000 ) ) ;
#195 = AXIS2_PLACEMENT_3D ( 'NONE', #265, #29, #6 ) ;
#196 = CARTESIAN_POINT ( 'NONE',  ( 2.137711327361178100, 2.149526051605732800, 2.489542304696590300 ) ) ;
#197 = CC_DESIGN_DATE_AND_TIME_ASSIGNMENT ( #43, #209, ( #279 ) ) ;
#198 = EDGE_CURVE ( 'NONE', #79, #152, #193, .T. ) ;
#199 = DIRECTION ( 'NONE',  ( 1.000000000000000000, 0.0000000000000000000, 0.0000000000000000000 ) ) ;
#200 = CARTESIAN_POINT ( 'NONE',  ( 1.100082335684250900E-014, -6.425933592214898100, -0.3302094497708921200 ) ) ;
#201 = CIRCLE ( 'NONE', #191, 62.68999999999999800 ) ;
#202 = CARTESIAN_POINT ( 'NONE',  ( 4.242658222908924700, -6.425933592214899900, -0.4385001689032663200 ) ) ;
#203 = DIRECTION ( 'NONE',  ( 1.000000000000000000, 0.0000000000000000000, 0.0000000000000000000 ) ) ;
#204 = PRODUCT_DEFINITION_FORMATION_WITH_SPECIFIED_SOURCE ( 'ANY', '', #104, .NOT_KNOWN. ) ;
#205 = ORIENTED_EDGE ( 'NONE', *, *, #50, .F. ) ;
#206 = CARTESIAN_POINT ( 'NONE',  ( -8.673617379884035500E-016, 6.425933592214899000, -0.3302094497708976700 ) ) ;
#207 = CARTESIAN_POINT ( 'NONE',  ( -2.137711327361177200, 2.149526051605733300, 0.1104576953034148900 ) ) ;
#208 = CC_DESIGN_PERSON_AND_ORGANIZATION_ASSIGNMENT ( #37, #55, ( #204 ) ) ;
#209 = DATE_TIME_ROLE ( 'classification_date' ) ;
#210 = PERSON_AND_ORGANIZATION_ROLE ( 'design_owner' ) ;
#211 = APPROVAL_PERSON_ORGANIZATION ( #116, #133, #235 ) ;
#212 = APPLICATION_CONTEXT ( 'configuration controlled 3d designs of mechanical parts and assemblies' ) ;
#213 = FACE_OUTER_BOUND ( 'NONE', #258, .T. ) ;
#214 = CARTESIAN_POINT ( 'NONE',  ( 4.336808689942017700E-015, -6.425933592214898100, 2.930209449770902400 ) ) ;
#215 = CARTESIAN_POINT ( 'NONE',  ( -6.349999999999999600, 1.998896044546239400E-015, -0.3224315048277680000 ) ) ;
#216 = DIRECTION ( 'NONE',  ( -0.0000000000000000000, -0.0000000000000000000, -1.000000000000000000 ) ) ;
#217 = PERSON_AND_ORGANIZATION ( #66, #22 ) ;
#218 = UNCERTAINTY_MEASURE_WITH_UNIT (LENGTH_MEASURE( 1.000000000000000100E-005 ), #7, 'distance_accuracy_value', 'NONE');
#219 = CC_DESIGN_SECURITY_CLASSIFICATION ( #279, ( #204 ) ) ;
#220 = ORIENTED_EDGE ( 'NONE', *, *, #144, .F. ) ;
#221 = EDGE_LOOP ( 'NONE', ( #190, #146, #259, #70, #73, #160 ) ) ;
#222 = CARTESIAN_POINT ( 'NONE',  ( 2.498001805406600200E-016, 1.221245327087670000E-015, -0.3224315048277680000 ) ) ;
#223 = LOCAL_TIME ( 1, 7, 33.00000000000000000, #156 ) ;
#224 = AXIS2_PLACEMENT_3D ( 'NONE', #27, #102, #142 ) ;
#225 = DIRECTION ( 'NONE',  ( -0.0000000000000000000, -0.0000000000000000000, -1.000000000000000000 ) ) ;
#226 = ADVANCED_FACE ( 'NONE', ( #185 ), #33, .T. ) ;
#227 = EDGE_CURVE ( 'NONE', #152, #44, #130, .T. ) ;
#228 = DIRECTION ( 'NONE',  ( 0.0000000000000000000, 0.0000000000000000000, 1.000000000000000000 ) ) ;
#229 = CALENDAR_DATE ( 2019, 21, 1 ) ;
#230 = ORIENTED_EDGE ( 'NONE', *, *, #1, .T. ) ;
#231 = CC_DESIGN_APPROVAL ( #133, ( #279 ) ) ;
#232 = CARTESIAN_POINT ( 'NONE',  ( -6.399223367058718600, 2.149526051605735100, -0.2164261704351996800 ) ) ;
#233 = ADVANCED_FACE ( 'NONE', ( #272 ), #293, .F. ) ;
#234 = DIRECTION ( 'NONE',  ( -0.0000000000000000000, -0.0000000000000000000, -1.000000000000000000 ) ) ;
#235 = APPROVAL_ROLE ( '' ) ;
#236 = PERSON_AND_ORGANIZATION_ROLE ( 'creator' ) ;
#237 = PERSON_AND_ORGANIZATION_ROLE ( 'creator' ) ;
#238 = CARTESIAN_POINT ( 'NONE',  ( 2.498001805406600200E-016, 1.221245327087670000E-015, 2.922431504827769800 ) ) ;
#239 = DIRECTION ( 'NONE',  ( 1.000000000000000000, 0.0000000000000000000, 0.0000000000000000000 ) ) ;
#240 = VECTOR ( 'NONE', #284, 1000.000000000000000 ) ;
#241 = ORIENTED_EDGE ( 'NONE', *, *, #20, .F. ) ;
#242 = DIRECTION ( 'NONE',  ( 1.000000000000000000, 0.0000000000000000000, 0.0000000000000000000 ) ) ;
#243 = CC_DESIGN_APPROVAL ( #123, ( #204 ) ) ;
#244 = LOCAL_TIME ( 1, 7, 33.00000000000000000, #189 ) ;
#245 = CIRCLE ( 'NONE', #8, 6.349999999999999600 ) ;
#246 = CARTESIAN_POINT ( 'NONE',  ( -2.122711131786310100, 6.425933592214899000, 2.930209449770898400 ) ) ;
#247 = CARTESIAN_POINT ( 'NONE',  ( 1.397942408394634800E-014, 6.425933592214899000, -0.3302094497708921200 ) ) ;
#248 = CYLINDRICAL_SURFACE ( 'NONE', #178, 6.349999999999999600 ) ;
#249 = CLOSED_SHELL ( 'NONE', ( #233, #99, #71, #226, #159, #119 ) ) ;
#250 = ADVANCED_BREP_SHAPE_REPRESENTATION ( '114-0112E BK7 bi-cv 12.7 F-60', ( #81, #195 ), #49 ) ;
#251 = DIRECTION ( 'NONE',  ( 1.000000000000000000, 0.0000000000000000000, 0.0000000000000000000 ) ) ;
#252 = AXIS2_PLACEMENT_3D ( 'NONE', #101, #234, #31 ) ;
#253 = CARTESIAN_POINT ( 'NONE',  ( 2.137711327361184700, 2.149526051605732000, 0.1104576953034200500 ) ) ;
#254 = PERSON_AND_ORGANIZATION ( #66, #22 ) ;
#255 = CIRCLE ( 'NONE', #23, 62.68999999999999800 ) ;
#256 = CARTESIAN_POINT ( 'NONE',  ( -2.602085213965211000E-015, -2.149526051605732000, 0.1104576953034146500 ) ) ;
#257 = PERSON_AND_ORGANIZATION ( #66, #22 ) ;
#258 = EDGE_LOOP ( 'NONE', ( #52, #278, #89 ) ) ;
#259 = ORIENTED_EDGE ( 'NONE', *, *, #75, .T. ) ;
#260 = APPROVAL_STATUS ( 'not_yet_approved' ) ;
#261 = PRODUCT_DEFINITION_SHAPE ( 'NONE', 'NONE',  #153 ) ;
#262 = ORIENTED_EDGE ( 'NONE', *, *, #50, .T. ) ;
#263 = EDGE_CURVE ( 'NONE', #44, #25, #97, .T. ) ;
#264 = CARTESIAN_POINT ( 'NONE',  ( 1.101997988807055200E-014, -6.349999999999997900, -0.3224315048277644500 ) ) ;
#265 = CARTESIAN_POINT ( 'NONE',  ( 0.0000000000000000000, 0.0000000000000000000, 0.0000000000000000000 ) ) ;
#266 = CARTESIAN_POINT ( 'NONE',  ( 2.498001805406600200E-016, 1.221245327087670000E-015, 2.922431504827769800 ) ) ;
#267 = APPROVAL ( #35, 'UNSPECIFIED' ) ;
#268 = CARTESIAN_POINT ( 'NONE',  ( 6.354320390307553800, 6.425933592214900800, 3.254799590508582300 ) ) ;
#269 = FACE_OUTER_BOUND ( 'NONE', #92, .T. ) ;
#270 = PRODUCT_RELATED_PRODUCT_CATEGORY ( 'detail', '', ( #104 ) ) ;
#271 = CALENDAR_DATE ( 2019, 21, 1 ) ;
#272 = FACE_OUTER_BOUND ( 'NONE', #292, .T. ) ;
#273 = CARTESIAN_POINT ( 'NONE',  ( 4.272639081890634600, -2.149526051605732400, 0.001401736877952505000 ) ) ;
#274 = CARTESIAN_POINT ( 'NONE',  ( 2.498001805406600200E-016, 1.221245327087670000E-015, 2.922431504827769800 ) ) ;
#275 = PERSON_AND_ORGANIZATION ( #66, #22 ) ;
#276 = DIRECTION ( 'NONE',  ( 0.0000000000000000000, 0.0000000000000000000, 1.000000000000000000 ) ) ;
#277 = EDGE_CURVE ( 'NONE', #136, #56, #291, .T. ) ;
#278 = ORIENTED_EDGE ( 'NONE', *, *, #67, .T. ) ;
#279 = SECURITY_CLASSIFICATION ( '', '', #53 ) ;
#280 = CARTESIAN_POINT ( 'NONE',  ( -4.242658222908926500, -6.425933592214898100, -0.4385001689032721500 ) ) ;
#281 = PERSON_AND_ORGANIZATION ( #66, #22 ) ;
#282 = CARTESIAN_POINT ( 'NONE',  ( -2.122711131786305200, -6.425933592214898100, -0.3302094497708977200 ) ) ;
#283 = EDGE_CURVE ( 'NONE', #79, #56, #164, .T. ) ;
#284 = DIRECTION ( 'NONE',  ( 0.0000000000000000000, 0.0000000000000000000, 1.000000000000000000 ) ) ;
#285 = APPROVAL_DATE_TIME ( #132, #133 ) ;
#286 = CARTESIAN_POINT ( 'NONE',  ( 6.349999999999999600, 1.221245327087670000E-015, 2.922431504827769800 ) ) ;
#287 = COORDINATED_UNIVERSAL_TIME_OFFSET ( 2, 0, .AHEAD. ) ;
#288 = CARTESIAN_POINT ( 'NONE',  ( 2.122711131786301200, 6.425933592214900800, 2.930209449770903300 ) ) ;
#289 = CARTESIAN_POINT ( 'NONE',  ( 3.469446951953614200E-015, -2.149526051605732400, 2.489542304696590300 ) ) ;
#290 = DATE_AND_TIME ( #103, #161 ) ;
#291 = CIRCLE ( 'NONE', #252, 6.349999999999999600 ) ;
#292 = EDGE_LOOP ( 'NONE', ( #141, #28, #105 ) ) ;
#293 =( BOUNDED_SURFACE ( )  B_SPLINE_SURFACE ( 3, 3, ( 
 ( #24, #182, #183, #206 ),
 ( #232, #95, #207, #188 ),
 ( #26, #74, #120, #256 ),
 ( #98, #280, #282, #162 ) ),
 .UNSPECIFIED., .F., .F., .F. ) 
 B_SPLINE_SURFACE_WITH_KNOTS ( ( 4, 4 ),
 ( 4, 4 ),
 ( 0.0000000000000000000, 1.000000000000000000 ),
 ( 0.0000000000000000000, 1.000000000000000000 ),
 .UNSPECIFIED. ) 
 GEOMETRIC_REPRESENTATION_ITEM ( )  RATIONAL_B_SPLINE_SURFACE ( (
 ( 1.000000000000000000, 0.9991319149609232400, 0.9991319149609232400, 1.000000000000000000),
 ( 0.9964884410084448000, 0.9956234043011924500, 0.9956234043011924500, 0.9964884410084448000),
 ( 0.9964884410084448000, 0.9956234043011924500, 0.9956234043011924500, 0.9964884410084448000),
 ( 1.000000000000000000, 0.9991319149609232400, 0.9991319149609232400, 1.000000000000000000) ) ) 
 REPRESENTATION_ITEM ( '' )  SURFACE ( )  );
#294 = CARTESIAN_POINT ( 'NONE',  ( -6.354320390307551100, -6.425933592214899900, 3.254799590508575600 ) ) ;
#295 = APPROVAL_DATE_TIME ( #38, #267 ) ;
ENDSEC;
END-ISO-10303-21;
