ISO-10303-21;
HEADER;
FILE_DESCRIPTION (( 'STEP AP203' ),
    '1' );
FILE_NAME ('114-0110E BK7 bi-cv 12.7 F-50.STEP',
    '2019-01-20T22:50:33',
    ( '' ),
    ( '' ),
    'SwSTEP 2.0',
    'SolidWorks 2017',
    '' );
FILE_SCHEMA (( 'CONFIG_CONTROL_DESIGN' ));
ENDSEC;

DATA;
#1 = CARTESIAN_POINT ( 'NONE',  ( -1.116884925324541500E-014, -2.152808633735340900, 2.467270713277545100 ) ) ;
#2 = CARTESIAN_POINT ( 'NONE',  ( 8.673617379884035500E-016, -2.152808633735341400, 2.467270713277550000 ) ) ;
#3 = ORIENTED_EDGE ( 'NONE', *, *, #230, .T. ) ;
#4 = PERSON_AND_ORGANIZATION_ROLE ( 'classification_officer' ) ;
#5 = APPROVAL_DATE_TIME ( #292, #182 ) ;
#6 = ORIENTED_EDGE ( 'NONE', *, *, #96, .F. ) ;
#7 = PERSON_AND_ORGANIZATION ( #238, #13 ) ;
#8 = PERSON_AND_ORGANIZATION ( #238, #13 ) ;
#9 = ORIENTED_EDGE ( 'NONE', *, *, #102, .T. ) ;
#10 = PRODUCT_DEFINITION ( 'UNKNOWN', '', #81, #18 ) ;
#11 =( BOUNDED_SURFACE ( )  B_SPLINE_SURFACE ( 3, 3, ( 
 ( #257, #12, #147, #235 ),
 ( #19, #109, #290, #86 ),
 ( #89, #17, #195, #242 ),
 ( #61, #59, #21, #212 ) ),
 .UNSPECIFIED., .F., .F., .T. ) 
 B_SPLINE_SURFACE_WITH_KNOTS ( ( 4, 4 ),
 ( 4, 4 ),
 ( 0.0000000000000000000, 1.000000000000000000 ),
 ( 0.0000000000000000000, 1.000000000000000000 ),
 .UNSPECIFIED. ) 
 GEOMETRIC_REPRESENTATION_ITEM ( )  RATIONAL_B_SPLINE_SURFACE ( (
 ( 1.000000000000000000, 0.9987514613572653400, 0.9987514613572653400, 1.000000000000000000),
 ( 0.9949509033178651800, 0.9937086686674491100, 0.9937086686674491100, 0.9949509033178651800),
 ( 0.9949509033178651800, 0.9937086686674491100, 0.9937086686674491100, 0.9949509033178651800),
 ( 1.000000000000000000, 0.9987514613572653400, 0.9987514613572653400, 1.000000000000000000) ) ) 
 REPRESENTATION_ITEM ( '' )  SURFACE ( )  );
#12 = CARTESIAN_POINT ( 'NONE',  ( -4.235606839999024800, 6.425816684416454400, -0.5258507119332676000 ) ) ;
#13 = ORGANIZATION ( 'UNSPECIFIED', 'UNSPECIFIED', '' ) ;
#14 = EDGE_LOOP ( 'NONE', ( #79, #254, #48 ) ) ;
#15 = DIRECTION ( 'NONE',  ( 0.0000000000000000000, 0.0000000000000000000, 1.000000000000000000 ) ) ;
#16 = EDGE_CURVE ( 'NONE', #280, #229, #186, .T. ) ;
#17 = CARTESIAN_POINT ( 'NONE',  ( -4.278759906839828100, -2.152808633735337800, 0.001734812393268739000 ) ) ;
#18 = DESIGN_CONTEXT ( 'detailed design', #278, 'design' ) ;
#19 = CARTESIAN_POINT ( 'NONE',  ( -6.404118470585979500, 2.152808633735355600, -0.2597634812755557100 ) ) ;
#20 = UNCERTAINTY_MEASURE_WITH_UNIT (LENGTH_MEASURE( 1.000000000000000100E-005 ), #31, 'distance_accuracy_value', 'NONE');
#21 = CARTESIAN_POINT ( 'NONE',  ( -2.119788398296781100, -6.425816684416439300, -0.3961773711637014400 ) ) ;
#22 = CARTESIAN_POINT ( 'NONE',  ( -6.349999999999999600, 1.998896044546239400E-015, -0.3868490940698000000 ) ) ;
#23 = VERTEX_POINT ( 'NONE', #55 ) ;
#24 = CARTESIAN_POINT ( 'NONE',  ( 2.119788398296775800, 6.425816684416451700, 2.996177371163710700 ) ) ;
#25 = CARTESIAN_POINT ( 'NONE',  ( 2.435492103954561500E-014, 2.152808633735353400, 0.1327292867224457400 ) ) ;
#26 = CC_DESIGN_PERSON_AND_ORGANIZATION_ASSIGNMENT ( #256, #184, ( #81 ) ) ;
#27 = CARTESIAN_POINT ( 'NONE',  ( 4.278759906839830800, -2.152808633735340900, 0.001734812393265107000 ) ) ;
#28 = APPROVAL_STATUS ( 'not_yet_approved' ) ;
#29 = CARTESIAN_POINT ( 'NONE',  ( 6.339530281850273700, -6.425816684416442800, 3.384711686941731300 ) ) ;
#30 = DIRECTION ( 'NONE',  ( 1.000000000000000000, 0.0000000000000000000, 0.0000000000000000000 ) ) ;
#31 =( LENGTH_UNIT ( ) NAMED_UNIT ( * ) SI_UNIT ( .MILLI., .METRE. ) );
#32 = SECURITY_CLASSIFICATION ( '', '', #74 ) ;
#33 = ORIENTED_EDGE ( 'NONE', *, *, #84, .T. ) ;
#34 = DATE_AND_TIME ( #206, #99 ) ;
#35 = COORDINATED_UNIVERSAL_TIME_OFFSET ( 2, 0, .AHEAD. ) ;
#36 = CIRCLE ( 'NONE', #192, 6.349999999999999600 ) ;
#37 = EDGE_LOOP ( 'NONE', ( #233, #63, #209, #44, #53, #3 ) ) ;
#38 = CARTESIAN_POINT ( 'NONE',  ( 2.498001805406600200E-016, 1.221245327087670000E-015, -0.3868490940698000000 ) ) ;
#39 = PERSON_AND_ORGANIZATION ( #238, #13 ) ;
#40 = CARTESIAN_POINT ( 'NONE',  ( -3.552713678800500100E-015, 7.105427357601000300E-015, -52.31000000000000200 ) ) ;
#41 = CARTESIAN_POINT ( 'NONE',  ( 2.172266402855071100E-014, -6.349999999999992500, -0.3868490940698045600 ) ) ;
#42 = APPROVAL_PERSON_ORGANIZATION ( #39, #255, #142 ) ;
#43 = AXIS2_PLACEMENT_3D ( 'NONE', #217, #116, #70 ) ;
#44 = ORIENTED_EDGE ( 'NONE', *, *, #16, .T. ) ;
#45 = CARTESIAN_POINT ( 'NONE',  ( -6.339530281850284300, 6.425816684416452600, 3.384711686941738400 ) ) ;
#46 = CARTESIAN_POINT ( 'NONE',  ( 2.119788398296796200, -6.425816684416441000, -0.3961773711637026100 ) ) ;
#47 = CARTESIAN_POINT ( 'NONE',  ( 2.141385155006180400, 2.152808633735352500, 0.1327292867224445800 ) ) ;
#48 = ORIENTED_EDGE ( 'NONE', *, *, #230, .F. ) ;
#49 = CARTESIAN_POINT ( 'NONE',  ( 6.404118470585968800, -2.152808633735341800, -0.2597634812755502700 ) ) ;
#50 = CARTESIAN_POINT ( 'NONE',  ( 6.404118470585946600, -2.152808633735341800, 2.859763481275546600 ) ) ;
#51 = CARTESIAN_POINT ( 'NONE',  ( 2.141385155006158200, 2.152808633735351600, 2.467270713277557500 ) ) ;
#52 = CC_DESIGN_PERSON_AND_ORGANIZATION_ASSIGNMENT ( #57, #4, ( #32 ) ) ;
#53 = ORIENTED_EDGE ( 'NONE', *, *, #194, .T. ) ;
#54 = CC_DESIGN_SECURITY_CLASSIFICATION ( #32, ( #81 ) ) ;
#55 = CARTESIAN_POINT ( 'NONE',  ( 2.525013406339555500E-014, 6.349999999999999600, -0.3868490940698045600 ) ) ;
#56 = AXIS2_PLACEMENT_3D ( 'NONE', #150, #115, #138 ) ;
#57 = PERSON_AND_ORGANIZATION ( #238, #13 ) ;
#58 = CIRCLE ( 'NONE', #171, 52.31000000000000200 ) ;
#59 = CARTESIAN_POINT ( 'NONE',  ( -4.235606839999028300, -6.425816684416438400, -0.5258507119332609400 ) ) ;
#60 = COORDINATED_UNIVERSAL_TIME_OFFSET ( 2, 0, .AHEAD. ) ;
#61 = CARTESIAN_POINT ( 'NONE',  ( -6.339530281850310100, -6.425816684416438400, -0.7847116869417331000 ) ) ;
#62 = EDGE_CURVE ( 'NONE', #107, #280, #127, .T. ) ;
#63 = ORIENTED_EDGE ( 'NONE', *, *, #96, .T. ) ;
#64 = DIRECTION ( 'NONE',  ( 0.0000000000000000000, 0.0000000000000000000, 1.000000000000000000 ) ) ;
#65 = DIRECTION ( 'NONE',  ( 1.000000000000000000, -2.777535460507749800E-016, -5.207525401099160000E-016 ) ) ;
#66 = CARTESIAN_POINT ( 'NONE',  ( 2.498001805406600200E-016, 1.221245327087670000E-015, -0.3868490940698000000 ) ) ;
#67 = LINE ( 'NONE', #240, #114 ) ;
#68 = CARTESIAN_POINT ( 'NONE',  ( 2.498001805406600200E-016, 1.221245327087670000E-015, -0.3868490940698000000 ) ) ;
#69 = AXIS2_PLACEMENT_3D ( 'NONE', #134, #220, #269 ) ;
#70 = DIRECTION ( 'NONE',  ( 1.000000000000000000, 0.0000000000000000000, 0.0000000000000000000 ) ) ;
#71 = APPROVAL_STATUS ( 'not_yet_approved' ) ;
#72 = ADVANCED_FACE ( 'NONE', ( #162 ), #11, .F. ) ;
#73 = CARTESIAN_POINT ( 'NONE',  ( -6.339530281850283400, -6.425816684416441900, 3.384711686941731300 ) ) ;
#74 = SECURITY_CLASSIFICATION_LEVEL ( 'unclassified' ) ;
#75 = ORIENTED_EDGE ( 'NONE', *, *, #16, .F. ) ;
#76 = CARTESIAN_POINT ( 'NONE',  ( 0.0000000000000000000, 0.0000000000000000000, 0.0000000000000000000 ) ) ;
#77 = CARTESIAN_POINT ( 'NONE',  ( 2.141385155006157800, -2.152808633735340900, 2.467270713277550000 ) ) ;
#78 = PRODUCT_RELATED_PRODUCT_CATEGORY ( 'detail', '', ( #289 ) ) ;
#79 = ORIENTED_EDGE ( 'NONE', *, *, #84, .F. ) ;
#80 = AXIS2_PLACEMENT_3D ( 'NONE', #76, #157, #202 ) ;
#81 = PRODUCT_DEFINITION_FORMATION_WITH_SPECIFIED_SOURCE ( 'ANY', '', #289, .NOT_KNOWN. ) ;
#82 = EDGE_CURVE ( 'NONE', #23, #107, #58, .T. ) ;
#83 = CARTESIAN_POINT ( 'NONE',  ( 6.349999999999999600, 1.221245327087670000E-015, -0.3868490940698000000 ) ) ;
#84 = EDGE_CURVE ( 'NONE', #201, #267, #172, .T. ) ;
#85 = CALENDAR_DATE ( 2019, 21, 1 ) ;
#86 = CARTESIAN_POINT ( 'NONE',  ( 1.214306433183765000E-014, 2.152808633735353800, 0.1327292867224453300 ) ) ;
#87 = DIRECTION ( 'NONE',  ( 2.777535460507752800E-016, 1.000000000000000000, 5.305978898036496300E-016 ) ) ;
#88 = LOCAL_TIME ( 0, 50, 33.00000000000000000, #266 ) ;
#89 = CARTESIAN_POINT ( 'NONE',  ( -6.404118470585981300, -2.152808633735337400, -0.2597634812755487100 ) ) ;
#90 = CARTESIAN_POINT ( 'NONE',  ( -1.102299479572578500E-014, -6.349999999999992500, 2.986849094069803800 ) ) ;
#91 =( BOUNDED_SURFACE ( )  B_SPLINE_SURFACE ( 3, 3, ( 
 ( #243, #149, #24, #97 ),
 ( #200, #154, #51, #118 ),
 ( #50, #274, #77, #2 ),
 ( #29, #250, #179, #223 ) ),
 .UNSPECIFIED., .F., .F., .F. ) 
 B_SPLINE_SURFACE_WITH_KNOTS ( ( 4, 4 ),
 ( 4, 4 ),
 ( 0.0000000000000000000, 1.000000000000000000 ),
 ( 0.0000000000000000000, 1.000000000000000000 ),
 .UNSPECIFIED. ) 
 GEOMETRIC_REPRESENTATION_ITEM ( )  RATIONAL_B_SPLINE_SURFACE ( (
 ( 1.000000000000000000, 0.9987514613572653400, 0.9987514613572653400, 1.000000000000000000),
 ( 0.9949509033178651800, 0.9937086686674491100, 0.9937086686674491100, 0.9949509033178651800),
 ( 0.9949509033178651800, 0.9937086686674491100, 0.9937086686674491100, 0.9949509033178651800),
 ( 1.000000000000000000, 0.9987514613572653400, 0.9987514613572653400, 1.000000000000000000) ) ) 
 REPRESENTATION_ITEM ( '' )  SURFACE ( )  );
#92 = CARTESIAN_POINT ( 'NONE',  ( 6.404118470585968800, 2.152808633735351600, -0.2597634812755573200 ) ) ;
#93 = CARTESIAN_POINT ( 'NONE',  ( -6.404118470585956400, 2.152808633735352000, 2.859763481275553700 ) ) ;
#94 = PERSON_AND_ORGANIZATION_ROLE ( 'design_supplier' ) ;
#95 = CARTESIAN_POINT ( 'NONE',  ( -6.404118470585956400, -2.152808633735341400, 2.859763481275546600 ) ) ;
#96 = EDGE_CURVE ( 'NONE', #197, #107, #164, .T. ) ;
#97 = CARTESIAN_POINT ( 'NONE',  ( 8.673617379884035500E-016, 6.425816684416452600, 2.996177371163710700 ) ) ;
#98 =( NAMED_UNIT ( * ) SI_UNIT ( $, .STERADIAN. ) SOLID_ANGLE_UNIT ( ) );
#99 = LOCAL_TIME ( 0, 50, 33.00000000000000000, #137 ) ;
#100 = CIRCLE ( 'NONE', #43, 6.349999999999999600 ) ;
#101 = APPROVAL_STATUS ( 'not_yet_approved' ) ;
#102 = EDGE_CURVE ( 'NONE', #277, #201, #293, .T. ) ;
#103 = VECTOR ( 'NONE', #260, 1000.000000000000000 ) ;
#104 =( BOUNDED_SURFACE ( )  B_SPLINE_SURFACE ( 3, 3, ( 
 ( #136, #135, #273, #222 ),
 ( #25, #47, #219, #92 ),
 ( #151, #291, #27, #49 ),
 ( #249, #46, #245, #170 ) ),
 .UNSPECIFIED., .F., .F., .F. ) 
 B_SPLINE_SURFACE_WITH_KNOTS ( ( 4, 4 ),
 ( 4, 4 ),
 ( 0.0000000000000000000, 1.000000000000000000 ),
 ( 0.0000000000000000000, 1.000000000000000000 ),
 .UNSPECIFIED. ) 
 GEOMETRIC_REPRESENTATION_ITEM ( )  RATIONAL_B_SPLINE_SURFACE ( (
 ( 1.000000000000000000, 0.9987514613572653400, 0.9987514613572653400, 1.000000000000000000),
 ( 0.9949509033178651800, 0.9937086686674491100, 0.9937086686674491100, 0.9949509033178651800),
 ( 0.9949509033178651800, 0.9937086686674491100, 0.9937086686674491100, 0.9949509033178651800),
 ( 1.000000000000000000, 0.9987514613572653400, 0.9987514613572653400, 1.000000000000000000) ) ) 
 REPRESENTATION_ITEM ( '' )  SURFACE ( )  );
#105 = ORIENTED_EDGE ( 'NONE', *, *, #148, .F. ) ;
#106 =( BOUNDED_SURFACE ( )  B_SPLINE_SURFACE ( 3, 3, ( 
 ( #190, #268, #287, #45 ),
 ( #244, #174, #113, #93 ),
 ( #1, #246, #198, #95 ),
 ( #294, #140, #176, #73 ) ),
 .UNSPECIFIED., .F., .F., .F. ) 
 B_SPLINE_SURFACE_WITH_KNOTS ( ( 4, 4 ),
 ( 4, 4 ),
 ( 0.0000000000000000000, 1.000000000000000000 ),
 ( 0.0000000000000000000, 1.000000000000000000 ),
 .UNSPECIFIED. ) 
 GEOMETRIC_REPRESENTATION_ITEM ( )  RATIONAL_B_SPLINE_SURFACE ( (
 ( 1.000000000000000000, 0.9987514613572653400, 0.9987514613572653400, 1.000000000000000000),
 ( 0.9949509033178651800, 0.9937086686674491100, 0.9937086686674491100, 0.9949509033178651800),
 ( 0.9949509033178651800, 0.9937086686674491100, 0.9937086686674491100, 0.9949509033178651800),
 ( 1.000000000000000000, 0.9987514613572653400, 0.9987514613572653400, 1.000000000000000000) ) ) 
 REPRESENTATION_ITEM ( '' )  SURFACE ( )  );
#107 = VERTEX_POINT ( 'NONE', #41 ) ;
#108 = DIRECTION ( 'NONE',  ( 0.0000000000000000000, 1.000000000000000000, 7.958968347054744900E-016 ) ) ;
#109 = CARTESIAN_POINT ( 'NONE',  ( -4.278759906839827200, 2.152808633735354700, 0.001734812393261691900 ) ) ;
#110 = AXIS2_PLACEMENT_3D ( 'NONE', #165, #216, #108 ) ;
#111 = FACE_OUTER_BOUND ( 'NONE', #37, .T. ) ;
#112 = DIRECTION ( 'NONE',  ( -0.0000000000000000000, -0.0000000000000000000, -1.000000000000000000 ) ) ;
#113 = CARTESIAN_POINT ( 'NONE',  ( -4.278759906839819200, 2.152808633735352000, 2.598265187606739100 ) ) ;
#114 = VECTOR ( 'NONE', #64, 1000.000000000000000 ) ;
#115 = DIRECTION ( 'NONE',  ( -0.0000000000000000000, -0.0000000000000000000, -1.000000000000000000 ) ) ;
#116 = DIRECTION ( 'NONE',  ( 0.0000000000000000000, 0.0000000000000000000, 1.000000000000000000 ) ) ;
#117 = APPROVAL_ROLE ( '' ) ;
#118 = CARTESIAN_POINT ( 'NONE',  ( 1.734723475976807100E-015, 2.152808633735352000, 2.467270713277557100 ) ) ;
#119 = EDGE_LOOP ( 'NONE', ( #145, #259, #123 ) ) ;
#120 = APPLICATION_PROTOCOL_DEFINITION ( 'international standard', 'config_control_design', 1994, #278 ) ;
#121 = PERSON_AND_ORGANIZATION_ROLE ( 'design_owner' ) ;
#122 = AXIS2_PLACEMENT_3D ( 'NONE', #191, #211, #193 ) ;
#123 = ORIENTED_EDGE ( 'NONE', *, *, #62, .F. ) ;
#124 = APPROVAL_PERSON_ORGANIZATION ( #178, #247, #117 ) ;
#125 = EDGE_CURVE ( 'NONE', #197, #277, #67, .T. ) ;
#126 = DIRECTION ( 'NONE',  ( 0.0000000000000000000, 0.0000000000000000000, 1.000000000000000000 ) ) ;
#127 = CIRCLE ( 'NONE', #276, 6.349999999999999600 ) ;
#128 = CC_DESIGN_DATE_AND_TIME_ASSIGNMENT ( #34, #139, ( #32 ) ) ;
#129 = COORDINATED_UNIVERSAL_TIME_OFFSET ( 2, 0, .AHEAD. ) ;
#130 = SHAPE_DEFINITION_REPRESENTATION ( #204, #153 ) ;
#131 = AXIS2_PLACEMENT_3D ( 'NONE', #66, #183, #30 ) ;
#132 = DIRECTION ( 'NONE',  ( 1.000000000000000000, 0.0000000000000000000, 0.0000000000000000000 ) ) ;
#133 = EDGE_LOOP ( 'NONE', ( #239, #286, #6 ) ) ;
#134 = CARTESIAN_POINT ( 'NONE',  ( 2.498001805406600200E-016, 1.221245327087670000E-015, 2.986849094069799800 ) ) ;
#135 = CARTESIAN_POINT ( 'NONE',  ( 2.119788398296798900, 6.425816684416451700, -0.3961773711637094400 ) ) ;
#136 = CARTESIAN_POINT ( 'NONE',  ( 2.526633469235053900E-014, 6.425816684416453500, -0.3961773711637084400 ) ) ;
#137 = COORDINATED_UNIVERSAL_TIME_OFFSET ( 2, 0, .AHEAD. ) ;
#138 = DIRECTION ( 'NONE',  ( 1.000000000000000000, 0.0000000000000000000, 0.0000000000000000000 ) ) ;
#139 = DATE_TIME_ROLE ( 'classification_date' ) ;
#140 = CARTESIAN_POINT ( 'NONE',  ( -2.119788398296785600, -6.425816684416441000, 2.996177371163700100 ) ) ;
#141 = ORIENTED_EDGE ( 'NONE', *, *, #125, .T. ) ;
#142 = APPROVAL_ROLE ( '' ) ;
#143 = CC_DESIGN_APPROVAL ( #182, ( #32 ) ) ;
#144 = MANIFOLD_SOLID_BREP ( 'Imported1', #159 ) ;
#145 = ORIENTED_EDGE ( 'NONE', *, *, #82, .F. ) ;
#146 = CYLINDRICAL_SURFACE ( 'NONE', #122, 6.349999999999999600 ) ;
#147 = CARTESIAN_POINT ( 'NONE',  ( -2.119788398296776700, 6.425816684416453500, -0.3961773711637082700 ) ) ;
#148 = EDGE_CURVE ( 'NONE', #201, #229, #168, .T. ) ;
#149 = CARTESIAN_POINT ( 'NONE',  ( 4.235606839999009700, 6.425816684416450800, 3.125850711933268600 ) ) ;
#150 = CARTESIAN_POINT ( 'NONE',  ( 2.498001805406600200E-016, 1.221245327087670000E-015, 2.986849094069799800 ) ) ;
#151 = CARTESIAN_POINT ( 'NONE',  ( 2.315902057556818100E-014, -2.152808633735340000, 0.1327292867224528800 ) ) ;
#152 = ADVANCED_FACE ( 'NONE', ( #111 ), #146, .T. ) ;
#153 = ADVANCED_BREP_SHAPE_REPRESENTATION ( '114-0110E BK7 bi-cv 12.7 F-50', ( #144, #80 ), #241 ) ;
#154 = CARTESIAN_POINT ( 'NONE',  ( 4.278759906839809400, 2.152808633735351600, 2.598265187606740000 ) ) ;
#155 = APPROVAL_PERSON_ORGANIZATION ( #7, #182, #177 ) ;
#156 = ORIENTED_EDGE ( 'NONE', *, *, #205, .T. ) ;
#157 = DIRECTION ( 'NONE',  ( 0.0000000000000000000, 0.0000000000000000000, 1.000000000000000000 ) ) ;
#158 = APPROVAL_DATE_TIME ( #213, #255 ) ;
#159 = CLOSED_SHELL ( 'NONE', ( #72, #271, #279, #152, #203, #185 ) ) ;
#160 = CC_DESIGN_APPROVAL ( #255, ( #81 ) ) ;
#161 = PERSON_AND_ORGANIZATION ( #238, #13 ) ;
#162 = FACE_OUTER_BOUND ( 'NONE', #133, .T. ) ;
#163 = DATE_AND_TIME ( #258, #88 ) ;
#164 = CIRCLE ( 'NONE', #226, 6.349999999999999600 ) ;
#165 = CARTESIAN_POINT ( 'NONE',  ( 3.552713678800500100E-015, 7.105427357601000300E-015, 54.91000000000000400 ) ) ;
#166 = CARTESIAN_POINT ( 'NONE',  ( 2.498001805406600200E-016, 1.221245327087670000E-015, 2.986849094069799800 ) ) ;
#167 = CALENDAR_DATE ( 2019, 21, 1 ) ;
#168 = CIRCLE ( 'NONE', #288, 6.349999999999999600 ) ;
#169 = CARTESIAN_POINT ( 'NONE',  ( 2.498001805406600200E-016, 1.221245327087670000E-015, -0.3868490940698000000 ) ) ;
#170 = CARTESIAN_POINT ( 'NONE',  ( 6.339530281850295000, -6.425816684416442800, -0.7847116869417347700 ) ) ;
#171 = AXIS2_PLACEMENT_3D ( 'NONE', #40, #65, #87 ) ;
#172 = CIRCLE ( 'NONE', #110, 52.31000000000000200 ) ;
#173 = CC_DESIGN_PERSON_AND_ORGANIZATION_ASSIGNMENT ( #161, #227, ( #10 ) ) ;
#174 = CARTESIAN_POINT ( 'NONE',  ( -2.141385155006167600, 2.152808633735352000, 2.467270713277552700 ) ) ;
#175 = DIRECTION ( 'NONE',  ( 0.0000000000000000000, 0.0000000000000000000, 1.000000000000000000 ) ) ;
#176 = CARTESIAN_POINT ( 'NONE',  ( -4.235606839999017700, -6.425816684416441000, 3.125850711933261000 ) ) ;
#177 = APPROVAL_ROLE ( '' ) ;
#178 = PERSON_AND_ORGANIZATION ( #238, #13 ) ;
#179 = CARTESIAN_POINT ( 'NONE',  ( 2.119788398296776200, -6.425816684416441000, 2.996177371163704500 ) ) ;
#180 = ORIENTED_EDGE ( 'NONE', *, *, #194, .F. ) ;
#181 = CARTESIAN_POINT ( 'NONE',  ( 6.349999999999999600, 1.221245327087670000E-015, -0.3868490940698000000 ) ) ;
#182 = APPROVAL ( #28, 'UNSPECIFIED' ) ;
#183 = DIRECTION ( 'NONE',  ( 0.0000000000000000000, 0.0000000000000000000, 1.000000000000000000 ) ) ;
#184 = PERSON_AND_ORGANIZATION_ROLE ( 'creator' ) ;
#185 = ADVANCED_FACE ( 'NONE', ( #282 ), #106, .F. ) ;
#186 = LINE ( 'NONE', #83, #103 ) ;
#187 = CYLINDRICAL_SURFACE ( 'NONE', #131, 6.349999999999999600 ) ;
#188 = EDGE_LOOP ( 'NONE', ( #105, #33, #180 ) ) ;
#189 = PERSON_AND_ORGANIZATION ( #238, #13 ) ;
#190 = CARTESIAN_POINT ( 'NONE',  ( -1.102037619024599400E-014, 6.425816684416452600, 2.996177371163706700 ) ) ;
#191 = CARTESIAN_POINT ( 'NONE',  ( 2.498001805406600200E-016, 1.221245327087670000E-015, -0.3868490940698000000 ) ) ;
#192 = AXIS2_PLACEMENT_3D ( 'NONE', #68, #175, #295 ) ;
#193 = DIRECTION ( 'NONE',  ( 1.000000000000000000, 0.0000000000000000000, 0.0000000000000000000 ) ) ;
#194 = EDGE_CURVE ( 'NONE', #229, #267, #275, .T. ) ;
#195 = CARTESIAN_POINT ( 'NONE',  ( -2.141385155006160900, -2.152808633735338700, 0.1327292867224528200 ) ) ;
#196 = CIRCLE ( 'NONE', #69, 6.349999999999999600 ) ;
#197 = VERTEX_POINT ( 'NONE', #22 ) ;
#198 = CARTESIAN_POINT ( 'NONE',  ( -4.278759906839818300, -2.152808633735340500, 2.598265187606732400 ) ) ;
#199 = CARTESIAN_POINT ( 'NONE',  ( 6.349999999999999600, 1.221245327087670000E-015, 2.986849094069799800 ) ) ;
#200 = CARTESIAN_POINT ( 'NONE',  ( 6.404118470585946600, 2.152808633735351600, 2.859763481275554100 ) ) ;
#201 = VERTEX_POINT ( 'NONE', #270 ) ;
#202 = DIRECTION ( 'NONE',  ( 1.000000000000000000, 0.0000000000000000000, 0.0000000000000000000 ) ) ;
#203 = ADVANCED_FACE ( 'NONE', ( #252 ), #104, .F. ) ;
#204 = PRODUCT_DEFINITION_SHAPE ( 'NONE', 'NONE',  #10 ) ;
#205 = EDGE_CURVE ( 'NONE', #280, #23, #36, .T. ) ;
#206 = CALENDAR_DATE ( 2019, 21, 1 ) ;
#207 = ORIENTED_EDGE ( 'NONE', *, *, #208, .T. ) ;
#208 = EDGE_CURVE ( 'NONE', #23, #197, #100, .T. ) ;
#209 = ORIENTED_EDGE ( 'NONE', *, *, #62, .T. ) ;
#210 = CARTESIAN_POINT ( 'NONE',  ( -6.349999999999999600, 1.998896044546239400E-015, 2.986849094069799800 ) ) ;
#211 = DIRECTION ( 'NONE',  ( 0.0000000000000000000, 0.0000000000000000000, 1.000000000000000000 ) ) ;
#212 = CARTESIAN_POINT ( 'NONE',  ( 9.540979117872439000E-015, -6.425816684416441000, -0.3961773711637020500 ) ) ;
#213 = DATE_AND_TIME ( #228, #262 ) ;
#214 = DIRECTION ( 'NONE',  ( -0.0000000000000000000, -0.0000000000000000000, -1.000000000000000000 ) ) ;
#215 = ORIENTED_EDGE ( 'NONE', *, *, #148, .T. ) ;
#216 = DIRECTION ( 'NONE',  ( -1.000000000000000000, -2.339103835784140100E-031, 2.807169484173499900E-016 ) ) ;
#217 = CARTESIAN_POINT ( 'NONE',  ( 2.498001805406600200E-016, 1.221245327087670000E-015, -0.3868490940698000000 ) ) ;
#218 = CC_DESIGN_PERSON_AND_ORGANIZATION_ASSIGNMENT ( #189, #94, ( #81 ) ) ;
#219 = CARTESIAN_POINT ( 'NONE',  ( 4.278759906839831700, 2.152808633735351600, 0.001734812393258005400 ) ) ;
#220 = DIRECTION ( 'NONE',  ( -0.0000000000000000000, -0.0000000000000000000, -1.000000000000000000 ) ) ;
#221 =( NAMED_UNIT ( * ) PLANE_ANGLE_UNIT ( ) SI_UNIT ( $, .RADIAN. ) );
#222 = CARTESIAN_POINT ( 'NONE',  ( 6.339530281850296800, 6.425816684416451700, -0.7847116869417415400 ) ) ;
#223 = CARTESIAN_POINT ( 'NONE',  ( 1.734723475976807100E-015, -6.425816684416441900, 2.996177371163704500 ) ) ;
#224 = APPROVAL_DATE_TIME ( #285, #247 ) ;
#225 = APPLICATION_CONTEXT ( 'configuration controlled 3d designs of mechanical parts and assemblies' ) ;
#226 = AXIS2_PLACEMENT_3D ( 'NONE', #169, #15, #236 ) ;
#227 = PERSON_AND_ORGANIZATION_ROLE ( 'creator' ) ;
#228 = CALENDAR_DATE ( 2019, 21, 1 ) ;
#229 = VERTEX_POINT ( 'NONE', #199 ) ;
#230 = EDGE_CURVE ( 'NONE', #267, #277, #196, .T. ) ;
#231 = LOCAL_TIME ( 0, 50, 33.00000000000000000, #60 ) ;
#232 = EDGE_LOOP ( 'NONE', ( #156, #207, #141, #9, #215, #75 ) ) ;
#233 = ORIENTED_EDGE ( 'NONE', *, *, #125, .F. ) ;
#234 = CC_DESIGN_PERSON_AND_ORGANIZATION_ASSIGNMENT ( #8, #121, ( #289 ) ) ;
#235 = CARTESIAN_POINT ( 'NONE',  ( 1.301042606982605300E-014, 6.425816684416453500, -0.3961773711637089900 ) ) ;
#236 = DIRECTION ( 'NONE',  ( 1.000000000000000000, 0.0000000000000000000, 0.0000000000000000000 ) ) ;
#237 = LOCAL_TIME ( 0, 50, 33.00000000000000000, #35 ) ;
#238 = PERSON ( 'UNSPECIFIED', 'UNSPECIFIED', 'UNSPECIFIED', ('UNSPECIFIED'), ('UNSPECIFIED'), ('UNSPECIFIED') ) ;
#239 = ORIENTED_EDGE ( 'NONE', *, *, #208, .F. ) ;
#240 = CARTESIAN_POINT ( 'NONE',  ( -6.349999999999999600, 1.998896044546239400E-015, -0.3868490940698000000 ) ) ;
#241 =( GEOMETRIC_REPRESENTATION_CONTEXT ( 3 ) GLOBAL_UNCERTAINTY_ASSIGNED_CONTEXT ( ( #20 ) ) GLOBAL_UNIT_ASSIGNED_CONTEXT ( ( #31, #221, #98 ) ) REPRESENTATION_CONTEXT ( 'NONE', 'WORKASPACE' ) );
#242 = CARTESIAN_POINT ( 'NONE',  ( 1.127570259384924600E-014, -2.152808633735339600, 0.1327292867224522400 ) ) ;
#243 = CARTESIAN_POINT ( 'NONE',  ( 6.339530281850274600, 6.425816684416451700, 3.384711686941738400 ) ) ;
#244 = CARTESIAN_POINT ( 'NONE',  ( -1.116884925324541500E-014, 2.152808633735352500, 2.467270713277552200 ) ) ;
#245 = CARTESIAN_POINT ( 'NONE',  ( 4.235606839999029200, -6.425816684416441000, -0.5258507119332643800 ) ) ;
#246 = CARTESIAN_POINT ( 'NONE',  ( -2.141385155006168000, -2.152808633735340500, 2.467270713277546000 ) ) ;
#247 = APPROVAL ( #101, 'UNSPECIFIED' ) ;
#248 = FACE_OUTER_BOUND ( 'NONE', #232, .T. ) ;
#249 = CARTESIAN_POINT ( 'NONE',  ( 2.169674795161273300E-014, -6.425816684416441000, -0.3961773711637015000 ) ) ;
#250 = CARTESIAN_POINT ( 'NONE',  ( 4.235606839999007900, -6.425816684416441900, 3.125850711933261500 ) ) ;
#251 = MECHANICAL_CONTEXT ( 'NONE', #225, 'mechanical' ) ;
#252 = FACE_OUTER_BOUND ( 'NONE', #119, .T. ) ;
#253 = DATE_TIME_ROLE ( 'creation_date' ) ;
#254 = ORIENTED_EDGE ( 'NONE', *, *, #102, .F. ) ;
#255 = APPROVAL ( #71, 'UNSPECIFIED' ) ;
#256 = PERSON_AND_ORGANIZATION ( #238, #13 ) ;
#257 = CARTESIAN_POINT ( 'NONE',  ( -6.339530281850305600, 6.425816684416456100, -0.7847116869417400900 ) ) ;
#258 = CALENDAR_DATE ( 2019, 21, 1 ) ;
#259 = ORIENTED_EDGE ( 'NONE', *, *, #205, .F. ) ;
#260 = DIRECTION ( 'NONE',  ( 0.0000000000000000000, 0.0000000000000000000, 1.000000000000000000 ) ) ;
#261 = AXIS2_PLACEMENT_3D ( 'NONE', #283, #112, #265 ) ;
#262 = LOCAL_TIME ( 0, 50, 33.00000000000000000, #129 ) ;
#263 = FACE_OUTER_BOUND ( 'NONE', #188, .T. ) ;
#264 = CC_DESIGN_DATE_AND_TIME_ASSIGNMENT ( #163, #253, ( #10 ) ) ;
#265 = DIRECTION ( 'NONE',  ( 1.000000000000000000, 0.0000000000000000000, 0.0000000000000000000 ) ) ;
#266 = COORDINATED_UNIVERSAL_TIME_OFFSET ( 2, 0, .AHEAD. ) ;
#267 = VERTEX_POINT ( 'NONE', #90 ) ;
#268 = CARTESIAN_POINT ( 'NONE',  ( -2.119788398296786000, 6.425816684416451700, 2.996177371163706700 ) ) ;
#269 = DIRECTION ( 'NONE',  ( 1.000000000000000000, 0.0000000000000000000, 0.0000000000000000000 ) ) ;
#270 = CARTESIAN_POINT ( 'NONE',  ( -1.102299479572578800E-014, 6.350000000000000500, 2.986849094069800300 ) ) ;
#271 = ADVANCED_FACE ( 'NONE', ( #263 ), #91, .F. ) ;
#272 = APPLICATION_PROTOCOL_DEFINITION ( 'international standard', 'config_control_design', 1994, #225 ) ;
#273 = CARTESIAN_POINT ( 'NONE',  ( 4.235606839999031900, 6.425816684416451700, -0.5258507119332713800 ) ) ;
#274 = CARTESIAN_POINT ( 'NONE',  ( 4.278759906839809400, -2.152808633735340900, 2.598265187606732900 ) ) ;
#275 = CIRCLE ( 'NONE', #56, 6.349999999999999600 ) ;
#276 = AXIS2_PLACEMENT_3D ( 'NONE', #38, #126, #132 ) ;
#277 = VERTEX_POINT ( 'NONE', #210 ) ;
#278 = APPLICATION_CONTEXT ( 'configuration controlled 3d designs of mechanical parts and assemblies' ) ;
#279 = ADVANCED_FACE ( 'NONE', ( #248 ), #187, .T. ) ;
#280 = VERTEX_POINT ( 'NONE', #181 ) ;
#281 = CC_DESIGN_APPROVAL ( #247, ( #10 ) ) ;
#282 = FACE_OUTER_BOUND ( 'NONE', #14, .T. ) ;
#283 = CARTESIAN_POINT ( 'NONE',  ( 2.498001805406600200E-016, 1.221245327087670000E-015, 2.986849094069799800 ) ) ;
#284 = DIRECTION ( 'NONE',  ( 1.000000000000000000, 0.0000000000000000000, 0.0000000000000000000 ) ) ;
#285 = DATE_AND_TIME ( #167, #231 ) ;
#286 = ORIENTED_EDGE ( 'NONE', *, *, #82, .T. ) ;
#287 = CARTESIAN_POINT ( 'NONE',  ( -4.235606839999017700, 6.425816684416451700, 3.125850711933267700 ) ) ;
#288 = AXIS2_PLACEMENT_3D ( 'NONE', #166, #214, #284 ) ;
#289 = PRODUCT ( '114-0110E BK7 bi-cv 12.7 F-50', '114-0110E BK7 bi-cv 12.7 F-50', '', ( #251 ) ) ;
#290 = CARTESIAN_POINT ( 'NONE',  ( -2.141385155006159600, 2.152808633735353800, 0.1327292867224459100 ) ) ;
#291 = CARTESIAN_POINT ( 'NONE',  ( 2.141385155006180000, -2.152808633735340000, 0.1327292867224517900 ) ) ;
#292 = DATE_AND_TIME ( #85, #237 ) ;
#293 = CIRCLE ( 'NONE', #261, 6.349999999999999600 ) ;
#294 = CARTESIAN_POINT ( 'NONE',  ( -1.102037619024599100E-014, -6.425816684416441900, 2.996177371163699600 ) ) ;
#295 = DIRECTION ( 'NONE',  ( 1.000000000000000000, 0.0000000000000000000, 0.0000000000000000000 ) ) ;
ENDSEC;
END-ISO-10303-21;
