ISO-10303-21;
HEADER;
FILE_DESCRIPTION (( 'STEP AP203' ),
    '1' );
FILE_NAME ('114-0108E BK7 bi-cv 12.7 F-40.STEP',
    '2019-01-20T22:31:53',
    ( '' ),
    ( '' ),
    'SwSTEP 2.0',
    'SolidWorks 2017',
    '' );
FILE_SCHEMA (( 'CONFIG_CONTROL_DESIGN' ));
ENDSEC;

DATA;
#1 = CC_DESIGN_APPROVAL ( #226, ( #177 ) ) ;
#2 = CARTESIAN_POINT ( 'NONE',  ( 6.312242035155718700, 6.425600562560788400, -0.9796229501727120600 ) ) ;
#3 = VERTEX_POINT ( 'NONE', #130 ) ;
#4 = CARTESIAN_POINT ( 'NONE',  ( 0.0000000000000000000, 0.0000000000000000000, 0.0000000000000000000 ) ) ;
#5 = CARTESIAN_POINT ( 'NONE',  ( -6.413190113882201600, -2.158891781594426200, 2.725206750518756500 ) ) ;
#6 = CARTESIAN_POINT ( 'NONE',  ( 2.498001805406600200E-016, 1.221245327087670000E-015, -0.4839704945053979700 ) ) ;
#7 = LOCAL_TIME ( 0, 31, 53.00000000000000000, #67 ) ;
#8 = EDGE_LOOP ( 'NONE', ( #135, #124, #253 ) ) ;
#9 =( BOUNDED_SURFACE ( )  B_SPLINE_SURFACE ( 3, 3, ( 
 ( #273, #295, #26, #48 ),
 ( #214, #234, #44, #116 ),
 ( #80, #139, #76, #5 ),
 ( #191, #137, #94, #107 ) ),
 .UNSPECIFIED., .F., .F., .F. ) 
 B_SPLINE_SURFACE_WITH_KNOTS ( ( 4, 4 ),
 ( 4, 4 ),
 ( 0.0000000000000000000, 1.000000000000000000 ),
 ( 0.0000000000000000000, 1.000000000000000000 ),
 .UNSPECIFIED. ) 
 GEOMETRIC_REPRESENTATION_ITEM ( )  RATIONAL_B_SPLINE_SURFACE ( (
 ( 1.000000000000000000, 0.9980489182760674500, 0.9980489182760674500, 1.000000000000000000),
 ( 0.9921140431620370000, 0.9901783475843667400, 0.9901783475843667400, 0.9921140431620370000),
 ( 0.9921140431620370000, 0.9901783475843667400, 0.9901783475843667400, 0.9921140431620370000),
 ( 1.000000000000000000, 0.9980489182760674500, 0.9980489182760674500, 1.000000000000000000) ) ) 
 REPRESENTATION_ITEM ( '' )  SURFACE ( )  );
#10 = CARTESIAN_POINT ( 'NONE',  ( -6.349999999999999600, 1.998896044546239400E-015, 2.883970494505399900 ) ) ;
#11 = SECURITY_CLASSIFICATION_LEVEL ( 'unclassified' ) ;
#12 = CC_DESIGN_APPROVAL ( #35, ( #40 ) ) ;
#13 = VERTEX_POINT ( 'NONE', #152 ) ;
#14 = APPROVAL_DATE_TIME ( #123, #53 ) ;
#15 = AXIS2_PLACEMENT_3D ( 'NONE', #283, #194, #276 ) ;
#16 = LINE ( 'NONE', #275, #164 ) ;
#17 = ADVANCED_FACE ( 'NONE', ( #200 ), #153, .F. ) ;
#18 = CARTESIAN_POINT ( 'NONE',  ( -2.081668171172168500E-014, 2.158891781594415100, 0.1665239968066336800 ) ) ;
#19 = LOCAL_TIME ( 0, 31, 53.00000000000000000, #115 ) ;
#20 = CARTESIAN_POINT ( 'NONE',  ( -4.290105114272618500, -2.158891781594417700, 0.002293320226586187500 ) ) ;
#21 = CARTESIAN_POINT ( 'NONE',  ( -2.148196036656229600, 2.158891781594413800, 0.1665239968066324600 ) ) ;
#22 = CARTESIAN_POINT ( 'NONE',  ( 4.222575872018770000, 6.425600562560807000, 3.057277958621574100 ) ) ;
#23 = ORIENTED_EDGE ( 'NONE', *, *, #126, .T. ) ;
#24 = CARTESIAN_POINT ( 'NONE',  ( -8.304831140719816100E-015, -2.158891781594416400, 0.1665239968066256300 ) ) ;
#25 = CARTESIAN_POINT ( 'NONE',  ( 2.148196036656237200, 2.158891781594420400, 2.233476003193361600 ) ) ;
#26 = CARTESIAN_POINT ( 'NONE',  ( -4.222575872018744300, 6.425600562560810600, 3.057277958621578100 ) ) ;
#27 = CARTESIAN_POINT ( 'NONE',  ( 2.498001805406600200E-016, 1.221245327087670000E-015, 2.883970494505399900 ) ) ;
#28 = CARTESIAN_POINT ( 'NONE',  ( 2.515349040166370600E-014, -2.158891781594428400, 2.233476003193367800 ) ) ;
#29 = CIRCLE ( 'NONE', #105, 6.349999999999999600 ) ;
#30 = CARTESIAN_POINT ( 'NONE',  ( 4.222575872018739000, -6.425600562560783900, -0.6572779586215772300 ) ) ;
#31 = EDGE_CURVE ( 'NONE', #294, #244, #243, .T. ) ;
#32 = UNCERTAINTY_MEASURE_WITH_UNIT (LENGTH_MEASURE( 1.000000000000000100E-005 ), #108, 'distance_accuracy_value', 'NONE');
#33 = DIRECTION ( 'NONE',  ( -3.467610499741299900E-016, 1.000000000000000000, 0.0000000000000000000 ) ) ;
#34 = CARTESIAN_POINT ( 'NONE',  ( -6.349999999999999600, 1.998896044546239400E-015, -0.4839704945053979700 ) ) ;
#35 = APPROVAL ( #216, 'UNSPECIFIED' ) ;
#36 = PERSON_AND_ORGANIZATION_ROLE ( 'classification_officer' ) ;
#37 = PRODUCT_DEFINITION ( 'UNKNOWN', '', #40, #151 ) ;
#38 = CIRCLE ( 'NONE', #158, 6.349999999999999600 ) ;
#39 = ORIENTED_EDGE ( 'NONE', *, *, #233, .F. ) ;
#40 = PRODUCT_DEFINITION_FORMATION_WITH_SPECIFIED_SOURCE ( 'ANY', '', #154, .NOT_KNOWN. ) ;
#41 = ADVANCED_FACE ( 'NONE', ( #238 ), #9, .F. ) ;
#42 = CARTESIAN_POINT ( 'NONE',  ( -6.413190113882206100, -2.158891781594419100, -0.3252067505187497500 ) ) ;
#43 = APPLICATION_CONTEXT ( 'configuration controlled 3d designs of mechanical parts and assemblies' ) ;
#44 = CARTESIAN_POINT ( 'NONE',  ( -4.290105114272605200, 2.158891781594423100, 2.397706679773410800 ) ) ;
#45 = CARTESIAN_POINT ( 'NONE',  ( 4.290105114272628300, 2.158891781594419500, 2.397706679773406800 ) ) ;
#46 = ORIENTED_EDGE ( 'NONE', *, *, #101, .T. ) ;
#47 = DIRECTION ( 'NONE',  ( 1.000000000000000000, 0.0000000000000000000, 0.0000000000000000000 ) ) ;
#48 = CARTESIAN_POINT ( 'NONE',  ( -6.312242035155735600, 6.425600562560811500, 3.379622950172715500 ) ) ;
#49 = PERSON_AND_ORGANIZATION ( #61, #284 ) ;
#50 = CARTESIAN_POINT ( 'NONE',  ( 6.312242035155723100, -6.425600562560783900, -0.9796229501727120600 ) ) ;
#51 = CC_DESIGN_DATE_AND_TIME_ASSIGNMENT ( #248, #286, ( #177 ) ) ;
#52 = DIRECTION ( 'NONE',  ( 0.0000000000000000000, 0.0000000000000000000, 1.000000000000000000 ) ) ;
#53 = APPROVAL ( #119, 'UNSPECIFIED' ) ;
#54 = CARTESIAN_POINT ( 'NONE',  ( 1.376201034910385400E-014, -6.350000000000036100, 2.883970494505400800 ) ) ;
#55 = APPROVAL_PERSON_ORGANIZATION ( #97, #226, #122 ) ;
#56 = EDGE_LOOP ( 'NONE', ( #229, #110, #39 ) ) ;
#57 = AXIS2_PLACEMENT_3D ( 'NONE', #257, #211, #138 ) ;
#58 = DATE_AND_TIME ( #240, #7 ) ;
#59 = EDGE_LOOP ( 'NONE', ( #247, #23, #131 ) ) ;
#60 = CC_DESIGN_PERSON_AND_ORGANIZATION_ASSIGNMENT ( #49, #36, ( #177 ) ) ;
#61 = PERSON ( 'UNSPECIFIED', 'UNSPECIFIED', 'UNSPECIFIED', ('UNSPECIFIED'), ('UNSPECIFIED'), ('UNSPECIFIED') ) ;
#62 = EDGE_CURVE ( 'NONE', #87, #294, #269, .T. ) ;
#63 = CYLINDRICAL_SURFACE ( 'NONE', #96, 6.349999999999999600 ) ;
#64 = ORIENTED_EDGE ( 'NONE', *, *, #146, .T. ) ;
#65 = ADVANCED_FACE ( 'NONE', ( #221 ), #250, .F. ) ;
#66 = CARTESIAN_POINT ( 'NONE',  ( -6.312242035155740000, -6.425600562560788400, -0.9796229501727107300 ) ) ;
#67 = COORDINATED_UNIVERSAL_TIME_OFFSET ( 2, 0, .AHEAD. ) ;
#68 = ORIENTED_EDGE ( 'NONE', *, *, #90, .T. ) ;
#69 = COORDINATED_UNIVERSAL_TIME_OFFSET ( 2, 0, .AHEAD. ) ;
#70 = AXIS2_PLACEMENT_3D ( 'NONE', #255, #95, #111 ) ;
#71 = MECHANICAL_CONTEXT ( 'NONE', #43, 'mechanical' ) ;
#72 = CARTESIAN_POINT ( 'NONE',  ( -9.802070302652216100E-015, 2.158891781594415500, 0.1665239968066261900 ) ) ;
#73 = CARTESIAN_POINT ( 'NONE',  ( 2.341876692568689600E-014, -6.425600562560817700, 2.895632387265970800 ) ) ;
#74 = CARTESIAN_POINT ( 'NONE',  ( 2.114381934972414900, 6.425600562560785700, -0.4956323872659713600 ) ) ;
#75 = CARTESIAN_POINT ( 'NONE',  ( 2.498001805406600200E-016, 1.221245327087670000E-015, 2.883970494505399900 ) ) ;
#76 = CARTESIAN_POINT ( 'NONE',  ( -4.290105114272606100, -2.158891781594426600, 2.397706679773418800 ) ) ;
#77 = DIRECTION ( 'NONE',  ( 1.000000000000000000, 0.0000000000000000000, 0.0000000000000000000 ) ) ;
#78 = APPROVAL_PERSON_ORGANIZATION ( #179, #35, #266 ) ;
#79 = ORIENTED_EDGE ( 'NONE', *, *, #291, .T. ) ;
#80 = CARTESIAN_POINT ( 'NONE',  ( 1.541025849832082000E-014, -2.158891781594428400, 2.233476003193375400 ) ) ;
#81 = CARTESIAN_POINT ( 'NONE',  ( 1.816587568377532800E-014, 6.350000000000025400, 2.883970494505400800 ) ) ;
#82 = FACE_OUTER_BOUND ( 'NONE', #59, .T. ) ;
#83 = EDGE_CURVE ( 'NONE', #87, #3, #16, .T. ) ;
#84 = PERSON_AND_ORGANIZATION_ROLE ( 'creator' ) ;
#85 = AXIS2_PLACEMENT_3D ( 'NONE', #264, #143, #33 ) ;
#86 = CIRCLE ( 'NONE', #15, 6.349999999999999600 ) ;
#87 = VERTEX_POINT ( 'NONE', #89 ) ;
#88 = PERSON_AND_ORGANIZATION_ROLE ( 'design_owner' ) ;
#89 = CARTESIAN_POINT ( 'NONE',  ( 6.349999999999999600, 1.221245327087670000E-015, -0.4839704945053979700 ) ) ;
#90 = EDGE_CURVE ( 'NONE', #244, #13, #213, .T. ) ;
#91 = CYLINDRICAL_SURFACE ( 'NONE', #121, 6.349999999999999600 ) ;
#92 = DIRECTION ( 'NONE',  ( -0.0000000000000000000, -0.0000000000000000000, -1.000000000000000000 ) ) ;
#93 = DIRECTION ( 'NONE',  ( 1.000000000000000000, 0.0000000000000000000, 0.0000000000000000000 ) ) ;
#94 = CARTESIAN_POINT ( 'NONE',  ( -4.222575872018747000, -6.425600562560815900, 3.057277958621585200 ) ) ;
#95 = DIRECTION ( 'NONE',  ( 0.0000000000000000000, 0.0000000000000000000, 1.000000000000000000 ) ) ;
#96 = AXIS2_PLACEMENT_3D ( 'NONE', #184, #262, #279 ) ;
#97 = PERSON_AND_ORGANIZATION ( #61, #284 ) ;
#98 = CIRCLE ( 'NONE', #206, 6.349999999999999600 ) ;
#99 = ORIENTED_EDGE ( 'NONE', *, *, #270, .T. ) ;
#100 = MANIFOLD_SOLID_BREP ( 'Imported1', #259 ) ;
#101 = EDGE_CURVE ( 'NONE', #172, #196, #38, .T. ) ;
#102 = LOCAL_TIME ( 0, 31, 53.00000000000000000, #148 ) ;
#103 = AXIS2_PLACEMENT_3D ( 'NONE', #133, #157, #254 ) ;
#104 = ADVANCED_FACE ( 'NONE', ( #277 ), #63, .T. ) ;
#105 = AXIS2_PLACEMENT_3D ( 'NONE', #75, #232, #93 ) ;
#106 = APPLICATION_PROTOCOL_DEFINITION ( 'international standard', 'config_control_design', 1994, #252 ) ;
#107 = CARTESIAN_POINT ( 'NONE',  ( -6.312242035155737300, -6.425600562560815000, 3.379622950172722200 ) ) ;
#108 =( LENGTH_UNIT ( ) NAMED_UNIT ( * ) SI_UNIT ( .MILLI., .METRE. ) );
#109 = CIRCLE ( 'NONE', #85, 41.89999999999999900 ) ;
#110 = ORIENTED_EDGE ( 'NONE', *, *, #62, .F. ) ;
#111 = DIRECTION ( 'NONE',  ( 1.000000000000000000, 0.0000000000000000000, 0.0000000000000000000 ) ) ;
#112 = DIRECTION ( 'NONE',  ( 0.0000000000000000000, 0.0000000000000000000, 1.000000000000000000 ) ) ;
#113 = CARTESIAN_POINT ( 'NONE',  ( 2.148196036656200700, 2.158891781594415500, 0.1665239968066268600 ) ) ;
#114 = DIRECTION ( 'NONE',  ( 1.000000000000000000, 0.0000000000000000000, 0.0000000000000000000 ) ) ;
#115 = COORDINATED_UNIVERSAL_TIME_OFFSET ( 2, 0, .AHEAD. ) ;
#116 = CARTESIAN_POINT ( 'NONE',  ( -6.413190113882201600, 2.158891781594422600, 2.725206750518748500 ) ) ;
#117 = ORIENTED_EDGE ( 'NONE', *, *, #267, .T. ) ;
#118 = PERSON_AND_ORGANIZATION_ROLE ( 'design_supplier' ) ;
#119 = APPROVAL_STATUS ( 'not_yet_approved' ) ;
#120 = ORIENTED_EDGE ( 'NONE', *, *, #233, .T. ) ;
#121 = AXIS2_PLACEMENT_3D ( 'NONE', #170, #161, #142 ) ;
#122 = APPROVAL_ROLE ( '' ) ;
#123 = DATE_AND_TIME ( #129, #19 ) ;
#124 = ORIENTED_EDGE ( 'NONE', *, *, #101, .F. ) ;
#125 = PERSON_AND_ORGANIZATION ( #61, #284 ) ;
#126 = EDGE_CURVE ( 'NONE', #196, #173, #127, .T. ) ;
#127 = CIRCLE ( 'NONE', #281, 41.89999999999999900 ) ;
#128 = ORIENTED_EDGE ( 'NONE', *, *, #195, .T. ) ;
#129 = CALENDAR_DATE ( 2019, 21, 1 ) ;
#130 = CARTESIAN_POINT ( 'NONE',  ( 6.349999999999999600, 1.221245327087670000E-015, 2.883970494505399900 ) ) ;
#131 = ORIENTED_EDGE ( 'NONE', *, *, #291, .F. ) ;
#132 = CARTESIAN_POINT ( 'NONE',  ( -4.222575872018758500, -6.425600562560787500, -0.6572779586215747900 ) ) ;
#133 = CARTESIAN_POINT ( 'NONE',  ( 2.498001805406600200E-016, 1.221245327087670000E-015, -0.4839704945053979700 ) ) ;
#134 = CC_DESIGN_SECURITY_CLASSIFICATION ( #177, ( #40 ) ) ;
#135 = ORIENTED_EDGE ( 'NONE', *, *, #126, .F. ) ;
#136 = CARTESIAN_POINT ( 'NONE',  ( 6.312242035155752400, 6.425600562560807000, 3.379622950172710200 ) ) ;
#137 = CARTESIAN_POINT ( 'NONE',  ( -2.114381934972419800, -6.425600562560815900, 2.895632387265977500 ) ) ;
#138 = DIRECTION ( 'NONE',  ( 1.000000000000000000, 0.0000000000000000000, 0.0000000000000000000 ) ) ;
#139 = CARTESIAN_POINT ( 'NONE',  ( -2.148196036656203000, -2.158891781594427500, 2.233476003193374500 ) ) ;
#140 =( NAMED_UNIT ( * ) SI_UNIT ( $, .STERADIAN. ) SOLID_ANGLE_UNIT ( ) );
#141 = CARTESIAN_POINT ( 'NONE',  ( -6.626872916931271700E-015, -6.425600562560786600, -0.4956323872659720900 ) ) ;
#142 = DIRECTION ( 'NONE',  ( 1.000000000000000000, 0.0000000000000000000, 0.0000000000000000000 ) ) ;
#143 = DIRECTION ( 'NONE',  ( 1.000000000000000000, 3.467610499741299900E-016, 2.996721193660660100E-016 ) ) ;
#144 = DIRECTION ( 'NONE',  ( -1.000000000000000000, 3.467610499741299900E-016, -2.996721193660660100E-016 ) ) ;
#145 =( BOUNDED_SURFACE ( )  B_SPLINE_SURFACE ( 3, 3, ( 
 ( #136, #22, #187, #166 ),
 ( #208, #45, #25, #185 ),
 ( #183, #280, #163, #28 ),
 ( #230, #188, #261, #73 ) ),
 .UNSPECIFIED., .F., .F., .F. ) 
 B_SPLINE_SURFACE_WITH_KNOTS ( ( 4, 4 ),
 ( 4, 4 ),
 ( 0.0000000000000000000, 1.000000000000000000 ),
 ( 0.0000000000000000000, 1.000000000000000000 ),
 .UNSPECIFIED. ) 
 GEOMETRIC_REPRESENTATION_ITEM ( )  RATIONAL_B_SPLINE_SURFACE ( (
 ( 1.000000000000000000, 0.9980489182760674500, 0.9980489182760674500, 1.000000000000000000),
 ( 0.9921140431620370000, 0.9901783475843667400, 0.9901783475843667400, 0.9921140431620370000),
 ( 0.9921140431620370000, 0.9901783475843667400, 0.9901783475843667400, 0.9921140431620370000),
 ( 1.000000000000000000, 0.9980489182760674500, 0.9980489182760674500, 1.000000000000000000) ) ) 
 REPRESENTATION_ITEM ( '' )  SURFACE ( )  );
#146 = EDGE_CURVE ( 'NONE', #244, #172, #218, .T. ) ;
#147 = CIRCLE ( 'NONE', #57, 6.349999999999999600 ) ;
#148 = COORDINATED_UNIVERSAL_TIME_OFFSET ( 2, 0, .AHEAD. ) ;
#149 = ORIENTED_EDGE ( 'NONE', *, *, #31, .F. ) ;
#150 = PERSON_AND_ORGANIZATION ( #61, #284 ) ;
#151 = DESIGN_CONTEXT ( 'detailed design', #252, 'design' ) ;
#152 = CARTESIAN_POINT ( 'NONE',  ( -6.656582991502864500E-015, -6.350000000000006800, -0.4839704945053931500 ) ) ;
#153 =( BOUNDED_SURFACE ( )  B_SPLINE_SURFACE ( 3, 3, ( 
 ( #182, #289, #290, #155 ),
 ( #205, #178, #21, #18 ),
 ( #42, #20, #176, #202 ),
 ( #66, #132, #223, #293 ) ),
 .UNSPECIFIED., .F., .F., .F. ) 
 B_SPLINE_SURFACE_WITH_KNOTS ( ( 4, 4 ),
 ( 4, 4 ),
 ( 0.0000000000000000000, 1.000000000000000000 ),
 ( 0.0000000000000000000, 1.000000000000000000 ),
 .UNSPECIFIED. ) 
 GEOMETRIC_REPRESENTATION_ITEM ( )  RATIONAL_B_SPLINE_SURFACE ( (
 ( 1.000000000000000000, 0.9980489182760674500, 0.9980489182760674500, 1.000000000000000000),
 ( 0.9921140431620371100, 0.9901783475843668500, 0.9901783475843668500, 0.9921140431620371100),
 ( 0.9921140431620371100, 0.9901783475843668500, 0.9901783475843668500, 0.9921140431620371100),
 ( 1.000000000000000000, 0.9980489182760674500, 0.9980489182760674500, 1.000000000000000000) ) ) 
 REPRESENTATION_ITEM ( '' )  SURFACE ( )  );
#154 = PRODUCT ( '114-0108E BK7 bi-cv 12.7 F-40', '114-0108E BK7 bi-cv 12.7 F-40', '', ( #71 ) ) ;
#155 = CARTESIAN_POINT ( 'NONE',  ( -2.168404344971008900E-014, 6.425600562560785700, -0.4956323872659645900 ) ) ;
#156 = APPROVAL_PERSON_ORGANIZATION ( #220, #53, #239 ) ;
#157 = DIRECTION ( 'NONE',  ( 0.0000000000000000000, 0.0000000000000000000, 1.000000000000000000 ) ) ;
#158 = AXIS2_PLACEMENT_3D ( 'NONE', #27, #92, #160 ) ;
#159 = DIRECTION ( 'NONE',  ( -0.0000000000000000000, -0.0000000000000000000, -1.000000000000000000 ) ) ;
#160 = DIRECTION ( 'NONE',  ( 1.000000000000000000, 0.0000000000000000000, 0.0000000000000000000 ) ) ;
#161 = DIRECTION ( 'NONE',  ( 0.0000000000000000000, 0.0000000000000000000, 1.000000000000000000 ) ) ;
#162 = CARTESIAN_POINT ( 'NONE',  ( 6.413190113882184700, 2.158891781594417700, -0.3252067505187502500 ) ) ;
#163 = CARTESIAN_POINT ( 'NONE',  ( 2.148196036656234500, -2.158891781594429300, 2.233476003193369100 ) ) ;
#164 = VECTOR ( 'NONE', #227, 1000.000000000000000 ) ;
#165 = ORIENTED_EDGE ( 'NONE', *, *, #83, .T. ) ;
#166 = CARTESIAN_POINT ( 'NONE',  ( 2.949029909160572100E-014, 6.425600562560808800, 2.895632387265964200 ) ) ;
#167 = CARTESIAN_POINT ( 'NONE',  ( 6.413190113882186500, -2.158891781594414200, -0.3252067505187507500 ) ) ;
#168 = CC_DESIGN_PERSON_AND_ORGANIZATION_ASSIGNMENT ( #125, #118, ( #40 ) ) ;
#169 = CARTESIAN_POINT ( 'NONE',  ( -1.106044832617431800E-014, 6.350000000000004100, -0.4839704945053931500 ) ) ;
#170 = CARTESIAN_POINT ( 'NONE',  ( 2.498001805406600200E-016, 1.221245327087670000E-015, -0.4839704945053979700 ) ) ;
#171 = AXIS2_PLACEMENT_3D ( 'NONE', #4, #112, #77 ) ;
#172 = VERTEX_POINT ( 'NONE', #10 ) ;
#173 = VERTEX_POINT ( 'NONE', #54 ) ;
#174 = APPROVAL_DATE_TIME ( #274, #226 ) ;
#175 = CALENDAR_DATE ( 2019, 21, 1 ) ;
#176 = CARTESIAN_POINT ( 'NONE',  ( -2.148196036656226500, -2.158891781594417300, 0.1665239968066318800 ) ) ;
#177 = SECURITY_CLASSIFICATION ( '', '', #11 ) ;
#178 = CARTESIAN_POINT ( 'NONE',  ( -4.290105114272621200, 2.158891781594413300, 0.002293320226586892600 ) ) ;
#179 = PERSON_AND_ORGANIZATION ( #61, #284 ) ;
#180 = ORIENTED_EDGE ( 'NONE', *, *, #62, .T. ) ;
#181 = AXIS2_PLACEMENT_3D ( 'NONE', #6, #235, #47 ) ;
#182 = CARTESIAN_POINT ( 'NONE',  ( -6.312242035155745300, 6.425600562560783000, -0.9796229501727107300 ) ) ;
#183 = CARTESIAN_POINT ( 'NONE',  ( 6.413190113882213200, -2.158891781594431500, 2.725206750518751200 ) ) ;
#184 = CARTESIAN_POINT ( 'NONE',  ( 2.498001805406600200E-016, 1.221245327087670000E-015, -0.4839704945053979700 ) ) ;
#185 = CARTESIAN_POINT ( 'NONE',  ( 2.775557561562891400E-014, 2.158891781594420400, 2.233476003193359400 ) ) ;
#186 = ORIENTED_EDGE ( 'NONE', *, *, #90, .F. ) ;
#187 = CARTESIAN_POINT ( 'NONE',  ( 2.114381934972454000, 6.425600562560807000, 2.895632387265965100 ) ) ;
#188 = CARTESIAN_POINT ( 'NONE',  ( 4.222575872018763800, -6.425600562560818600, 3.057277958621581200 ) ) ;
#189 =( NAMED_UNIT ( * ) PLANE_ANGLE_UNIT ( ) SI_UNIT ( $, .RADIAN. ) );
#190 = CALENDAR_DATE ( 2019, 21, 1 ) ;
#191 = CARTESIAN_POINT ( 'NONE',  ( 1.373230027453226600E-014, -6.425600562560816800, 2.895632387265978400 ) ) ;
#192 = ADVANCED_BREP_SHAPE_REPRESENTATION ( '114-0108E BK7 bi-cv 12.7 F-40', ( #100, #171 ), #225 ) ;
#193 = CARTESIAN_POINT ( 'NONE',  ( 3.552713678800500100E-015, -1.065814103640150000E-014, 44.29999999999999700 ) ) ;
#194 = DIRECTION ( 'NONE',  ( 0.0000000000000000000, 0.0000000000000000000, 1.000000000000000000 ) ) ;
#195 = EDGE_CURVE ( 'NONE', #294, #13, #109, .T. ) ;
#196 = VERTEX_POINT ( 'NONE', #81 ) ;
#197 = PERSON_AND_ORGANIZATION_ROLE ( 'creator' ) ;
#198 = COORDINATED_UNIVERSAL_TIME_OFFSET ( 2, 0, .AHEAD. ) ;
#199 = PERSON_AND_ORGANIZATION ( #61, #284 ) ;
#200 = FACE_OUTER_BOUND ( 'NONE', #219, .T. ) ;
#201 = VECTOR ( 'NONE', #52, 1000.000000000000000 ) ;
#202 = CARTESIAN_POINT ( 'NONE',  ( -1.821459649775647100E-014, -2.158891781594416900, 0.1665239968066330200 ) ) ;
#203 = CC_DESIGN_DATE_AND_TIME_ASSIGNMENT ( #236, #285, ( #37 ) ) ;
#204 = ORIENTED_EDGE ( 'NONE', *, *, #146, .F. ) ;
#205 = CARTESIAN_POINT ( 'NONE',  ( -6.413190113882208700, 2.158891781594412900, -0.3252067505187490900 ) ) ;
#206 = AXIS2_PLACEMENT_3D ( 'NONE', #256, #159, #114 ) ;
#207 = APPLICATION_PROTOCOL_DEFINITION ( 'international standard', 'config_control_design', 1994, #43 ) ;
#208 = CARTESIAN_POINT ( 'NONE',  ( 6.413190113882217600, 2.158891781594417700, 2.725206750518743200 ) ) ;
#209 = LOCAL_TIME ( 0, 31, 53.00000000000000000, #69 ) ;
#210 = CARTESIAN_POINT ( 'NONE',  ( 4.222575872018734500, 6.425600562560786600, -0.6572779586215772300 ) ) ;
#211 = DIRECTION ( 'NONE',  ( -0.0000000000000000000, -0.0000000000000000000, -1.000000000000000000 ) ) ;
#212 = CARTESIAN_POINT ( 'NONE',  ( 4.290105114272594600, 2.158891781594416400, 0.002293320226584615800 ) ) ;
#213 = CIRCLE ( 'NONE', #70, 6.349999999999999600 ) ;
#214 = CARTESIAN_POINT ( 'NONE',  ( 1.690749766025322700E-014, 2.158891781594420400, 2.233476003193366500 ) ) ;
#215 = CARTESIAN_POINT ( 'NONE',  ( -6.349999999999999600, 1.998896044546239400E-015, -0.4839704945053979700 ) ) ;
#216 = APPROVAL_STATUS ( 'not_yet_approved' ) ;
#217 = APPROVAL_STATUS ( 'not_yet_approved' ) ;
#218 = LINE ( 'NONE', #215, #201 ) ;
#219 = EDGE_LOOP ( 'NONE', ( #149, #128, #186 ) ) ;
#220 = PERSON_AND_ORGANIZATION ( #61, #284 ) ;
#221 = FACE_OUTER_BOUND ( 'NONE', #56, .T. ) ;
#222 = EDGE_LOOP ( 'NONE', ( #204, #68, #120, #165, #79, #117 ) ) ;
#223 = CARTESIAN_POINT ( 'NONE',  ( -2.114381934972441100, -6.425600562560786600, -0.4956323872659659800 ) ) ;
#224 = PRODUCT_DEFINITION_SHAPE ( 'NONE', 'NONE',  #37 ) ;
#225 =( GEOMETRIC_REPRESENTATION_CONTEXT ( 3 ) GLOBAL_UNCERTAINTY_ASSIGNED_CONTEXT ( ( #32 ) ) GLOBAL_UNIT_ASSIGNED_CONTEXT ( ( #108, #189, #140 ) ) REPRESENTATION_CONTEXT ( 'NONE', 'WORKASPACE' ) );
#226 = APPROVAL ( #217, 'UNSPECIFIED' ) ;
#227 = DIRECTION ( 'NONE',  ( 0.0000000000000000000, 0.0000000000000000000, 1.000000000000000000 ) ) ;
#228 = CARTESIAN_POINT ( 'NONE',  ( 2.148196036656202500, -2.158891781594414600, 0.1665239968066263000 ) ) ;
#229 = ORIENTED_EDGE ( 'NONE', *, *, #195, .F. ) ;
#230 = CARTESIAN_POINT ( 'NONE',  ( 6.312242035155745300, -6.425600562560819500, 3.379622950172716900 ) ) ;
#231 = CARTESIAN_POINT ( 'NONE',  ( 2.114381934972419800, -6.425600562560784800, -0.4956323872659713600 ) ) ;
#232 = DIRECTION ( 'NONE',  ( -0.0000000000000000000, -0.0000000000000000000, -1.000000000000000000 ) ) ;
#233 = EDGE_CURVE ( 'NONE', #13, #87, #86, .T. ) ;
#234 = CARTESIAN_POINT ( 'NONE',  ( -2.148196036656202100, 2.158891781594422200, 2.233476003193366500 ) ) ;
#235 = DIRECTION ( 'NONE',  ( 0.0000000000000000000, 0.0000000000000000000, 1.000000000000000000 ) ) ;
#236 = DATE_AND_TIME ( #190, #258 ) ;
#237 = DIRECTION ( 'NONE',  ( 3.467610499741298500E-016, 1.000000000000000000, 3.312121195182447900E-016 ) ) ;
#238 = FACE_OUTER_BOUND ( 'NONE', #8, .T. ) ;
#239 = APPROVAL_ROLE ( '' ) ;
#240 = CALENDAR_DATE ( 2019, 21, 1 ) ;
#241 = ORIENTED_EDGE ( 'NONE', *, *, #31, .T. ) ;
#242 = CALENDAR_DATE ( 2019, 21, 1 ) ;
#243 = CIRCLE ( 'NONE', #103, 6.349999999999999600 ) ;
#244 = VERTEX_POINT ( 'NONE', #34 ) ;
#245 = ADVANCED_FACE ( 'NONE', ( #268 ), #91, .T. ) ;
#246 = PERSON_AND_ORGANIZATION ( #61, #284 ) ;
#247 = ORIENTED_EDGE ( 'NONE', *, *, #270, .F. ) ;
#248 = DATE_AND_TIME ( #175, #102 ) ;
#249 = PRODUCT_RELATED_PRODUCT_CATEGORY ( 'detail', '', ( #154 ) ) ;
#250 =( BOUNDED_SURFACE ( )  B_SPLINE_SURFACE ( 3, 3, ( 
 ( #251, #74, #210, #2 ),
 ( #72, #113, #212, #162 ),
 ( #24, #228, #282, #167 ),
 ( #141, #231, #30, #50 ) ),
 .UNSPECIFIED., .F., .F., .F. ) 
 B_SPLINE_SURFACE_WITH_KNOTS ( ( 4, 4 ),
 ( 4, 4 ),
 ( 0.0000000000000000000, 1.000000000000000000 ),
 ( 0.0000000000000000000, 1.000000000000000000 ),
 .UNSPECIFIED. ) 
 GEOMETRIC_REPRESENTATION_ITEM ( )  RATIONAL_B_SPLINE_SURFACE ( (
 ( 1.000000000000000000, 0.9980489182760674500, 0.9980489182760674500, 1.000000000000000000),
 ( 0.9921140431620371100, 0.9901783475843668500, 0.9901783475843668500, 0.9921140431620371100),
 ( 0.9921140431620371100, 0.9901783475843668500, 0.9901783475843668500, 0.9921140431620371100),
 ( 1.000000000000000000, 0.9980489182760674500, 0.9980489182760674500, 1.000000000000000000) ) ) 
 REPRESENTATION_ITEM ( '' )  SURFACE ( )  );
#251 = CARTESIAN_POINT ( 'NONE',  ( -1.108316891250714900E-014, 6.425600562560785700, -0.4956323872659720900 ) ) ;
#252 = APPLICATION_CONTEXT ( 'configuration controlled 3d designs of mechanical parts and assemblies' ) ;
#253 = ORIENTED_EDGE ( 'NONE', *, *, #267, .F. ) ;
#254 = DIRECTION ( 'NONE',  ( 1.000000000000000000, 0.0000000000000000000, 0.0000000000000000000 ) ) ;
#255 = CARTESIAN_POINT ( 'NONE',  ( 2.498001805406600200E-016, 1.221245327087670000E-015, -0.4839704945053979700 ) ) ;
#256 = CARTESIAN_POINT ( 'NONE',  ( 2.498001805406600200E-016, 1.221245327087670000E-015, 2.883970494505399900 ) ) ;
#257 = CARTESIAN_POINT ( 'NONE',  ( 2.498001805406600200E-016, 1.221245327087670000E-015, 2.883970494505399900 ) ) ;
#258 = LOCAL_TIME ( 0, 31, 53.00000000000000000, #198 ) ;
#259 = CLOSED_SHELL ( 'NONE', ( #17, #271, #245, #104, #65, #41 ) ) ;
#260 = CC_DESIGN_PERSON_AND_ORGANIZATION_ASSIGNMENT ( #199, #197, ( #40 ) ) ;
#261 = CARTESIAN_POINT ( 'NONE',  ( 2.114381934972447800, -6.425600562560818600, 2.895632387265972200 ) ) ;
#262 = DIRECTION ( 'NONE',  ( 0.0000000000000000000, 0.0000000000000000000, 1.000000000000000000 ) ) ;
#263 = CC_DESIGN_PERSON_AND_ORGANIZATION_ASSIGNMENT ( #150, #88, ( #154 ) ) ;
#264 = CARTESIAN_POINT ( 'NONE',  ( 3.552713678800500100E-015, -3.552713678800500100E-015, -41.89999999999999900 ) ) ;
#265 = ORIENTED_EDGE ( 'NONE', *, *, #83, .F. ) ;
#266 = APPROVAL_ROLE ( '' ) ;
#267 = EDGE_CURVE ( 'NONE', #173, #172, #98, .T. ) ;
#268 = FACE_OUTER_BOUND ( 'NONE', #278, .T. ) ;
#269 = CIRCLE ( 'NONE', #181, 6.349999999999999600 ) ;
#270 = EDGE_CURVE ( 'NONE', #196, #3, #147, .T. ) ;
#271 = ADVANCED_FACE ( 'NONE', ( #82 ), #145, .F. ) ;
#272 = CC_DESIGN_APPROVAL ( #53, ( #37 ) ) ;
#273 = CARTESIAN_POINT ( 'NONE',  ( 1.818859627010816400E-014, 6.425600562560809700, 2.895632387265971300 ) ) ;
#274 = DATE_AND_TIME ( #242, #209 ) ;
#275 = CARTESIAN_POINT ( 'NONE',  ( 6.349999999999999600, 1.221245327087670000E-015, -0.4839704945053979700 ) ) ;
#276 = DIRECTION ( 'NONE',  ( 1.000000000000000000, 0.0000000000000000000, 0.0000000000000000000 ) ) ;
#277 = FACE_OUTER_BOUND ( 'NONE', #222, .T. ) ;
#278 = EDGE_LOOP ( 'NONE', ( #180, #241, #64, #46, #99, #265 ) ) ;
#279 = DIRECTION ( 'NONE',  ( 1.000000000000000000, 0.0000000000000000000, 0.0000000000000000000 ) ) ;
#280 = CARTESIAN_POINT ( 'NONE',  ( 4.290105114272627400, -2.158891781594430200, 2.397706679773414800 ) ) ;
#281 = AXIS2_PLACEMENT_3D ( 'NONE', #193, #144, #237 ) ;
#282 = CARTESIAN_POINT ( 'NONE',  ( 4.290105114272595400, -2.158891781594414200, 0.002293320226584073300 ) ) ;
#283 = CARTESIAN_POINT ( 'NONE',  ( 2.498001805406600200E-016, 1.221245327087670000E-015, -0.4839704945053979700 ) ) ;
#284 = ORGANIZATION ( 'UNSPECIFIED', 'UNSPECIFIED', '' ) ;
#285 = DATE_TIME_ROLE ( 'creation_date' ) ;
#286 = DATE_TIME_ROLE ( 'classification_date' ) ;
#287 = CC_DESIGN_PERSON_AND_ORGANIZATION_ASSIGNMENT ( #246, #84, ( #37 ) ) ;
#288 = SHAPE_DEFINITION_REPRESENTATION ( #224, #192 ) ;
#289 = CARTESIAN_POINT ( 'NONE',  ( -4.222575872018762900, 6.425600562560783000, -0.6572779586215746800 ) ) ;
#290 = CARTESIAN_POINT ( 'NONE',  ( -2.114381934972446400, 6.425600562560783900, -0.4956323872659658700 ) ) ;
#291 = EDGE_CURVE ( 'NONE', #3, #173, #29, .T. ) ;
#292 = APPROVAL_DATE_TIME ( #58, #35 ) ;
#293 = CARTESIAN_POINT ( 'NONE',  ( -1.647987302177966700E-014, -6.425600562560786600, -0.4956323872659648100 ) ) ;
#294 = VERTEX_POINT ( 'NONE', #169 ) ;
#295 = CARTESIAN_POINT ( 'NONE',  ( -2.114381934972415800, 6.425600562560810600, 2.895632387265970800 ) ) ;
ENDSEC;
END-ISO-10303-21;
