ISO-10303-21;
HEADER;
FILE_DESCRIPTION (( 'STEP AP203' ),
    '1' );
FILE_NAME ('114-0106E BK7 bi-cv 12.7 F-25.STEP',
    '2019-01-20T22:11:35',
    ( '' ),
    ( '' ),
    'SwSTEP 2.0',
    'SolidWorks 2017',
    '' );
FILE_SCHEMA (( 'CONFIG_CONTROL_DESIGN' ));
ENDSEC;

DATA;
#1 = AXIS2_PLACEMENT_3D ( 'NONE', #14, #105, #37 ) ;
#2 = PERSON_AND_ORGANIZATION_ROLE ( 'design_supplier' ) ;
#3 = VERTEX_POINT ( 'NONE', #193 ) ;
#4 = CARTESIAN_POINT ( 'NONE',  ( -2.178211564569273700, -2.185663212459190200, 1.929039313168305200 ) ) ;
#5 = COORDINATED_UNIVERSAL_TIME_OFFSET ( 2, 0, .AHEAD. ) ;
#6 = CARTESIAN_POINT ( 'NONE',  ( -6.193973223278657500, -6.424657474552552600, 3.759756121525129800 ) ) ;
#7 = CARTESIAN_POINT ( 'NONE',  ( 2.498001805406600200E-016, 1.221245327087670000E-015, -0.7777928881970720400 ) ) ;
#8 = ORIENTED_EDGE ( 'NONE', *, *, #102, .T. ) ;
#9 = ORIENTED_EDGE ( 'NONE', *, *, #72, .F. ) ;
#10 = CALENDAR_DATE ( 2019, 21, 1 ) ;
#11 = DIRECTION ( 'NONE',  ( 1.000000000000000000, 0.0000000000000000000, 0.0000000000000000000 ) ) ;
#12 = CARTESIAN_POINT ( 'NONE',  ( -8.673617379884035500E-016, 6.424657474552553500, 2.996476598974497500 ) ) ;
#13 = VERTEX_POINT ( 'NONE', #47 ) ;
#14 = CARTESIAN_POINT ( 'NONE',  ( 2.498001805406600200E-016, 1.221245327087670000E-015, -0.7777928881970720400 ) ) ;
#15 = CARTESIAN_POINT ( 'NONE',  ( 4.165782140301304900, 6.424657474552557100, 3.252182890273865200 ) ) ;
#16 = CARTESIAN_POINT ( 'NONE',  ( 4.314115936722828000E-015, -6.424657474552549100, -0.7964765989744992900 ) ) ;
#17 = ORIENTED_EDGE ( 'NONE', *, *, #72, .T. ) ;
#18 = CARTESIAN_POINT ( 'NONE',  ( -4.165782140301304900, 6.424657474552558000, -1.052182890273864400 ) ) ;
#19 = CARTESIAN_POINT ( 'NONE',  ( -4.165782140301308400, -6.424657474552550000, -1.052182890273864400 ) ) ;
#20 = APPROVAL ( #292, 'UNSPECIFIED' ) ;
#21 = APPROVAL_STATUS ( 'not_yet_approved' ) ;
#22 = LOCAL_TIME ( 0, 11, 35.00000000000000000, #5 ) ;
#23 =( NAMED_UNIT ( * ) SI_UNIT ( $, .STERADIAN. ) SOLID_ANGLE_UNIT ( ) );
#24 = DIRECTION ( 'NONE',  ( 0.0000000000000000000, 0.0000000000000000000, 1.000000000000000000 ) ) ;
#25 = CARTESIAN_POINT ( 'NONE',  ( -6.453117280408263500, -2.185663212459192400, 2.724252998988212000 ) ) ;
#26 = CARTESIAN_POINT ( 'NONE',  ( -6.453117280408263500, 2.185663212459192400, 2.724252998988212000 ) ) ;
#27 = CARTESIAN_POINT ( 'NONE',  ( 0.0000000000000000000, 1.776356839400250100E-015, 28.51000000000000200 ) ) ;
#28 = AXIS2_PLACEMENT_3D ( 'NONE', #284, #222, #11 ) ;
#29 = ORIENTED_EDGE ( 'NONE', *, *, #244, .F. ) ;
#30 = LOCAL_TIME ( 0, 11, 35.00000000000000000, #92 ) ;
#31 = DIRECTION ( 'NONE',  ( 1.000000000000000000, 0.0000000000000000000, 0.0000000000000000000 ) ) ;
#32 = DIRECTION ( 'NONE',  ( -2.761172176722930900E-016, 1.000000000000000000, -2.637359902663333000E-016 ) ) ;
#33 = CARTESIAN_POINT ( 'NONE',  ( 5.739288693387807800E-015, -2.185663212459188800, 0.2709606868316952700 ) ) ;
#34 = VECTOR ( 'NONE', #237, 1000.000000000000000 ) ;
#35 = CIRCLE ( 'NONE', #112, 6.349999999999999600 ) ;
#36 = CC_DESIGN_PERSON_AND_ORGANIZATION_ASSIGNMENT ( #191, #73, ( #289 ) ) ;
#37 = DIRECTION ( 'NONE',  ( 1.000000000000000000, 0.0000000000000000000, 0.0000000000000000000 ) ) ;
#38 = PERSON_AND_ORGANIZATION ( #265, #53 ) ;
#39 = ADVANCED_FACE ( 'NONE', ( #286 ), #96, .T. ) ;
#40 = CARTESIAN_POINT ( 'NONE',  ( 0.0000000000000000000, 0.0000000000000000000, 0.0000000000000000000 ) ) ;
#41 = PERSON_AND_ORGANIZATION ( #265, #53 ) ;
#42 = CARTESIAN_POINT ( 'NONE',  ( -4.340070540660954100, -2.185663212459187000, 0.004556130723589900900 ) ) ;
#43 = ORIENTED_EDGE ( 'NONE', *, *, #65, .T. ) ;
#44 = AXIS2_PLACEMENT_3D ( 'NONE', #51, #81, #205 ) ;
#45 = APPLICATION_PROTOCOL_DEFINITION ( 'international standard', 'config_control_design', 1994, #71 ) ;
#46 = MECHANICAL_CONTEXT ( 'NONE', #71, 'mechanical' ) ;
#47 = CARTESIAN_POINT ( 'NONE',  ( -6.349999999999999600, 1.998896044546239400E-015, -0.7777928881970720400 ) ) ;
#48 = LINE ( 'NONE', #254, #216 ) ;
#49 = CIRCLE ( 'NONE', #149, 26.30999999999999500 ) ;
#50 = EDGE_CURVE ( 'NONE', #52, #70, #236, .T. ) ;
#51 = CARTESIAN_POINT ( 'NONE',  ( 2.498001805406600200E-016, 1.221245327087670000E-015, 2.977792888197070100 ) ) ;
#52 = VERTEX_POINT ( 'NONE', #192 ) ;
#53 = ORGANIZATION ( 'UNSPECIFIED', 'UNSPECIFIED', '' ) ;
#54 = DIRECTION ( 'NONE',  ( -0.0000000000000000000, -0.0000000000000000000, -1.000000000000000000 ) ) ;
#55 = CC_DESIGN_APPROVAL ( #20, ( #289 ) ) ;
#56 = ADVANCED_BREP_SHAPE_REPRESENTATION ( '114-0106E BK7 bi-cv 12.7 F-25', ( #248, #138 ), #75 ) ;
#57 = DESIGN_CONTEXT ( 'detailed design', #69, 'design' ) ;
#58 = PRODUCT ( '114-0106E BK7 bi-cv 12.7 F-25', '114-0106E BK7 bi-cv 12.7 F-25', '', ( #46 ) ) ;
#59 = ADVANCED_FACE ( 'NONE', ( #114 ), #208, .F. ) ;
#60 = PERSON_AND_ORGANIZATION ( #265, #53 ) ;
#61 = DIRECTION ( 'NONE',  ( 1.000000000000000000, -1.776356839400250500E-015, 0.0000000000000000000 ) ) ;
#62 = ORIENTED_EDGE ( 'NONE', *, *, #196, .F. ) ;
#63 = CARTESIAN_POINT ( 'NONE',  ( 0.0000000000000000000, 2.185663212459192800, 1.929039313168303200 ) ) ;
#64 = DIRECTION ( 'NONE',  ( 1.000000000000000000, -2.761172176722929900E-016, -2.386214709509340100E-016 ) ) ;
#65 = EDGE_CURVE ( 'NONE', #194, #80, #48, .T. ) ;
#66 = COORDINATED_UNIVERSAL_TIME_OFFSET ( 2, 0, .AHEAD. ) ;
#67 = CARTESIAN_POINT ( 'NONE',  ( -6.193973223278667300, -6.424657474552547300, -1.559756121525129200 ) ) ;
#68 = CARTESIAN_POINT ( 'NONE',  ( -6.193973223278663700, 6.424657474552558000, -1.559756121525129200 ) ) ;
#69 = APPLICATION_CONTEXT ( 'configuration controlled 3d designs of mechanical parts and assemblies' ) ;
#70 = VERTEX_POINT ( 'NONE', #146 ) ;
#71 = APPLICATION_CONTEXT ( 'configuration controlled 3d designs of mechanical parts and assemblies' ) ;
#72 = EDGE_CURVE ( 'NONE', #3, #194, #229, .T. ) ;
#73 = PERSON_AND_ORGANIZATION_ROLE ( 'creator' ) ;
#74 = CARTESIAN_POINT ( 'NONE',  ( -6.193973223278660200, 6.424657474552552600, 3.759756121525129400 ) ) ;
#75 =( GEOMETRIC_REPRESENTATION_CONTEXT ( 3 ) GLOBAL_UNCERTAINTY_ASSIGNED_CONTEXT ( ( #87 ) ) GLOBAL_UNIT_ASSIGNED_CONTEXT ( ( #272, #122, #23 ) ) REPRESENTATION_CONTEXT ( 'NONE', 'WORKASPACE' ) );
#76 = EDGE_LOOP ( 'NONE', ( #189, #294, #260 ) ) ;
#77 = DIRECTION ( 'NONE',  ( 1.000000000000000000, 0.0000000000000000000, 0.0000000000000000000 ) ) ;
#78 = CC_DESIGN_DATE_AND_TIME_ASSIGNMENT ( #100, #275, ( #259 ) ) ;
#79 = EDGE_CURVE ( 'NONE', #13, #70, #161, .T. ) ;
#80 = VERTEX_POINT ( 'NONE', #173 ) ;
#81 = DIRECTION ( 'NONE',  ( -0.0000000000000000000, -0.0000000000000000000, -1.000000000000000000 ) ) ;
#82 = CARTESIAN_POINT ( 'NONE',  ( 2.178211564569271500, 2.185663212459194600, 0.2709606868316953900 ) ) ;
#83 = DIRECTION ( 'NONE',  ( 0.0000000000000000000, 0.0000000000000000000, 1.000000000000000000 ) ) ;
#84 = EDGE_CURVE ( 'NONE', #80, #52, #153, .T. ) ;
#85 = CARTESIAN_POINT ( 'NONE',  ( 2.178211564569273700, -2.185663212459190200, 1.929039313168303200 ) ) ;
#86 = ORIENTED_EDGE ( 'NONE', *, *, #99, .F. ) ;
#87 = UNCERTAINTY_MEASURE_WITH_UNIT (LENGTH_MEASURE( 1.000000000000000100E-005 ), #272, 'distance_accuracy_value', 'NONE');
#88 = CARTESIAN_POINT ( 'NONE',  ( -2.602085213965210600E-015, -6.424657474552549100, -0.7964765989744970700 ) ) ;
#89 = APPLICATION_PROTOCOL_DEFINITION ( 'international standard', 'config_control_design', 1994, #69 ) ;
#90 = APPROVAL_ROLE ( '' ) ;
#91 = ORIENTED_EDGE ( 'NONE', *, *, #79, .F. ) ;
#92 = COORDINATED_UNIVERSAL_TIME_OFFSET ( 2, 0, .AHEAD. ) ;
#93 = CARTESIAN_POINT ( 'NONE',  ( -6.349999999999999600, 1.998896044546239400E-015, -0.7777928881970720400 ) ) ;
#94 = CARTESIAN_POINT ( 'NONE',  ( -4.340070540660949700, 2.185663212459191900, 2.195443869276410400 ) ) ;
#95 =( BOUNDED_SURFACE ( )  B_SPLINE_SURFACE ( 3, 3, ( 
 ( #219, #151, #134, #184 ),
 ( #288, #82, #246, #155 ),
 ( #33, #107, #266, #154 ),
 ( #16, #103, #179, #202 ) ),
 .UNSPECIFIED., .F., .F., .F. ) 
 B_SPLINE_SURFACE_WITH_KNOTS ( ( 4, 4 ),
 ( 4, 4 ),
 ( 0.0000000000000000000, 1.000000000000000000 ),
 ( 0.0000000000000000000, 1.000000000000000000 ),
 .UNSPECIFIED. ) 
 GEOMETRIC_REPRESENTATION_ITEM ( )  RATIONAL_B_SPLINE_SURFACE ( (
 ( 1.000000000000000000, 0.9949951024826714200, 0.9949951024826714200, 1.000000000000000000),
 ( 0.9798181528195997200, 0.9749142633791194600, 0.9749142633791194600, 0.9798181528195997200),
 ( 0.9798181528195997200, 0.9749142633791194600, 0.9749142633791194600, 0.9798181528195997200),
 ( 1.000000000000000000, 0.9949951024826714200, 0.9949951024826714200, 1.000000000000000000) ) ) 
 REPRESENTATION_ITEM ( '' )  SURFACE ( )  );
#96 = CYLINDRICAL_SURFACE ( 'NONE', #262, 6.349999999999999600 ) ;
#97 = FACE_OUTER_BOUND ( 'NONE', #280, .T. ) ;
#98 = CARTESIAN_POINT ( 'NONE',  ( 2.498001805406600200E-016, 1.221245327087670000E-015, 2.977792888197070100 ) ) ;
#99 = EDGE_CURVE ( 'NONE', #240, #80, #220, .T. ) ;
#100 = DATE_AND_TIME ( #110, #162 ) ;
#101 = DIRECTION ( 'NONE',  ( -0.0000000000000000000, -0.0000000000000000000, -1.000000000000000000 ) ) ;
#102 = EDGE_CURVE ( 'NONE', #240, #52, #49, .T. ) ;
#103 = CARTESIAN_POINT ( 'NONE',  ( 2.090739021052535800, -6.424657474552550900, -0.7964765989744998500 ) ) ;
#104 = PERSON_AND_ORGANIZATION ( #265, #53 ) ;
#105 = DIRECTION ( 'NONE',  ( 0.0000000000000000000, 0.0000000000000000000, 1.000000000000000000 ) ) ;
#106 = CARTESIAN_POINT ( 'NONE',  ( 2.498001805406600200E-016, 1.221245327087670000E-015, -0.7777928881970720400 ) ) ;
#107 = CARTESIAN_POINT ( 'NONE',  ( 2.178211564569269700, -2.185663212459188400, 0.2709606868316946100 ) ) ;
#108 = EDGE_LOOP ( 'NONE', ( #210, #267, #143, #199, #139, #238 ) ) ;
#109 = CARTESIAN_POINT ( 'NONE',  ( 0.0000000000000000000, 1.776356839400250100E-015, -26.30999999999999900 ) ) ;
#110 = CALENDAR_DATE ( 2019, 21, 1 ) ;
#111 = CARTESIAN_POINT ( 'NONE',  ( 2.602085213965210600E-015, -6.424657474552551800, 2.996476598974497500 ) ) ;
#112 = AXIS2_PLACEMENT_3D ( 'NONE', #106, #83, #132 ) ;
#113 = CARTESIAN_POINT ( 'NONE',  ( -6.453117280408268800, -2.185663212459187000, -0.5242529989882126500 ) ) ;
#114 = FACE_OUTER_BOUND ( 'NONE', #147, .T. ) ;
#115 = APPROVAL_DATE_TIME ( #158, #293 ) ;
#116 = CARTESIAN_POINT ( 'NONE',  ( 8.673617379884035500E-016, 6.424657474552556200, -0.7964765989744970700 ) ) ;
#117 = EDGE_CURVE ( 'NONE', #70, #240, #271, .T. ) ;
#118 = ORIENTED_EDGE ( 'NONE', *, *, #183, .T. ) ;
#119 = DATE_AND_TIME ( #10, #22 ) ;
#120 = PERSON_AND_ORGANIZATION_ROLE ( 'creator' ) ;
#121 = CARTESIAN_POINT ( 'NONE',  ( -4.314115936722828000E-015, -6.424657474552550900, 2.996476598974499700 ) ) ;
#122 =( NAMED_UNIT ( * ) PLANE_ANGLE_UNIT ( ) SI_UNIT ( $, .RADIAN. ) );
#123 = ORIENTED_EDGE ( 'NONE', *, *, #117, .F. ) ;
#124 = PERSON_AND_ORGANIZATION ( #265, #53 ) ;
#125 = AXIS2_PLACEMENT_3D ( 'NONE', #131, #283, #31 ) ;
#126 = EDGE_LOOP ( 'NONE', ( #91, #118, #17, #43, #232, #252 ) ) ;
#127 = CC_DESIGN_PERSON_AND_ORGANIZATION_ASSIGNMENT ( #174, #120, ( #213 ) ) ;
#128 = CARTESIAN_POINT ( 'NONE',  ( 2.498001805406600200E-016, 1.221245327087670000E-015, 2.977792888197070100 ) ) ;
#129 = APPROVAL_DATE_TIME ( #261, #148 ) ;
#130 = APPROVAL_DATE_TIME ( #119, #20 ) ;
#131 = CARTESIAN_POINT ( 'NONE',  ( 2.498001805406600200E-016, 1.221245327087670000E-015, -0.7777928881970720400 ) ) ;
#132 = DIRECTION ( 'NONE',  ( 1.000000000000000000, 0.0000000000000000000, 0.0000000000000000000 ) ) ;
#133 = CLOSED_SHELL ( 'NONE', ( #282, #263, #39, #180, #176, #59 ) ) ;
#134 = CARTESIAN_POINT ( 'NONE',  ( 4.165782140301299600, 6.424657474552556200, -1.052182890273864800 ) ) ;
#135 = CARTESIAN_POINT ( 'NONE',  ( -4.340070540660952300, 2.185663212459196800, 0.004556130723590550600 ) ) ;
#136 = CYLINDRICAL_SURFACE ( 'NONE', #190, 6.349999999999999600 ) ;
#137 = CARTESIAN_POINT ( 'NONE',  ( -2.178211564569273700, 2.185663212459195900, 0.2709606868316979900 ) ) ;
#138 = AXIS2_PLACEMENT_3D ( 'NONE', #40, #230, #231 ) ;
#139 = ORIENTED_EDGE ( 'NONE', *, *, #99, .T. ) ;
#140 = PRODUCT_RELATED_PRODUCT_CATEGORY ( 'detail', '', ( #58 ) ) ;
#141 = SECURITY_CLASSIFICATION_LEVEL ( 'unclassified' ) ;
#142 = CC_DESIGN_PERSON_AND_ORGANIZATION_ASSIGNMENT ( #124, #234, ( #58 ) ) ;
#143 = ORIENTED_EDGE ( 'NONE', *, *, #79, .T. ) ;
#144 = APPROVAL_ROLE ( '' ) ;
#145 = DIRECTION ( 'NONE',  ( 1.000000000000000000, 0.0000000000000000000, 0.0000000000000000000 ) ) ;
#146 = CARTESIAN_POINT ( 'NONE',  ( -6.349999999999999600, 1.998896044546239400E-015, 2.977792888197070100 ) ) ;
#147 = EDGE_LOOP ( 'NONE', ( #206, #123, #245 ) ) ;
#148 = APPROVAL ( #21, 'UNSPECIFIED' ) ;
#149 = AXIS2_PLACEMENT_3D ( 'NONE', #27, #150, #32 ) ;
#150 = DIRECTION ( 'NONE',  ( -1.000000000000000000, -2.761172176722929900E-016, 2.386214709509340100E-016 ) ) ;
#151 = CARTESIAN_POINT ( 'NONE',  ( 2.090739021052539400, 6.424657474552556200, -0.7964765989744998500 ) ) ;
#152 = CARTESIAN_POINT ( 'NONE',  ( 6.193973223278663700, 6.424657474552556200, 3.759756121525129800 ) ) ;
#153 = CIRCLE ( 'NONE', #250, 6.349999999999999600 ) ;
#154 = CARTESIAN_POINT ( 'NONE',  ( 6.453117280408251900, -2.185663212459190600, -0.5242529989882093200 ) ) ;
#155 = CARTESIAN_POINT ( 'NONE',  ( 6.453117280408253700, 2.185663212459193300, -0.5242529989882086500 ) ) ;
#156 = DIRECTION ( 'NONE',  ( 0.0000000000000000000, 0.0000000000000000000, 1.000000000000000000 ) ) ;
#157 = VERTEX_POINT ( 'NONE', #201 ) ;
#158 = DATE_AND_TIME ( #169, #233 ) ;
#159 = CARTESIAN_POINT ( 'NONE',  ( 4.340070540660952300, -2.185663212459189300, 2.195443869276410400 ) ) ;
#160 = CARTESIAN_POINT ( 'NONE',  ( 6.453117280408267900, -2.185663212459188800, 2.724252998988212500 ) ) ;
#161 = LINE ( 'NONE', #93, #34 ) ;
#162 = LOCAL_TIME ( 0, 11, 35.00000000000000000, #278 ) ;
#163 = DATE_TIME_ROLE ( 'creation_date' ) ;
#164 = APPROVAL_PERSON_ORGANIZATION ( #60, #293, #144 ) ;
#165 =( BOUNDED_SURFACE ( )  B_SPLINE_SURFACE ( 3, 3, ( 
 ( #152, #15, #264, #12 ),
 ( #203, #223, #181, #63 ),
 ( #160, #159, #85, #251 ),
 ( #209, #290, #247, #111 ) ),
 .UNSPECIFIED., .F., .F., .F. ) 
 B_SPLINE_SURFACE_WITH_KNOTS ( ( 4, 4 ),
 ( 4, 4 ),
 ( 0.0000000000000000000, 1.000000000000000000 ),
 ( 0.0000000000000000000, 1.000000000000000000 ),
 .UNSPECIFIED. ) 
 GEOMETRIC_REPRESENTATION_ITEM ( )  RATIONAL_B_SPLINE_SURFACE ( (
 ( 1.000000000000000000, 0.9949951024826712000, 0.9949951024826712000, 1.000000000000000000),
 ( 0.9798181528195997200, 0.9749142633791192400, 0.9749142633791192400, 0.9798181528195997200),
 ( 0.9798181528195997200, 0.9749142633791192400, 0.9749142633791192400, 0.9798181528195997200),
 ( 1.000000000000000000, 0.9949951024826712000, 0.9949951024826712000, 1.000000000000000000) ) ) 
 REPRESENTATION_ITEM ( '' )  SURFACE ( )  );
#166 = CC_DESIGN_PERSON_AND_ORGANIZATION_ASSIGNMENT ( #41, #212, ( #259 ) ) ;
#167 = CARTESIAN_POINT ( 'NONE',  ( -4.340070540660949700, -2.185663212459191000, 2.195443869276410400 ) ) ;
#168 = CARTESIAN_POINT ( 'NONE',  ( -2.178211564569275000, 2.185663212459192800, 1.929039313168305200 ) ) ;
#169 = CALENDAR_DATE ( 2019, 21, 1 ) ;
#170 = CARTESIAN_POINT ( 'NONE',  ( -2.090739021052542100, 6.424657474552554400, 2.996476598974500100 ) ) ;
#171 = AXIS2_PLACEMENT_3D ( 'NONE', #109, #64, #242 ) ;
#172 = CARTESIAN_POINT ( 'NONE',  ( -2.090739021052539800, -6.424657474552552600, 2.996476598974500100 ) ) ;
#173 = CARTESIAN_POINT ( 'NONE',  ( 6.349999999999999600, 1.221245327087670000E-015, 2.977792888197070100 ) ) ;
#174 = PERSON_AND_ORGANIZATION ( #265, #53 ) ;
#175 = EDGE_CURVE ( 'NONE', #157, #13, #182, .T. ) ;
#176 = ADVANCED_FACE ( 'NONE', ( #221 ), #95, .F. ) ;
#177 = APPROVAL_PERSON_ORGANIZATION ( #226, #20, #273 ) ;
#178 = CC_DESIGN_PERSON_AND_ORGANIZATION_ASSIGNMENT ( #104, #2, ( #213 ) ) ;
#179 = CARTESIAN_POINT ( 'NONE',  ( 4.165782140301295100, -6.424657474552550900, -1.052182890273864800 ) ) ;
#180 = ADVANCED_FACE ( 'NONE', ( #255 ), #136, .T. ) ;
#181 = CARTESIAN_POINT ( 'NONE',  ( 2.178211564569273700, 2.185663212459194100, 1.929039313168303200 ) ) ;
#182 = CIRCLE ( 'NONE', #28, 6.349999999999999600 ) ;
#183 = EDGE_CURVE ( 'NONE', #13, #3, #35, .T. ) ;
#184 = CARTESIAN_POINT ( 'NONE',  ( 6.193973223278651300, 6.424657474552554400, -1.559756121525126100 ) ) ;
#185 = CC_DESIGN_APPROVAL ( #293, ( #213 ) ) ;
#186 = CARTESIAN_POINT ( 'NONE',  ( 0.0000000000000000000, 2.185663212459195000, 0.2709606868316981600 ) ) ;
#187 = DATE_AND_TIME ( #239, #241 ) ;
#188 = CARTESIAN_POINT ( 'NONE',  ( -2.090739021052541600, -6.424657474552550000, -0.7964765989744971900 ) ) ;
#189 = ORIENTED_EDGE ( 'NONE', *, *, #175, .F. ) ;
#190 = AXIS2_PLACEMENT_3D ( 'NONE', #225, #156, #243 ) ;
#191 = PERSON_AND_ORGANIZATION ( #265, #53 ) ;
#192 = CARTESIAN_POINT ( 'NONE',  ( -4.339188485423255100E-015, -6.349999999999990800, 2.977792888197070600 ) ) ;
#193 = CARTESIAN_POINT ( 'NONE',  ( 4.339188485423254300E-015, -6.349999999999990800, -0.7777928881970714900 ) ) ;
#194 = VERTEX_POINT ( 'NONE', #224 ) ;
#195 = PRODUCT_DEFINITION_SHAPE ( 'NONE', 'NONE',  #289 ) ;
#196 = EDGE_CURVE ( 'NONE', #194, #157, #287, .T. ) ;
#197 = DIRECTION ( 'NONE',  ( 1.000000000000000000, 0.0000000000000000000, 0.0000000000000000000 ) ) ;
#198 =( BOUNDED_SURFACE ( )  B_SPLINE_SURFACE ( 3, 3, ( 
 ( #68, #18, #228, #116 ),
 ( #249, #135, #137, #186 ),
 ( #113, #42, #270, #269 ),
 ( #67, #19, #188, #88 ) ),
 .UNSPECIFIED., .F., .F., .T. ) 
 B_SPLINE_SURFACE_WITH_KNOTS ( ( 4, 4 ),
 ( 4, 4 ),
 ( 0.0000000000000000000, 1.000000000000000000 ),
 ( 0.0000000000000000000, 1.000000000000000000 ),
 .UNSPECIFIED. ) 
 GEOMETRIC_REPRESENTATION_ITEM ( )  RATIONAL_B_SPLINE_SURFACE ( (
 ( 1.000000000000000000, 0.9949951024826712000, 0.9949951024826712000, 1.000000000000000000),
 ( 0.9798181528195997200, 0.9749142633791192400, 0.9749142633791192400, 0.9798181528195997200),
 ( 0.9798181528195997200, 0.9749142633791192400, 0.9749142633791192400, 0.9798181528195997200),
 ( 1.000000000000000000, 0.9949951024826712000, 0.9949951024826712000, 1.000000000000000000) ) ) 
 REPRESENTATION_ITEM ( '' )  SURFACE ( )  );
#199 = ORIENTED_EDGE ( 'NONE', *, *, #117, .T. ) ;
#200 = CC_DESIGN_APPROVAL ( #148, ( #259 ) ) ;
#201 = CARTESIAN_POINT ( 'NONE',  ( 7.845877149861370400E-015, 6.349999999999994300, -0.7777928881970714900 ) ) ;
#202 = CARTESIAN_POINT ( 'NONE',  ( 6.193973223278647700, -6.424657474552550900, -1.559756121525126100 ) ) ;
#203 = CARTESIAN_POINT ( 'NONE',  ( 6.453117280408267900, 2.185663212459195000, 2.724252998988212900 ) ) ;
#204 = ORIENTED_EDGE ( 'NONE', *, *, #84, .F. ) ;
#205 = DIRECTION ( 'NONE',  ( 1.000000000000000000, 8.881784197001252300E-016, 0.0000000000000000000 ) ) ;
#206 = ORIENTED_EDGE ( 'NONE', *, *, #102, .F. ) ;
#207 = FACE_OUTER_BOUND ( 'NONE', #76, .T. ) ;
#208 =( BOUNDED_SURFACE ( )  B_SPLINE_SURFACE ( 3, 3, ( 
 ( #257, #170, #258, #74 ),
 ( #279, #168, #94, #26 ),
 ( #215, #4, #167, #25 ),
 ( #121, #172, #256, #6 ) ),
 .UNSPECIFIED., .F., .F., .F. ) 
 B_SPLINE_SURFACE_WITH_KNOTS ( ( 4, 4 ),
 ( 4, 4 ),
 ( 0.0000000000000000000, 1.000000000000000000 ),
 ( 0.0000000000000000000, 1.000000000000000000 ),
 .UNSPECIFIED. ) 
 GEOMETRIC_REPRESENTATION_ITEM ( )  RATIONAL_B_SPLINE_SURFACE ( (
 ( 1.000000000000000000, 0.9949951024826714200, 0.9949951024826714200, 1.000000000000000000),
 ( 0.9798181528195997200, 0.9749142633791194600, 0.9749142633791194600, 0.9798181528195997200),
 ( 0.9798181528195997200, 0.9749142633791194600, 0.9749142633791194600, 0.9798181528195997200),
 ( 1.000000000000000000, 0.9949951024826714200, 0.9949951024826714200, 1.000000000000000000) ) ) 
 REPRESENTATION_ITEM ( '' )  SURFACE ( )  );
#209 = CARTESIAN_POINT ( 'NONE',  ( 6.193973223278667300, -6.424657474552549100, 3.759756121525129800 ) ) ;
#210 = ORIENTED_EDGE ( 'NONE', *, *, #196, .T. ) ;
#211 = AXIS2_PLACEMENT_3D ( 'NONE', #128, #54, #61 ) ;
#212 = PERSON_AND_ORGANIZATION_ROLE ( 'classification_officer' ) ;
#213 = PRODUCT_DEFINITION_FORMATION_WITH_SPECIFIED_SOURCE ( 'ANY', '', #58, .NOT_KNOWN. ) ;
#214 = CARTESIAN_POINT ( 'NONE',  ( 2.498001805406600200E-016, 1.221245327087670000E-015, 2.977792888197070100 ) ) ;
#215 = CARTESIAN_POINT ( 'NONE',  ( -5.739288693387807800E-015, -2.185663212459190600, 1.929039313168305500 ) ) ;
#216 = VECTOR ( 'NONE', #24, 1000.000000000000000 ) ;
#217 = CIRCLE ( 'NONE', #171, 26.30999999999999500 ) ;
#218 = EDGE_LOOP ( 'NONE', ( #29, #62, #9 ) ) ;
#219 = CARTESIAN_POINT ( 'NONE',  ( 7.862033029464730200E-015, 6.424657474552556200, -0.7964765989744992900 ) ) ;
#220 = CIRCLE ( 'NONE', #211, 6.349999999999999600 ) ;
#221 = FACE_OUTER_BOUND ( 'NONE', #218, .T. ) ;
#222 = DIRECTION ( 'NONE',  ( 0.0000000000000000000, 0.0000000000000000000, 1.000000000000000000 ) ) ;
#223 = CARTESIAN_POINT ( 'NONE',  ( 4.340070540660953200, 2.185663212459194600, 2.195443869276410400 ) ) ;
#224 = CARTESIAN_POINT ( 'NONE',  ( 6.349999999999999600, 1.221245327087670000E-015, -0.7777928881970720400 ) ) ;
#225 = CARTESIAN_POINT ( 'NONE',  ( 2.498001805406600200E-016, 1.221245327087670000E-015, -0.7777928881970720400 ) ) ;
#226 = PERSON_AND_ORGANIZATION ( #265, #53 ) ;
#227 = CC_DESIGN_SECURITY_CLASSIFICATION ( #259, ( #213 ) ) ;
#228 = CARTESIAN_POINT ( 'NONE',  ( -2.090739021052538100, 6.424657474552558000, -0.7964765989744971900 ) ) ;
#229 = CIRCLE ( 'NONE', #125, 6.349999999999999600 ) ;
#230 = DIRECTION ( 'NONE',  ( 0.0000000000000000000, 0.0000000000000000000, 1.000000000000000000 ) ) ;
#231 = DIRECTION ( 'NONE',  ( 1.000000000000000000, 0.0000000000000000000, 0.0000000000000000000 ) ) ;
#232 = ORIENTED_EDGE ( 'NONE', *, *, #84, .T. ) ;
#233 = LOCAL_TIME ( 0, 11, 35.00000000000000000, #291 ) ;
#234 = PERSON_AND_ORGANIZATION_ROLE ( 'design_owner' ) ;
#235 = DIRECTION ( 'NONE',  ( -0.0000000000000000000, -0.0000000000000000000, -1.000000000000000000 ) ) ;
#236 = CIRCLE ( 'NONE', #281, 6.349999999999999600 ) ;
#237 = DIRECTION ( 'NONE',  ( 0.0000000000000000000, 0.0000000000000000000, 1.000000000000000000 ) ) ;
#238 = ORIENTED_EDGE ( 'NONE', *, *, #65, .F. ) ;
#239 = CALENDAR_DATE ( 2019, 21, 1 ) ;
#240 = VERTEX_POINT ( 'NONE', #285 ) ;
#241 = LOCAL_TIME ( 0, 11, 35.00000000000000000, #66 ) ;
#242 = DIRECTION ( 'NONE',  ( 2.761172176722929900E-016, 1.000000000000000000, 0.0000000000000000000 ) ) ;
#243 = DIRECTION ( 'NONE',  ( 1.000000000000000000, 0.0000000000000000000, 0.0000000000000000000 ) ) ;
#244 = EDGE_CURVE ( 'NONE', #157, #3, #217, .T. ) ;
#245 = ORIENTED_EDGE ( 'NONE', *, *, #50, .F. ) ;
#246 = CARTESIAN_POINT ( 'NONE',  ( 4.340070540660941700, 2.185663212459193700, 0.004556130723590442200 ) ) ;
#247 = CARTESIAN_POINT ( 'NONE',  ( 2.090739021052541600, -6.424657474552552600, 2.996476598974497900 ) ) ;
#248 = MANIFOLD_SOLID_BREP ( 'Imported1', #133 ) ;
#249 = CARTESIAN_POINT ( 'NONE',  ( -6.453117280408267900, 2.185663212459196800, -0.5242529989882119800 ) ) ;
#250 = AXIS2_PLACEMENT_3D ( 'NONE', #98, #101, #197 ) ;
#251 = CARTESIAN_POINT ( 'NONE',  ( 0.0000000000000000000, -2.185663212459191000, 1.929039313168303200 ) ) ;
#252 = ORIENTED_EDGE ( 'NONE', *, *, #50, .T. ) ;
#253 = CC_DESIGN_DATE_AND_TIME_ASSIGNMENT ( #187, #163, ( #289 ) ) ;
#254 = CARTESIAN_POINT ( 'NONE',  ( 6.349999999999999600, 1.221245327087670000E-015, -0.7777928881970720400 ) ) ;
#255 = FACE_OUTER_BOUND ( 'NONE', #126, .T. ) ;
#256 = CARTESIAN_POINT ( 'NONE',  ( -4.165782140301303100, -6.424657474552553500, 3.252182890273867000 ) ) ;
#257 = CARTESIAN_POINT ( 'NONE',  ( -7.862033029464731800E-015, 6.424657474552554400, 2.996476598974499700 ) ) ;
#258 = CARTESIAN_POINT ( 'NONE',  ( -4.165782140301306700, 6.424657474552553500, 3.252182890273866500 ) ) ;
#259 = SECURITY_CLASSIFICATION ( '', '', #141 ) ;
#260 = ORIENTED_EDGE ( 'NONE', *, *, #183, .F. ) ;
#261 = DATE_AND_TIME ( #268, #30 ) ;
#262 = AXIS2_PLACEMENT_3D ( 'NONE', #7, #276, #145 ) ;
#263 = ADVANCED_FACE ( 'NONE', ( #97 ), #165, .F. ) ;
#264 = CARTESIAN_POINT ( 'NONE',  ( 2.090739021052537600, 6.424657474552556200, 2.996476598974497900 ) ) ;
#265 = PERSON ( 'UNSPECIFIED', 'UNSPECIFIED', 'UNSPECIFIED', ('UNSPECIFIED'), ('UNSPECIFIED'), ('UNSPECIFIED') ) ;
#266 = CARTESIAN_POINT ( 'NONE',  ( 4.340070540660939900, -2.185663212459189300, 0.004556130723589900900 ) ) ;
#267 = ORIENTED_EDGE ( 'NONE', *, *, #175, .T. ) ;
#268 = CALENDAR_DATE ( 2019, 21, 1 ) ;
#269 = CARTESIAN_POINT ( 'NONE',  ( -8.673617379884035500E-016, -2.185663212459188800, 0.2709606868316971600 ) ) ;
#270 = CARTESIAN_POINT ( 'NONE',  ( -2.178211564569274600, -2.185663212459187900, 0.2709606868316972700 ) ) ;
#271 = CIRCLE ( 'NONE', #44, 6.349999999999999600 ) ;
#272 =( LENGTH_UNIT ( ) NAMED_UNIT ( * ) SI_UNIT ( .MILLI., .METRE. ) );
#273 = APPROVAL_ROLE ( '' ) ;
#274 = APPROVAL_PERSON_ORGANIZATION ( #38, #148, #90 ) ;
#275 = DATE_TIME_ROLE ( 'classification_date' ) ;
#276 = DIRECTION ( 'NONE',  ( 0.0000000000000000000, 0.0000000000000000000, 1.000000000000000000 ) ) ;
#277 = APPROVAL_STATUS ( 'not_yet_approved' ) ;
#278 = COORDINATED_UNIVERSAL_TIME_OFFSET ( 2, 0, .AHEAD. ) ;
#279 = CARTESIAN_POINT ( 'NONE',  ( -6.946287183373644200E-015, 2.185663212459193300, 1.929039313168305500 ) ) ;
#280 = EDGE_LOOP ( 'NONE', ( #86, #8, #204 ) ) ;
#281 = AXIS2_PLACEMENT_3D ( 'NONE', #214, #235, #77 ) ;
#282 = ADVANCED_FACE ( 'NONE', ( #207 ), #198, .F. ) ;
#283 = DIRECTION ( 'NONE',  ( 0.0000000000000000000, 0.0000000000000000000, 1.000000000000000000 ) ) ;
#284 = CARTESIAN_POINT ( 'NONE',  ( 2.498001805406600200E-016, 1.221245327087670000E-015, -0.7777928881970720400 ) ) ;
#285 = CARTESIAN_POINT ( 'NONE',  ( -7.845877149861370400E-015, 6.349999999999994300, 2.977792888197070600 ) ) ;
#286 = FACE_OUTER_BOUND ( 'NONE', #108, .T. ) ;
#287 = CIRCLE ( 'NONE', #1, 6.349999999999999600 ) ;
#288 = CARTESIAN_POINT ( 'NONE',  ( 6.946287183373644200E-015, 2.185663212459195000, 0.2709606868316960000 ) ) ;
#289 = PRODUCT_DEFINITION ( 'UNKNOWN', '', #213, #57 ) ;
#290 = CARTESIAN_POINT ( 'NONE',  ( 4.165782140301308400, -6.424657474552551800, 3.252182890273865200 ) ) ;
#291 = COORDINATED_UNIVERSAL_TIME_OFFSET ( 2, 0, .AHEAD. ) ;
#292 = APPROVAL_STATUS ( 'not_yet_approved' ) ;
#293 = APPROVAL ( #277, 'UNSPECIFIED' ) ;
#294 = ORIENTED_EDGE ( 'NONE', *, *, #244, .T. ) ;
#295 = SHAPE_DEFINITION_REPRESENTATION ( #195, #56 ) ;
ENDSEC;
END-ISO-10303-21;
