ISO-10303-21;
HEADER;
FILE_DESCRIPTION (( 'STEP AP203' ),
    '1' );
FILE_NAME ('114-0104E BK7 bi-cv 12.7 F-12.7.STEP',
    '2019-01-18T14:37:16',
    ( '' ),
    ( '' ),
    'SwSTEP 2.0',
    'SolidWorks 2017',
    '' );
FILE_SCHEMA (( 'CONFIG_CONTROL_DESIGN' ));
ENDSEC;

DATA;
#1 = DIRECTION ( 'NONE',  ( 0.0000000000000000000, 0.0000000000000000000, 1.000000000000000000 ) ) ;
#2 = PERSON_AND_ORGANIZATION ( #202, #23 ) ;
#3 = VERTEX_POINT ( 'NONE', #280 ) ;
#4 = PRODUCT ( '114-0104E BK7 bi-cv 12.7 F-12.7', '114-0104E BK7 bi-cv 12.7 F-12.7', '', ( #245 ) ) ;
#5 = APPROVAL_ROLE ( '' ) ;
#6 = CIRCLE ( 'NONE', #215, 13.70000000000000100 ) ;
#7 = ADVANCED_FACE ( 'NONE', ( #207 ), #130, .F. ) ;
#8 = ORIENTED_EDGE ( 'NONE', *, *, #250, .F. ) ;
#9 = DIRECTION ( 'NONE',  ( 1.000000000000000000, 0.0000000000000000000, 0.0000000000000000000 ) ) ;
#10 = CARTESIAN_POINT ( 'NONE',  ( -6.654161235549168800, -2.320407015603055600, 4.268095772786496800 ) ) ;
#11 = CARTESIAN_POINT ( 'NONE',  ( -2.330287149131749800, -2.320407015603053800, 2.622644987457249900 ) ) ;
#12 = CARTESIAN_POINT ( 'NONE',  ( 6.654161235549175900, -2.320407015603052100, 4.268095772786498500 ) ) ;
#13 =( BOUNDED_SURFACE ( )  B_SPLINE_SURFACE ( 3, 3, ( 
 ( #281, #59, #147, #40 ),
 ( #162, #186, #57, #254 ),
 ( #236, #11, #120, #10 ),
 ( #163, #166, #209, #37 ) ),
 .UNSPECIFIED., .F., .F., .T. ) 
 B_SPLINE_SURFACE_WITH_KNOTS ( ( 4, 4 ),
 ( 4, 4 ),
 ( 0.0000000000000000000, 1.000000000000000000 ),
 ( 0.0000000000000000000, 1.000000000000000000 ),
 .UNSPECIFIED. ) 
 GEOMETRIC_REPRESENTATION_ITEM ( )  RATIONAL_B_SPLINE_SURFACE ( (
 ( 1.000000000000000000, 0.9805068472777076500, 0.9805068472777076500, 1.000000000000000000),
 ( 0.9222664041818713400, 0.9042885243145146700, 0.9042885243145146700, 0.9222664041818713400),
 ( 0.9222664041818713400, 0.9042885243145146700, 0.9042885243145146700, 0.9222664041818713400),
 ( 1.000000000000000000, 0.9805068472777076500, 0.9805068472777076500, 1.000000000000000000) ) ) 
 REPRESENTATION_ITEM ( '' )  SURFACE ( )  );
#14 = CARTESIAN_POINT ( 'NONE',  ( -5.640574372663746100, -6.420100303555837900, -2.992234927925843600 ) ) ;
#15 = CIRCLE ( 'NONE', #82, 6.349999999999999600 ) ;
#16 = ORIENTED_EDGE ( 'NONE', *, *, #221, .T. ) ;
#17 = DIRECTION ( 'NONE',  ( 1.000000000000000000, -2.651329925897090000E-016, -2.291288649897470200E-016 ) ) ;
#18 = DIRECTION ( 'NONE',  ( 1.000000000000000000, 0.0000000000000000000, 0.0000000000000000000 ) ) ;
#19 = CARTESIAN_POINT ( 'NONE',  ( -8.673617379884035500E-016, -6.420100303555839700, -1.597425394062539600 ) ) ;
#20 = APPLICATION_PROTOCOL_DEFINITION ( 'international standard', 'config_control_design', 1994, #21 ) ;
#21 = APPLICATION_CONTEXT ( 'configuration controlled 3d designs of mechanical parts and assemblies' ) ;
#22 = DATE_TIME_ROLE ( 'classification_date' ) ;
#23 = ORGANIZATION ( 'UNSPECIFIED', 'UNSPECIFIED', '' ) ;
#24 = ORIENTED_EDGE ( 'NONE', *, *, #53, .T. ) ;
#25 = APPROVAL_PERSON_ORGANIZATION ( #217, #139, #271 ) ;
#26 = FACE_OUTER_BOUND ( 'NONE', #34, .T. ) ;
#27 = ADVANCED_FACE ( 'NONE', ( #26 ), #253, .F. ) ;
#28 = COORDINATED_UNIVERSAL_TIME_OFFSET ( 2, 0, .AHEAD. ) ;
#29 = EDGE_CURVE ( 'NONE', #229, #218, #6, .T. ) ;
#30 = DIRECTION ( 'NONE',  ( 0.0000000000000000000, 0.0000000000000000000, 1.000000000000000000 ) ) ;
#31 = CALENDAR_DATE ( 2019, 18, 1 ) ;
#32 = CARTESIAN_POINT ( 'NONE',  ( -1.734723475976807100E-015, 6.420100303555837100, 4.797425394062536900 ) ) ;
#33 = DIRECTION ( 'NONE',  ( -0.0000000000000000000, -0.0000000000000000000, -1.000000000000000000 ) ) ;
#34 = EDGE_LOOP ( 'NONE', ( #96, #100, #67 ) ) ;
#35 = AXIS2_PLACEMENT_3D ( 'NONE', #288, #1, #136 ) ;
#36 = CARTESIAN_POINT ( 'NONE',  ( -6.349999999999999600, 1.998896044546239400E-015, 4.760498362782760400 ) ) ;
#37 = CARTESIAN_POINT ( 'NONE',  ( -5.640574372663737200, -6.420100303555843300, 6.192234927925840200 ) ) ;
#38 = EDGE_CURVE ( 'NONE', #229, #278, #15, .T. ) ;
#39 = CARTESIAN_POINT ( 'NONE',  ( 6.349999999999999600, 1.221245327087670000E-015, -1.560498362782760000 ) ) ;
#40 = CARTESIAN_POINT ( 'NONE',  ( -5.640574372663740700, 6.420100303555835300, 6.192234927925839300 ) ) ;
#41 = COORDINATED_UNIVERSAL_TIME_OFFSET ( 2, 0, .AHEAD. ) ;
#42 = CARTESIAN_POINT ( 'NONE',  ( 5.640574372663742500, 6.420100303555837900, 6.192234927925842000 ) ) ;
#43 = CARTESIAN_POINT ( 'NONE',  ( 2.498001805406600200E-016, 1.221245327087670000E-015, 4.760498362782760400 ) ) ;
#44 = DIRECTION ( 'NONE',  ( -2.651329925897090000E-016, 1.000000000000000000, 0.0000000000000000000 ) ) ;
#45 = PRODUCT_DEFINITION_SHAPE ( 'NONE', 'NONE',  #289 ) ;
#46 = COORDINATED_UNIVERSAL_TIME_OFFSET ( 2, 0, .AHEAD. ) ;
#47 = PERSON_AND_ORGANIZATION_ROLE ( 'design_owner' ) ;
#48 = PERSON_AND_ORGANIZATION_ROLE ( 'creator' ) ;
#49 = AXIS2_PLACEMENT_3D ( 'NONE', #144, #206, #61 ) ;
#50 = APPROVAL_DATE_TIME ( #201, #139 ) ;
#51 = VERTEX_POINT ( 'NONE', #39 ) ;
#52 = CC_DESIGN_APPROVAL ( #179, ( #289 ) ) ;
#53 = EDGE_CURVE ( 'NONE', #194, #200, #243, .T. ) ;
#54 = ORIENTED_EDGE ( 'NONE', *, *, #73, .T. ) ;
#55 = FACE_OUTER_BOUND ( 'NONE', #290, .T. ) ;
#56 = EDGE_LOOP ( 'NONE', ( #8, #181, #75 ) ) ;
#57 = CARTESIAN_POINT ( 'NONE',  ( -4.592437333336266500, 2.320407015603045900, 3.182032814918694700 ) ) ;
#58 = CARTESIAN_POINT ( 'NONE',  ( 2.330287149131750300, 2.320407015603045000, 0.5773550125427491200 ) ) ;
#59 = CARTESIAN_POINT ( 'NONE',  ( -1.975329047351437300, 6.420100303555835300, 4.797425394062539500 ) ) ;
#60 = CARTESIAN_POINT ( 'NONE',  ( 5.640574372663739000, 6.420100303555831700, -2.992234927925837800 ) ) ;
#61 = DIRECTION ( 'NONE',  ( 1.000000000000000000, 0.0000000000000000000, 0.0000000000000000000 ) ) ;
#62 = FACE_OUTER_BOUND ( 'NONE', #118, .T. ) ;
#63 = CARTESIAN_POINT ( 'NONE',  ( -1.734723475976806900E-015, 2.320407015603047200, 2.622644987457246800 ) ) ;
#64 = CARTESIAN_POINT ( 'NONE',  ( 0.0000000000000000000, -2.320407015603053800, 0.5773550125427492400 ) ) ;
#65 = CARTESIAN_POINT ( 'NONE',  ( 1.734723475976807100E-015, 6.420100303555830800, -1.597425394062538700 ) ) ;
#66 = LOCAL_TIME ( 16, 37, 16.00000000000000000, #28 ) ;
#67 = ORIENTED_EDGE ( 'NONE', *, *, #182, .F. ) ;
#68 = AXIS2_PLACEMENT_3D ( 'NONE', #230, #211, #125 ) ;
#69 = DIRECTION ( 'NONE',  ( -0.0000000000000000000, -0.0000000000000000000, -1.000000000000000000 ) ) ;
#70 = CARTESIAN_POINT ( 'NONE',  ( 2.498001805406600200E-016, 1.221245327087670000E-015, -1.560498362782760000 ) ) ;
#71 = PERSON_AND_ORGANIZATION_ROLE ( 'design_supplier' ) ;
#72 = CALENDAR_DATE ( 2019, 18, 1 ) ;
#73 = EDGE_CURVE ( 'NONE', #51, #3, #228, .T. ) ;
#74 = MANIFOLD_SOLID_BREP ( 'Imported1', #141 ) ;
#75 = ORIENTED_EDGE ( 'NONE', *, *, #53, .F. ) ;
#76 = CIRCLE ( 'NONE', #68, 6.349999999999999600 ) ;
#77 = APPLICATION_PROTOCOL_DEFINITION ( 'international standard', 'config_control_design', 1994, #247 ) ;
#78 = PERSON_AND_ORGANIZATION ( #202, #23 ) ;
#79 = SHAPE_DEFINITION_REPRESENTATION ( #45, #81 ) ;
#80 = CARTESIAN_POINT ( 'NONE',  ( 2.498001805406600200E-016, 1.221245327087670000E-015, 4.760498362782760400 ) ) ;
#81 = ADVANCED_BREP_SHAPE_REPRESENTATION ( '114-0104E BK7 bi-cv 12.7 F-12.7', ( #74, #35 ), #242 ) ;
#82 = AXIS2_PLACEMENT_3D ( 'NONE', #232, #30, #190 ) ;
#83 = CARTESIAN_POINT ( 'NONE',  ( 4.592437333336267400, 2.320407015603049400, 3.182032814918695600 ) ) ;
#84 = CARTESIAN_POINT ( 'NONE',  ( -6.349999999999999600, 1.998896044546239400E-015, -1.560498362782760000 ) ) ;
#85 = LINE ( 'NONE', #84, #177 ) ;
#86 = AXIS2_PLACEMENT_3D ( 'NONE', #213, #69, #238 ) ;
#87 = CARTESIAN_POINT ( 'NONE',  ( 5.640574372663736300, -6.420100303555841500, -2.992234927925839600 ) ) ;
#88 = CARTESIAN_POINT ( 'NONE',  ( -2.330287149131750300, -2.320407015603053400, 0.5773550125427492400 ) ) ;
#89 = DIRECTION ( 'NONE',  ( 1.000000000000000000, 0.0000000000000000000, 0.0000000000000000000 ) ) ;
#90 = CC_DESIGN_DATE_AND_TIME_ASSIGNMENT ( #269, #22, ( #160 ) ) ;
#91 = ORIENTED_EDGE ( 'NONE', *, *, #38, .T. ) ;
#92 = CARTESIAN_POINT ( 'NONE',  ( -6.654161235549175000, -2.320407015603052100, -1.068095772786502400 ) ) ;
#93 = AXIS2_PLACEMENT_3D ( 'NONE', #105, #133, #195 ) ;
#94 = APPROVAL_PERSON_ORGANIZATION ( #150, #261, #294 ) ;
#95 = CC_DESIGN_DATE_AND_TIME_ASSIGNMENT ( #204, #225, ( #289 ) ) ;
#96 = ORIENTED_EDGE ( 'NONE', *, *, #29, .F. ) ;
#97 = CC_DESIGN_PERSON_AND_ORGANIZATION_ASSIGNMENT ( #2, #48, ( #212 ) ) ;
#98 = PERSON_AND_ORGANIZATION ( #202, #23 ) ;
#99 = ADVANCED_FACE ( 'NONE', ( #62 ), #161, .T. ) ;
#100 = ORIENTED_EDGE ( 'NONE', *, *, #170, .F. ) ;
#101 = CARTESIAN_POINT ( 'NONE',  ( 4.592437333336264700, -2.320407015603054700, 0.01796718508130273900 ) ) ;
#102 = CARTESIAN_POINT ( 'NONE',  ( 2.498001805406600200E-016, 1.221245327087670000E-015, -1.560498362782760000 ) ) ;
#103 = CIRCLE ( 'NONE', #145, 6.349999999999999600 ) ;
#104 = CARTESIAN_POINT ( 'NONE',  ( 3.892900008507665700, 6.420100303555837900, 5.271605164023985600 ) ) ;
#105 = CARTESIAN_POINT ( 'NONE',  ( 2.498001805406600200E-016, 1.221245327087670000E-015, -1.560498362782760000 ) ) ;
#106 = CARTESIAN_POINT ( 'NONE',  ( -1.975329047351436900, -6.420100303555839700, -1.597425394062539400 ) ) ;
#107 = DESIGN_CONTEXT ( 'detailed design', #247, 'design' ) ;
#108 = CALENDAR_DATE ( 2019, 18, 1 ) ;
#109 = ORIENTED_EDGE ( 'NONE', *, *, #182, .T. ) ;
#110 = DIRECTION ( 'NONE',  ( 0.0000000000000000000, 0.0000000000000000000, 1.000000000000000000 ) ) ;
#111 = CC_DESIGN_SECURITY_CLASSIFICATION ( #160, ( #212 ) ) ;
#112 = APPROVAL_STATUS ( 'not_yet_approved' ) ;
#113 = EDGE_CURVE ( 'NONE', #3, #194, #76, .T. ) ;
#114 = ORIENTED_EDGE ( 'NONE', *, *, #29, .T. ) ;
#115 = AXIS2_PLACEMENT_3D ( 'NONE', #70, #110, #18 ) ;
#116 = EDGE_LOOP ( 'NONE', ( #275, #159, #143 ) ) ;
#117 = DATE_AND_TIME ( #72, #249 ) ;
#118 = EDGE_LOOP ( 'NONE', ( #185, #91, #16, #138, #284, #203 ) ) ;
#119 = EDGE_CURVE ( 'NONE', #278, #218, #158, .T. ) ;
#120 = CARTESIAN_POINT ( 'NONE',  ( -4.592437333336265600, -2.320407015603054700, 3.182032814918696100 ) ) ;
#121 = CARTESIAN_POINT ( 'NONE',  ( 1.959047196404450700E-015, -6.420100303555840600, -1.597425394062540900 ) ) ;
#122 = CARTESIAN_POINT ( 'NONE',  ( 6.349999999999999600, 1.221245327087670000E-015, -1.560498362782760000 ) ) ;
#123 = APPROVAL_PERSON_ORGANIZATION ( #155, #179, #5 ) ;
#124 = CARTESIAN_POINT ( 'NONE',  ( 4.774749024852712500E-015, 2.320407015603045000, 0.5773550125427496800 ) ) ;
#125 = DIRECTION ( 'NONE',  ( 1.000000000000000000, 0.0000000000000000000, 0.0000000000000000000 ) ) ;
#126 = DIRECTION ( 'NONE',  ( 0.0000000000000000000, 0.0000000000000000000, 1.000000000000000000 ) ) ;
#127 = CIRCLE ( 'NONE', #86, 6.349999999999999600 ) ;
#128 = CARTESIAN_POINT ( 'NONE',  ( 8.881784197001250400E-016, -2.664535259100380000E-015, -13.70000000000000100 ) ) ;
#129 = CARTESIAN_POINT ( 'NONE',  ( 2.498001805406600200E-016, 1.221245327087670000E-015, -1.560498362782760000 ) ) ;
#130 =( BOUNDED_SURFACE ( )  B_SPLINE_SURFACE ( 3, 3, ( 
 ( #42, #104, #282, #32 ),
 ( #263, #83, #235, #63 ),
 ( #12, #237, #148, #164 ),
 ( #188, #233, #168, #279 ) ),
 .UNSPECIFIED., .F., .F., .T. ) 
 B_SPLINE_SURFACE_WITH_KNOTS ( ( 4, 4 ),
 ( 4, 4 ),
 ( 0.0000000000000000000, 1.000000000000000000 ),
 ( 0.0000000000000000000, 1.000000000000000000 ),
 .UNSPECIFIED. ) 
 GEOMETRIC_REPRESENTATION_ITEM ( )  RATIONAL_B_SPLINE_SURFACE ( (
 ( 1.000000000000000000, 0.9805068472777076500, 0.9805068472777076500, 1.000000000000000000),
 ( 0.9222664041818713400, 0.9042885243145146700, 0.9042885243145146700, 0.9222664041818713400),
 ( 0.9222664041818713400, 0.9042885243145146700, 0.9042885243145146700, 0.9222664041818713400),
 ( 1.000000000000000000, 0.9805068472777076500, 0.9805068472777076500, 1.000000000000000000) ) ) 
 REPRESENTATION_ITEM ( '' )  SURFACE ( )  );
#131 = CARTESIAN_POINT ( 'NONE',  ( 1.734723475976807100E-015, 2.320407015603044500, 0.5773550125427487900 ) ) ;
#132 = DIRECTION ( 'NONE',  ( 0.0000000000000000000, 0.0000000000000000000, 1.000000000000000000 ) ) ;
#133 = DIRECTION ( 'NONE',  ( 0.0000000000000000000, 0.0000000000000000000, 1.000000000000000000 ) ) ;
#134 = AXIS2_PLACEMENT_3D ( 'NONE', #175, #266, #44 ) ;
#135 = LOCAL_TIME ( 16, 37, 16.00000000000000000, #41 ) ;
#136 = DIRECTION ( 'NONE',  ( 1.000000000000000000, 0.0000000000000000000, 0.0000000000000000000 ) ) ;
#137 = PERSON_AND_ORGANIZATION ( #202, #23 ) ;
#138 = ORIENTED_EDGE ( 'NONE', *, *, #272, .T. ) ;
#139 = APPROVAL ( #112, 'UNSPECIFIED' ) ;
#140 = CC_DESIGN_APPROVAL ( #261, ( #212 ) ) ;
#141 = CLOSED_SHELL ( 'NONE', ( #223, #7, #99, #205, #27, #156 ) ) ;
#142 = CARTESIAN_POINT ( 'NONE',  ( 5.363408008820167500E-015, 6.420100303555832600, -1.597425394062539100 ) ) ;
#143 = ORIENTED_EDGE ( 'NONE', *, *, #113, .F. ) ;
#144 = CARTESIAN_POINT ( 'NONE',  ( 2.498001805406600200E-016, 1.221245327087670000E-015, -1.560498362782760000 ) ) ;
#145 = AXIS2_PLACEMENT_3D ( 'NONE', #43, #174, #219 ) ;
#146 = CARTESIAN_POINT ( 'NONE',  ( 1.975329047351434200, -6.420100303555843300, -1.597425394062541100 ) ) ;
#147 = CARTESIAN_POINT ( 'NONE',  ( -3.892900008507667000, 6.420100303555837100, 5.271605164023985600 ) ) ;
#148 = CARTESIAN_POINT ( 'NONE',  ( 2.330287149131748500, -2.320407015603053400, 2.622644987457247700 ) ) ;
#149 = CARTESIAN_POINT ( 'NONE',  ( -5.640574372663741600, 6.420100303555832600, -2.992234927925841800 ) ) ;
#150 = PERSON_AND_ORGANIZATION ( #202, #23 ) ;
#151 = CARTESIAN_POINT ( 'NONE',  ( -4.592437333336269100, -2.320407015603052500, 0.01796718508130122300 ) ) ;
#152 = CARTESIAN_POINT ( 'NONE',  ( -1.986094148432234700E-015, -6.350000000000001400, 4.760498362782760400 ) ) ;
#153 = LOCAL_TIME ( 16, 37, 16.00000000000000000, #46 ) ;
#154 = CC_DESIGN_PERSON_AND_ORGANIZATION_ASSIGNMENT ( #137, #71, ( #212 ) ) ;
#155 = PERSON_AND_ORGANIZATION ( #202, #23 ) ;
#156 = ADVANCED_FACE ( 'NONE', ( #167 ), #13, .F. ) ;
#157 = EDGE_CURVE ( 'NONE', #270, #3, #127, .T. ) ;
#158 = CIRCLE ( 'NONE', #255, 6.349999999999999600 ) ;
#159 = ORIENTED_EDGE ( 'NONE', *, *, #250, .T. ) ;
#160 = SECURITY_CLASSIFICATION ( '', '', #220 ) ;
#161 = CYLINDRICAL_SURFACE ( 'NONE', #49, 6.349999999999999600 ) ;
#162 = CARTESIAN_POINT ( 'NONE',  ( -4.774749024852714100E-015, 2.320407015603047200, 2.622644987457247300 ) ) ;
#163 = CARTESIAN_POINT ( 'NONE',  ( -1.959047196404450400E-015, -6.420100303555842400, 4.797425394062540400 ) ) ;
#164 = CARTESIAN_POINT ( 'NONE',  ( -1.734723475976806900E-015, -2.320407015603053000, 2.622644987457247700 ) ) ;
#165 = DIRECTION ( 'NONE',  ( 0.0000000000000000000, 0.0000000000000000000, 1.000000000000000000 ) ) ;
#166 = CARTESIAN_POINT ( 'NONE',  ( -1.975329047351434700, -6.420100303555845000, 4.797425394062541300 ) ) ;
#167 = FACE_OUTER_BOUND ( 'NONE', #56, .T. ) ;
#168 = CARTESIAN_POINT ( 'NONE',  ( 1.975329047351435600, -6.420100303555841500, 4.797425394062539500 ) ) ;
#169 = CARTESIAN_POINT ( 'NONE',  ( -3.892900008507669700, -6.420100303555839700, -2.071605164023987600 ) ) ;
#170 = EDGE_CURVE ( 'NONE', #51, #229, #295, .T. ) ;
#171 = DIRECTION ( 'NONE',  ( 2.651329925897090500E-016, 1.000000000000000000, 2.532443030623075600E-016 ) ) ;
#172 = VECTOR ( 'NONE', #165, 1000.000000000000000 ) ;
#173 = ORIENTED_EDGE ( 'NONE', *, *, #113, .T. ) ;
#174 = DIRECTION ( 'NONE',  ( -0.0000000000000000000, -0.0000000000000000000, -1.000000000000000000 ) ) ;
#175 = CARTESIAN_POINT ( 'NONE',  ( -8.881784197001250400E-016, -2.664535259100380000E-015, 16.89999999999999900 ) ) ;
#176 = PERSON_AND_ORGANIZATION_ROLE ( 'creator' ) ;
#177 = VECTOR ( 'NONE', #126, 1000.000000000000000 ) ;
#178 = APPROVAL_STATUS ( 'not_yet_approved' ) ;
#179 = APPROVAL ( #244, 'UNSPECIFIED' ) ;
#180 = PERSON_AND_ORGANIZATION ( #202, #23 ) ;
#181 = ORIENTED_EDGE ( 'NONE', *, *, #272, .F. ) ;
#182 = EDGE_CURVE ( 'NONE', #218, #51, #234, .T. ) ;
#183 = CC_DESIGN_PERSON_AND_ORGANIZATION_ASSIGNMENT ( #98, #176, ( #289 ) ) ;
#184 = LOCAL_TIME ( 16, 37, 16.00000000000000000, #248 ) ;
#185 = ORIENTED_EDGE ( 'NONE', *, *, #170, .T. ) ;
#186 = CARTESIAN_POINT ( 'NONE',  ( -2.330287149131751200, 2.320407015603046700, 2.622644987457248600 ) ) ;
#187 = CARTESIAN_POINT ( 'NONE',  ( 3.892900008507665700, 6.420100303555831700, -2.071605164023985000 ) ) ;
#188 = CARTESIAN_POINT ( 'NONE',  ( 5.640574372663745200, -6.420100303555840600, 6.192234927925843700 ) ) ;
#189 = FACE_OUTER_BOUND ( 'NONE', #257, .T. ) ;
#190 = DIRECTION ( 'NONE',  ( 1.000000000000000000, 0.0000000000000000000, 0.0000000000000000000 ) ) ;
#191 = CARTESIAN_POINT ( 'NONE',  ( -2.330287149131749400, 2.320407015603045900, 0.5773550125427487900 ) ) ;
#192 = APPROVAL_DATE_TIME ( #251, #261 ) ;
#193 = CARTESIAN_POINT ( 'NONE',  ( 3.892900008507663500, -6.420100303555843300, -2.071605164023987200 ) ) ;
#194 = VERTEX_POINT ( 'NONE', #152 ) ;
#195 = DIRECTION ( 'NONE',  ( 1.000000000000000000, 0.0000000000000000000, 0.0000000000000000000 ) ) ;
#196 =( LENGTH_UNIT ( ) NAMED_UNIT ( * ) SI_UNIT ( .MILLI., .METRE. ) );
#197 = PERSON_AND_ORGANIZATION_ROLE ( 'classification_officer' ) ;
#198 = CC_DESIGN_PERSON_AND_ORGANIZATION_ASSIGNMENT ( #180, #47, ( #4 ) ) ;
#199 = CYLINDRICAL_SURFACE ( 'NONE', #224, 6.349999999999999600 ) ;
#200 = VERTEX_POINT ( 'NONE', #36 ) ;
#201 = DATE_AND_TIME ( #108, #153 ) ;
#202 = PERSON ( 'UNSPECIFIED', 'UNSPECIFIED', 'UNSPECIFIED', ('UNSPECIFIED'), ('UNSPECIFIED'), ('UNSPECIFIED') ) ;
#203 = ORIENTED_EDGE ( 'NONE', *, *, #73, .F. ) ;
#204 = DATE_AND_TIME ( #273, #135 ) ;
#205 = ADVANCED_FACE ( 'NONE', ( #55 ), #199, .T. ) ;
#206 = DIRECTION ( 'NONE',  ( 0.0000000000000000000, 0.0000000000000000000, 1.000000000000000000 ) ) ;
#207 = FACE_OUTER_BOUND ( 'NONE', #116, .T. ) ;
#208 = CARTESIAN_POINT ( 'NONE',  ( 4.592437333336264700, 2.320407015603044100, 0.01796718508130339100 ) ) ;
#209 = CARTESIAN_POINT ( 'NONE',  ( -3.892900008507663900, -6.420100303555844200, 5.271605164023986500 ) ) ;
#210 = CARTESIAN_POINT ( 'NONE',  ( 2.330287149131749400, -2.320407015603054700, 0.5773550125427481200 ) ) ;
#211 = DIRECTION ( 'NONE',  ( -0.0000000000000000000, -0.0000000000000000000, -1.000000000000000000 ) ) ;
#212 = PRODUCT_DEFINITION_FORMATION_WITH_SPECIFIED_SOURCE ( 'ANY', '', #4, .NOT_KNOWN. ) ;
#213 = CARTESIAN_POINT ( 'NONE',  ( 2.498001805406600200E-016, 1.221245327087670000E-015, 4.760498362782760400 ) ) ;
#214 = CARTESIAN_POINT ( 'NONE',  ( 1.986094148432237100E-015, -6.349999999999997900, -1.560498362782758700 ) ) ;
#215 = AXIS2_PLACEMENT_3D ( 'NONE', #128, #17, #171 ) ;
#216 =( NAMED_UNIT ( * ) PLANE_ANGLE_UNIT ( ) SI_UNIT ( $, .RADIAN. ) );
#217 = PERSON_AND_ORGANIZATION ( #202, #23 ) ;
#218 = VERTEX_POINT ( 'NONE', #214 ) ;
#219 = DIRECTION ( 'NONE',  ( 1.000000000000000000, 0.0000000000000000000, 0.0000000000000000000 ) ) ;
#220 = SECURITY_CLASSIFICATION_LEVEL ( 'unclassified' ) ;
#221 = EDGE_CURVE ( 'NONE', #278, #200, #85, .T. ) ;
#222 = APPROVAL_DATE_TIME ( #117, #179 ) ;
#223 = ADVANCED_FACE ( 'NONE', ( #189 ), #287, .F. ) ;
#224 = AXIS2_PLACEMENT_3D ( 'NONE', #129, #132, #89 ) ;
#225 = DATE_TIME_ROLE ( 'creation_date' ) ;
#226 = CC_DESIGN_PERSON_AND_ORGANIZATION_ASSIGNMENT ( #78, #197, ( #160 ) ) ;
#227 = UNCERTAINTY_MEASURE_WITH_UNIT (LENGTH_MEASURE( 1.000000000000000100E-005 ), #196, 'distance_accuracy_value', 'NONE');
#228 = LINE ( 'NONE', #122, #172 ) ;
#229 = VERTEX_POINT ( 'NONE', #241 ) ;
#230 = CARTESIAN_POINT ( 'NONE',  ( 2.498001805406600200E-016, 1.221245327087670000E-015, 4.760498362782760400 ) ) ;
#231 = CARTESIAN_POINT ( 'NONE',  ( 6.654161235549168800, 2.320407015603043200, -1.068095772786496400 ) ) ;
#232 = CARTESIAN_POINT ( 'NONE',  ( 2.498001805406600200E-016, 1.221245327087670000E-015, -1.560498362782760000 ) ) ;
#233 = CARTESIAN_POINT ( 'NONE',  ( 3.892900008507669300, -6.420100303555843300, 5.271605164023987400 ) ) ;
#234 = CIRCLE ( 'NONE', #93, 6.349999999999999600 ) ;
#235 = CARTESIAN_POINT ( 'NONE',  ( 2.330287149131748500, 2.320407015603048100, 2.622644987457246400 ) ) ;
#236 = CARTESIAN_POINT ( 'NONE',  ( -3.544316112706728000E-015, -2.320407015603053000, 2.622644987457249500 ) ) ;
#237 = CARTESIAN_POINT ( 'NONE',  ( 4.592437333336267400, -2.320407015603052100, 3.182032814918696500 ) ) ;
#238 = DIRECTION ( 'NONE',  ( 1.000000000000000000, 0.0000000000000000000, 0.0000000000000000000 ) ) ;
#239 = ORIENTED_EDGE ( 'NONE', *, *, #119, .T. ) ;
#240 = CARTESIAN_POINT ( 'NONE',  ( -3.892900008507664800, 6.420100303555831700, -2.071605164023986300 ) ) ;
#241 = CARTESIAN_POINT ( 'NONE',  ( 5.353283154321538900E-015, 6.349999999999996100, -1.560498362782759600 ) ) ;
#242 =( GEOMETRIC_REPRESENTATION_CONTEXT ( 3 ) GLOBAL_UNCERTAINTY_ASSIGNED_CONTEXT ( ( #227 ) ) GLOBAL_UNIT_ASSIGNED_CONTEXT ( ( #196, #216, #291 ) ) REPRESENTATION_CONTEXT ( 'NONE', 'WORKASPACE' ) );
#243 = CIRCLE ( 'NONE', #293, 6.349999999999999600 ) ;
#244 = APPROVAL_STATUS ( 'not_yet_approved' ) ;
#245 = MECHANICAL_CONTEXT ( 'NONE', #21, 'mechanical' ) ;
#246 = CC_DESIGN_APPROVAL ( #139, ( #160 ) ) ;
#247 = APPLICATION_CONTEXT ( 'configuration controlled 3d designs of mechanical parts and assemblies' ) ;
#248 = COORDINATED_UNIVERSAL_TIME_OFFSET ( 2, 0, .AHEAD. ) ;
#249 = LOCAL_TIME ( 16, 37, 16.00000000000000000, #283 ) ;
#250 = EDGE_CURVE ( 'NONE', #270, #194, #276, .T. ) ;
#251 = DATE_AND_TIME ( #262, #66 ) ;
#252 = ORIENTED_EDGE ( 'NONE', *, *, #119, .F. ) ;
#253 =( BOUNDED_SURFACE ( )  B_SPLINE_SURFACE ( 3, 3, ( 
 ( #142, #260, #187, #60 ),
 ( #124, #58, #208, #231 ),
 ( #256, #210, #101, #258 ),
 ( #121, #146, #193, #87 ) ),
 .UNSPECIFIED., .F., .F., .T. ) 
 B_SPLINE_SURFACE_WITH_KNOTS ( ( 4, 4 ),
 ( 4, 4 ),
 ( 0.0000000000000000000, 1.000000000000000000 ),
 ( 0.0000000000000000000, 1.000000000000000000 ),
 .UNSPECIFIED. ) 
 GEOMETRIC_REPRESENTATION_ITEM ( )  RATIONAL_B_SPLINE_SURFACE ( (
 ( 1.000000000000000000, 0.9805068472777076500, 0.9805068472777076500, 1.000000000000000000),
 ( 0.9222664041818715600, 0.9042885243145149000, 0.9042885243145149000, 0.9222664041818715600),
 ( 0.9222664041818715600, 0.9042885243145149000, 0.9042885243145149000, 0.9222664041818715600),
 ( 1.000000000000000000, 0.9805068472777076500, 0.9805068472777076500, 1.000000000000000000) ) ) 
 REPRESENTATION_ITEM ( '' )  SURFACE ( )  );
#254 = CARTESIAN_POINT ( 'NONE',  ( -6.654161235549170600, 2.320407015603045400, 4.268095772786495900 ) ) ;
#255 = AXIS2_PLACEMENT_3D ( 'NONE', #102, #285, #9 ) ;
#256 = CARTESIAN_POINT ( 'NONE',  ( 3.544316112706727200E-015, -2.320407015603053800, 0.5773550125427487900 ) ) ;
#257 = EDGE_LOOP ( 'NONE', ( #274, #114, #252 ) ) ;
#258 = CARTESIAN_POINT ( 'NONE',  ( 6.654161235549167100, -2.320407015603054700, -1.068095772786497300 ) ) ;
#259 = DIRECTION ( 'NONE',  ( 1.000000000000000000, 0.0000000000000000000, 0.0000000000000000000 ) ) ;
#260 = CARTESIAN_POINT ( 'NONE',  ( 1.975329047351436900, 6.420100303555831700, -1.597425394062539400 ) ) ;
#261 = APPROVAL ( #178, 'UNSPECIFIED' ) ;
#262 = CALENDAR_DATE ( 2019, 18, 1 ) ;
#263 = CARTESIAN_POINT ( 'NONE',  ( 6.654161235549175900, 2.320407015603049400, 4.268095772786497700 ) ) ;
#264 = ORIENTED_EDGE ( 'NONE', *, *, #221, .F. ) ;
#265 = CARTESIAN_POINT ( 'NONE',  ( -1.975329047351434200, 6.420100303555831700, -1.597425394062538700 ) ) ;
#266 = DIRECTION ( 'NONE',  ( -1.000000000000000000, -2.651329925897090000E-016, 2.291288649897470200E-016 ) ) ;
#267 = CARTESIAN_POINT ( 'NONE',  ( -6.349999999999999600, 1.998896044546239400E-015, -1.560498362782760000 ) ) ;
#268 = CARTESIAN_POINT ( 'NONE',  ( -6.654161235549173300, 2.320407015603046700, -1.068095772786502800 ) ) ;
#269 = DATE_AND_TIME ( #31, #184 ) ;
#270 = VERTEX_POINT ( 'NONE', #292 ) ;
#271 = APPROVAL_ROLE ( '' ) ;
#272 = EDGE_CURVE ( 'NONE', #200, #270, #103, .T. ) ;
#273 = CALENDAR_DATE ( 2019, 18, 1 ) ;
#274 = ORIENTED_EDGE ( 'NONE', *, *, #38, .F. ) ;
#275 = ORIENTED_EDGE ( 'NONE', *, *, #157, .F. ) ;
#276 = CIRCLE ( 'NONE', #134, 13.70000000000000100 ) ;
#277 = PRODUCT_RELATED_PRODUCT_CATEGORY ( 'detail', '', ( #4 ) ) ;
#278 = VERTEX_POINT ( 'NONE', #267 ) ;
#279 = CARTESIAN_POINT ( 'NONE',  ( 0.0000000000000000000, -6.420100303555841500, 4.797425394062539500 ) ) ;
#280 = CARTESIAN_POINT ( 'NONE',  ( 6.349999999999999600, 1.221245327087670000E-015, 4.760498362782760400 ) ) ;
#281 = CARTESIAN_POINT ( 'NONE',  ( -5.363408008820169100E-015, 6.420100303555836200, 4.797425394062538700 ) ) ;
#282 = CARTESIAN_POINT ( 'NONE',  ( 1.975329047351434700, 6.420100303555838800, 4.797425394062536900 ) ) ;
#283 = COORDINATED_UNIVERSAL_TIME_OFFSET ( 2, 0, .AHEAD. ) ;
#284 = ORIENTED_EDGE ( 'NONE', *, *, #157, .T. ) ;
#285 = DIRECTION ( 'NONE',  ( 0.0000000000000000000, 0.0000000000000000000, 1.000000000000000000 ) ) ;
#286 = CARTESIAN_POINT ( 'NONE',  ( -4.592437333336266500, 2.320407015603045900, 0.01796718508130078900 ) ) ;
#287 =( BOUNDED_SURFACE ( )  B_SPLINE_SURFACE ( 3, 3, ( 
 ( #149, #240, #265, #65 ),
 ( #268, #286, #191, #131 ),
 ( #92, #151, #88, #64 ),
 ( #14, #169, #106, #19 ) ),
 .UNSPECIFIED., .F., .F., .F. ) 
 B_SPLINE_SURFACE_WITH_KNOTS ( ( 4, 4 ),
 ( 4, 4 ),
 ( 0.0000000000000000000, 1.000000000000000000 ),
 ( 0.0000000000000000000, 1.000000000000000000 ),
 .UNSPECIFIED. ) 
 GEOMETRIC_REPRESENTATION_ITEM ( )  RATIONAL_B_SPLINE_SURFACE ( (
 ( 1.000000000000000000, 0.9805068472777076500, 0.9805068472777076500, 1.000000000000000000),
 ( 0.9222664041818715600, 0.9042885243145149000, 0.9042885243145149000, 0.9222664041818715600),
 ( 0.9222664041818715600, 0.9042885243145149000, 0.9042885243145149000, 0.9222664041818715600),
 ( 1.000000000000000000, 0.9805068472777076500, 0.9805068472777076500, 1.000000000000000000) ) ) 
 REPRESENTATION_ITEM ( '' )  SURFACE ( )  );
#288 = CARTESIAN_POINT ( 'NONE',  ( 0.0000000000000000000, 0.0000000000000000000, 0.0000000000000000000 ) ) ;
#289 = PRODUCT_DEFINITION ( 'UNKNOWN', '', #212, #107 ) ;
#290 = EDGE_LOOP ( 'NONE', ( #264, #239, #109, #54, #173, #24 ) ) ;
#291 =( NAMED_UNIT ( * ) SI_UNIT ( $, .STERADIAN. ) SOLID_ANGLE_UNIT ( ) );
#292 = CARTESIAN_POINT ( 'NONE',  ( -5.353283154321539700E-015, 6.349999999999999600, 4.760498362782760400 ) ) ;
#293 = AXIS2_PLACEMENT_3D ( 'NONE', #80, #33, #259 ) ;
#294 = APPROVAL_ROLE ( '' ) ;
#295 = CIRCLE ( 'NONE', #115, 6.349999999999999600 ) ;
ENDSEC;
END-ISO-10303-21;
