ISO-10303-21;
HEADER;
FILE_DESCRIPTION (( 'STEP AP203' ),
    '1' );
FILE_NAME ('112-5530E CaF2 pl-cv 50.8 F-500.STEP',
    '2019-01-18T12:39:43',
    ( '' ),
    ( '' ),
    'SwSTEP 2.0',
    'SolidWorks 2017',
    '' );
FILE_SCHEMA (( 'CONFIG_CONTROL_DESIGN' ));
ENDSEC;

DATA;
#1 = CALENDAR_DATE ( 2019, 18, 1 ) ;
#2 = APPROVAL_PERSON_ORGANIZATION ( #97, #184, #14 ) ;
#3 = COORDINATED_UNIVERSAL_TIME_OFFSET ( 2, 0, .AHEAD. ) ;
#4 = AXIS2_PLACEMENT_3D ( 'NONE', #68, #69, #72 ) ;
#5 = CC_DESIGN_SECURITY_CLASSIFICATION ( #235, ( #173 ) ) ;
#6 = CIRCLE ( 'NONE', #133, 25.39999999999999900 ) ;
#7 = CARTESIAN_POINT ( 'NONE',  ( 25.35785992938443600, -25.70326467160968800, -3.140947941046083900 ) ) ;
#8 = PLANE ( 'NONE',  #125 ) ;
#9 = CC_DESIGN_APPROVAL ( #83, ( #235 ) ) ;
#10 = ORIENTED_EDGE ( 'NONE', *, *, #205, .T. ) ;
#11 = DIRECTION ( 'NONE',  ( 1.000000000000000000, 0.0000000000000000000, 0.0000000000000000000 ) ) ;
#12 = CARTESIAN_POINT ( 'NONE',  ( -8.565605610637899000, -8.611292596264904700, 0.5312788696749876100 ) ) ;
#13 = VERTEX_POINT ( 'NONE', #148 ) ;
#14 = APPROVAL_ROLE ( '' ) ;
#15 = APPROVAL_DATE_TIME ( #21, #180 ) ;
#16 = CARTESIAN_POINT ( 'NONE',  ( -25.35785992938438900, 25.70326467160965200, -3.140947941046051500 ) ) ;
#17 = AXIS2_PLACEMENT_3D ( 'NONE', #53, #131, #23 ) ;
#18 = CARTESIAN_POINT ( 'NONE',  ( -25.61656046625496000, -8.611292596264899400, -1.039756535723168400 ) ) ;
#19 = DIRECTION ( 'NONE',  ( 1.000000000000000000, 0.0000000000000000000, 0.0000000000000000000 ) ) ;
#20 = VERTEX_POINT ( 'NONE', #126 ) ;
#21 = DATE_AND_TIME ( #109, #183 ) ;
#22 = EDGE_CURVE ( 'NONE', #153, #13, #232, .T. ) ;
#23 = DIRECTION ( 'NONE',  ( 1.000000000000000000, 0.0000000000000000000, 0.0000000000000000000 ) ) ;
#24 = CARTESIAN_POINT ( 'NONE',  ( 25.61656046625500200, 8.611292596264867400, -1.039756535723144000 ) ) ;
#25 = PERSON ( 'UNSPECIFIED', 'UNSPECIFIED', 'UNSPECIFIED', ('UNSPECIFIED'), ('UNSPECIFIED'), ('UNSPECIFIED') ) ;
#26 = CARTESIAN_POINT ( 'NONE',  ( 9.992007221626412800E-016, 4.884981308350691100E-015, -1.548440140768869900 ) ) ;
#27 = CARTESIAN_POINT ( 'NONE',  ( 4.263256414560599900E-014, -2.842170943040400100E-014, -209.0999999999999900 ) ) ;
#28 = ORIENTED_EDGE ( 'NONE', *, *, #106, .F. ) ;
#29 = EDGE_CURVE ( 'NONE', #159, #206, #77, .T. ) ;
#30 = SECURITY_CLASSIFICATION_LEVEL ( 'unclassified' ) ;
#31 = CARTESIAN_POINT ( 'NONE',  ( -6.938893903907228400E-015, 25.70326467160964900, -1.585778354298862400 ) ) ;
#32 = ORIENTED_EDGE ( 'NONE', *, *, #29, .F. ) ;
#33 = CARTESIAN_POINT ( 'NONE',  ( 9.992007221626412800E-016, 4.884981308350691100E-015, -1.548440140768869900 ) ) ;
#34 = FACE_OUTER_BOUND ( 'NONE', #52, .T. ) ;
#35 = PERSON_AND_ORGANIZATION ( #25, #204 ) ;
#36 = CIRCLE ( 'NONE', #118, 25.39999999999999900 ) ;
#37 = DATE_AND_TIME ( #132, #163 ) ;
#38 = ORIENTED_EDGE ( 'NONE', *, *, #205, .F. ) ;
#39 = COORDINATED_UNIVERSAL_TIME_OFFSET ( 2, 0, .AHEAD. ) ;
#40 = ORIENTED_EDGE ( 'NONE', *, *, #224, .F. ) ;
#41 = CARTESIAN_POINT ( 'NONE',  ( 25.61656046625500200, -8.611292596264901200, -1.039756535723173300 ) ) ;
#42 = CARTESIAN_POINT ( 'NONE',  ( 4.263256414560599900E-014, 25.70326467160964900, -1.585778354298850200 ) ) ;
#43 = DIRECTION ( 'NONE',  ( -0.0000000000000000000, -0.0000000000000000000, -1.000000000000000000 ) ) ;
#44 = CARTESIAN_POINT ( 'NONE',  ( -17.11514789854246400, -8.611292596264904700, 0.006944868943689617600 ) ) ;
#45 = APPROVAL_STATUS ( 'not_yet_approved' ) ;
#46 =( GEOMETRIC_REPRESENTATION_CONTEXT ( 3 ) GLOBAL_UNCERTAINTY_ASSIGNED_CONTEXT ( ( #54 ) ) GLOBAL_UNIT_ASSIGNED_CONTEXT ( ( #211, #115, #59 ) ) REPRESENTATION_CONTEXT ( 'NONE', 'WORKASPACE' ) );
#47 = APPROVAL_STATUS ( 'not_yet_approved' ) ;
#48 = EDGE_CURVE ( 'NONE', #13, #20, #175, .T. ) ;
#49 = CLOSED_SHELL ( 'NONE', ( #186, #162, #146, #164, #161 ) ) ;
#50 =( BOUNDED_SURFACE ( )  B_SPLINE_SURFACE ( 3, 3, ( 
 ( #42, #92, #188, #107 ),
 ( #134, #149, #55, #24 ),
 ( #150, #74, #168, #41 ),
 ( #208, #169, #167, #7 ) ),
 .UNSPECIFIED., .F., .F., .F. ) 
 B_SPLINE_SURFACE_WITH_KNOTS ( ( 4, 4 ),
 ( 4, 4 ),
 ( 0.0000000000000000000, 1.000000000000000000 ),
 ( 0.0000000000000000000, 1.000000000000000000 ),
 .UNSPECIFIED. ) 
 GEOMETRIC_REPRESENTATION_ITEM ( )  RATIONAL_B_SPLINE_SURFACE ( (
 ( 1.000000000000000000, 0.9987497811236000200, 0.9987497811236000200, 1.000000000000000000),
 ( 0.9949441149233258000, 0.9937002170098855300, 0.9937002170098855300, 0.9949441149233258000),
 ( 0.9949441149233258000, 0.9937002170098855300, 0.9937002170098855300, 0.9949441149233258000),
 ( 1.000000000000000000, 0.9987497811236000200, 0.9987497811236000200, 1.000000000000000000) ) ) 
 REPRESENTATION_ITEM ( '' )  SURFACE ( )  );
#51 = PRODUCT_RELATED_PRODUCT_CATEGORY ( 'detail', '', ( #177 ) ) ;
#52 = EDGE_LOOP ( 'NONE', ( #38, #225, #127 ) ) ;
#53 = CARTESIAN_POINT ( 'NONE',  ( 9.992007221626412800E-016, 4.884981308350691100E-015, -1.548440140768869900 ) ) ;
#54 = UNCERTAINTY_MEASURE_WITH_UNIT (LENGTH_MEASURE( 1.000000000000000100E-005 ), #211, 'distance_accuracy_value', 'NONE');
#55 = CARTESIAN_POINT ( 'NONE',  ( 17.11514789854251000, 8.611292596264865700, 0.006944868943713255000 ) ) ;
#56 = CYLINDRICAL_SURFACE ( 'NONE', #17, 25.39999999999999900 ) ;
#57 = CARTESIAN_POINT ( 'NONE',  ( -17.11514789854246400, 8.611292596264867400, 0.006944868943718674300 ) ) ;
#58 = CARTESIAN_POINT ( 'NONE',  ( -6.938893903907227600E-015, -8.611292596264901200, 0.5312788696749895000 ) ) ;
#59 =( NAMED_UNIT ( * ) SI_UNIT ( $, .STERADIAN. ) SOLID_ANGLE_UNIT ( ) );
#60 = ORIENTED_EDGE ( 'NONE', *, *, #22, .T. ) ;
#61 = PERSON_AND_ORGANIZATION ( #25, #204 ) ;
#62 = AXIS2_PLACEMENT_3D ( 'NONE', #112, #81, #174 ) ;
#63 = FACE_OUTER_BOUND ( 'NONE', #88, .T. ) ;
#64 = PERSON_AND_ORGANIZATION ( #25, #204 ) ;
#65 = ORIENTED_EDGE ( 'NONE', *, *, #179, .F. ) ;
#66 = CC_DESIGN_DATE_AND_TIME_ASSIGNMENT ( #209, #154, ( #235 ) ) ;
#67 = EDGE_LOOP ( 'NONE', ( #200, #219, #194, #151, #170 ) ) ;
#68 = CARTESIAN_POINT ( 'NONE',  ( 9.992007221626412800E-016, 4.884981308350691100E-015, 4.000000000000000000 ) ) ;
#69 = DIRECTION ( 'NONE',  ( -0.0000000000000000000, -0.0000000000000000000, -1.000000000000000000 ) ) ;
#70 = ADVANCED_BREP_SHAPE_REPRESENTATION ( '112-5530E CaF2 pl-cv 50.8 F-500', ( #91, #62 ), #46 ) ;
#71 = CARTESIAN_POINT ( 'NONE',  ( -25.39999999999999900, 7.995584178184967200E-015, -1.548440140768869900 ) ) ;
#72 = DIRECTION ( 'NONE',  ( 1.000000000000000000, 0.0000000000000000000, 0.0000000000000000000 ) ) ;
#73 = VERTEX_POINT ( 'NONE', #201 ) ;
#74 = CARTESIAN_POINT ( 'NONE',  ( 8.565605610637941700, -8.611292596264906500, 0.5312788696750011500 ) ) ;
#75 = APPROVAL_DATE_TIME ( #227, #184 ) ;
#76 = APPLICATION_CONTEXT ( 'configuration controlled 3d designs of mechanical parts and assemblies' ) ;
#77 = CIRCLE ( 'NONE', #122, 209.0999999999999900 ) ;
#78 = CARTESIAN_POINT ( 'NONE',  ( -25.61656046625496000, 8.611292596264869200, -1.039756535723139500 ) ) ;
#79 = PRODUCT_DEFINITION ( 'UNKNOWN', '', #173, #114 ) ;
#80 = APPROVAL_ROLE ( '' ) ;
#81 = DIRECTION ( 'NONE',  ( 0.0000000000000000000, 0.0000000000000000000, 1.000000000000000000 ) ) ;
#82 = ORIENTED_EDGE ( 'NONE', *, *, #141, .F. ) ;
#83 = APPROVAL ( #47, 'UNSPECIFIED' ) ;
#84 = CIRCLE ( 'NONE', #102, 25.39999999999999900 ) ;
#85 = PERSON_AND_ORGANIZATION ( #25, #204 ) ;
#86 = EDGE_CURVE ( 'NONE', #153, #206, #36, .T. ) ;
#87 = PERSON_AND_ORGANIZATION ( #25, #204 ) ;
#88 = EDGE_LOOP ( 'NONE', ( #130, #10, #60, #103, #40 ) ) ;
#89 = LOCAL_TIME ( 14, 39, 43.00000000000000000, #3 ) ;
#90 = CC_DESIGN_APPROVAL ( #180, ( #79 ) ) ;
#91 = MANIFOLD_SOLID_BREP ( 'Imported1', #49 ) ;
#92 = CARTESIAN_POINT ( 'NONE',  ( 8.479101929825187500, 25.70326467160964900, -1.585778354298849700 ) ) ;
#93 = DIRECTION ( 'NONE',  ( 1.000000000000000000, 0.0000000000000000000, 0.0000000000000000000 ) ) ;
#94 = CARTESIAN_POINT ( 'NONE',  ( 4.263256414560599900E-014, 25.39999999999997400, -1.548440140768861500 ) ) ;
#95 = DIRECTION ( 'NONE',  ( 1.000000000000000000, 0.0000000000000000000, -0.0000000000000000000 ) ) ;
#96 = CARTESIAN_POINT ( 'NONE',  ( 25.39999999999999900, 4.884981308350691100E-015, -1.548440140768869900 ) ) ;
#97 = PERSON_AND_ORGANIZATION ( #25, #204 ) ;
#98 = PERSON_AND_ORGANIZATION_ROLE ( 'classification_officer' ) ;
#99 = CARTESIAN_POINT ( 'NONE',  ( -6.938893903907228400E-015, -25.70326467160968800, -1.585778354298889200 ) ) ;
#100 = CARTESIAN_POINT ( 'NONE',  ( -3.469446951953613800E-015, 8.611292596264867400, 0.5312788696750186900 ) ) ;
#101 = EDGE_LOOP ( 'NONE', ( #32, #82, #65 ) ) ;
#102 = AXIS2_PLACEMENT_3D ( 'NONE', #33, #142, #19 ) ;
#103 = ORIENTED_EDGE ( 'NONE', *, *, #48, .T. ) ;
#104 = COORDINATED_UNIVERSAL_TIME_OFFSET ( 2, 0, .AHEAD. ) ;
#105 = EDGE_LOOP ( 'NONE', ( #28, #145 ) ) ;
#106 = EDGE_CURVE ( 'NONE', #20, #13, #217, .T. ) ;
#107 = CARTESIAN_POINT ( 'NONE',  ( 25.35785992938443600, 25.70326467160964900, -3.140947941046055900 ) ) ;
#108 = COORDINATED_UNIVERSAL_TIME_OFFSET ( 2, 0, .AHEAD. ) ;
#109 = CALENDAR_DATE ( 2019, 18, 1 ) ;
#110 = DIRECTION ( 'NONE',  ( 0.0000000000000000000, 0.0000000000000000000, 1.000000000000000000 ) ) ;
#111 = CARTESIAN_POINT ( 'NONE',  ( 0.0000000000000000000, 52.02000000000000300, 4.000000000000000000 ) ) ;
#112 = CARTESIAN_POINT ( 'NONE',  ( 0.0000000000000000000, 0.0000000000000000000, 0.0000000000000000000 ) ) ;
#113 = DATE_TIME_ROLE ( 'creation_date' ) ;
#114 = DESIGN_CONTEXT ( 'detailed design', #210, 'design' ) ;
#115 =( NAMED_UNIT ( * ) PLANE_ANGLE_UNIT ( ) SI_UNIT ( $, .RADIAN. ) );
#116 = PERSON_AND_ORGANIZATION_ROLE ( 'design_supplier' ) ;
#117 = FACE_OUTER_BOUND ( 'NONE', #101, .T. ) ;
#118 = AXIS2_PLACEMENT_3D ( 'NONE', #228, #171, #135 ) ;
#119 = LINE ( 'NONE', #96, #128 ) ;
#120 = DIRECTION ( 'NONE',  ( 0.0000000000000000000, 0.0000000000000000000, 1.000000000000000000 ) ) ;
#121 = PERSON_AND_ORGANIZATION ( #25, #204 ) ;
#122 = AXIS2_PLACEMENT_3D ( 'NONE', #27, #152, #165 ) ;
#123 = CIRCLE ( 'NONE', #220, 25.39999999999999900 ) ;
#124 = APPROVAL_DATE_TIME ( #37, #83 ) ;
#125 = AXIS2_PLACEMENT_3D ( 'NONE', #111, #110, #95 ) ;
#126 = CARTESIAN_POINT ( 'NONE',  ( 25.39999999999999900, 4.884981308350691100E-015, 4.000000000000000000 ) ) ;
#127 = ORIENTED_EDGE ( 'NONE', *, *, #86, .F. ) ;
#128 = VECTOR ( 'NONE', #120, 1000.000000000000000 ) ;
#129 = PERSON_AND_ORGANIZATION ( #25, #204 ) ;
#130 = ORIENTED_EDGE ( 'NONE', *, *, #141, .T. ) ;
#131 = DIRECTION ( 'NONE',  ( 0.0000000000000000000, 0.0000000000000000000, 1.000000000000000000 ) ) ;
#132 = CALENDAR_DATE ( 2019, 18, 1 ) ;
#133 = AXIS2_PLACEMENT_3D ( 'NONE', #156, #234, #192 ) ;
#134 = CARTESIAN_POINT ( 'NONE',  ( 4.263256414560599900E-014, 8.611292596264863900, 0.5312788696750306800 ) ) ;
#135 = DIRECTION ( 'NONE',  ( 1.000000000000000000, 0.0000000000000000000, 0.0000000000000000000 ) ) ;
#136 = FACE_OUTER_BOUND ( 'NONE', #105, .T. ) ;
#137 = DIRECTION ( 'NONE',  ( 0.0000000000000000000, 0.0000000000000000000, 1.000000000000000000 ) ) ;
#138 = CALENDAR_DATE ( 2019, 18, 1 ) ;
#139 = CARTESIAN_POINT ( 'NONE',  ( -25.35785992938439300, -25.70326467160968400, -3.140947941046079400 ) ) ;
#140 = PERSON_AND_ORGANIZATION_ROLE ( 'creator' ) ;
#141 = EDGE_CURVE ( 'NONE', #73, #159, #123, .T. ) ;
#142 = DIRECTION ( 'NONE',  ( 0.0000000000000000000, 0.0000000000000000000, 1.000000000000000000 ) ) ;
#143 = CARTESIAN_POINT ( 'NONE',  ( -16.94230275971890600, -25.70326467160968400, -2.104817128621188100 ) ) ;
#144 = CC_DESIGN_DATE_AND_TIME_ASSIGNMENT ( #233, #113, ( #79 ) ) ;
#145 = ORIENTED_EDGE ( 'NONE', *, *, #48, .F. ) ;
#146 = ADVANCED_FACE ( 'NONE', ( #117 ), #50, .F. ) ;
#147 = CALENDAR_DATE ( 2019, 18, 1 ) ;
#148 = CARTESIAN_POINT ( 'NONE',  ( -25.39999999999999900, 7.995584178184967200E-015, 4.000000000000000000 ) ) ;
#149 = CARTESIAN_POINT ( 'NONE',  ( 8.565605610637943500, 8.611292596264865700, 0.5312788696750308000 ) ) ;
#150 = CARTESIAN_POINT ( 'NONE',  ( 4.263256414560599900E-014, -8.611292596264903000, 0.5312788696750013800 ) ) ;
#151 = ORIENTED_EDGE ( 'NONE', *, *, #224, .T. ) ;
#152 = DIRECTION ( 'NONE',  ( 1.000000000000000000, 0.0000000000000000000, 0.0000000000000000000 ) ) ;
#153 = VERTEX_POINT ( 'NONE', #71 ) ;
#154 = DATE_TIME_ROLE ( 'classification_date' ) ;
#155 = APPROVAL_PERSON_ORGANIZATION ( #64, #180, #195 ) ;
#156 = CARTESIAN_POINT ( 'NONE',  ( 9.992007221626412800E-016, 4.884981308350691100E-015, -1.548440140768869900 ) ) ;
#157 = CC_DESIGN_PERSON_AND_ORGANIZATION_ASSIGNMENT ( #129, #198, ( #79 ) ) ;
#158 = PERSON_AND_ORGANIZATION_ROLE ( 'design_owner' ) ;
#159 = VERTEX_POINT ( 'NONE', #94 ) ;
#160 = AXIS2_PLACEMENT_3D ( 'NONE', #226, #43, #93 ) ;
#161 = ADVANCED_FACE ( 'NONE', ( #136 ), #8, .T. ) ;
#162 = ADVANCED_FACE ( 'NONE', ( #63 ), #203, .T. ) ;
#163 = LOCAL_TIME ( 14, 39, 43.00000000000000000, #108 ) ;
#164 = ADVANCED_FACE ( 'NONE', ( #221 ), #56, .T. ) ;
#165 = DIRECTION ( 'NONE',  ( 0.0000000000000000000, 1.000000000000000000, 7.964297163738569400E-016 ) ) ;
#166 = SHAPE_DEFINITION_REPRESENTATION ( #193, #70 ) ;
#167 = CARTESIAN_POINT ( 'NONE',  ( 16.94230275971894900, -25.70326467160968800, -2.104817128621194300 ) ) ;
#168 = CARTESIAN_POINT ( 'NONE',  ( 17.11514789854251400, -8.611292596264906500, 0.006944868943683764700 ) ) ;
#169 = CARTESIAN_POINT ( 'NONE',  ( 8.479101929825187500, -25.70326467160968800, -1.585778354298877700 ) ) ;
#170 = ORIENTED_EDGE ( 'NONE', *, *, #106, .T. ) ;
#171 = DIRECTION ( 'NONE',  ( 0.0000000000000000000, 0.0000000000000000000, 1.000000000000000000 ) ) ;
#172 = CARTESIAN_POINT ( 'NONE',  ( -8.565605610637897300, 8.611292596264867400, 0.5312788696750167000 ) ) ;
#173 = PRODUCT_DEFINITION_FORMATION_WITH_SPECIFIED_SOURCE ( 'ANY', '', #177, .NOT_KNOWN. ) ;
#174 = DIRECTION ( 'NONE',  ( 1.000000000000000000, 0.0000000000000000000, 0.0000000000000000000 ) ) ;
#175 = CIRCLE ( 'NONE', #4, 25.39999999999999900 ) ;
#176 = CARTESIAN_POINT ( 'NONE',  ( -16.94230275971890600, 25.70326467160965200, -2.104817128621160100 ) ) ;
#177 = PRODUCT ( '112-5530E CaF2 pl-cv 50.8 F-500', '112-5530E CaF2 pl-cv 50.8 F-500', '', ( #214 ) ) ;
#178 = CARTESIAN_POINT ( 'NONE',  ( 4.263256414560599900E-014, -25.39999999999999900, -1.548440140768861500 ) ) ;
#179 = EDGE_CURVE ( 'NONE', #206, #73, #84, .T. ) ;
#180 = APPROVAL ( #45, 'UNSPECIFIED' ) ;
#181 = VECTOR ( 'NONE', #190, 1000.000000000000000 ) ;
#182 = APPROVAL_PERSON_ORGANIZATION ( #87, #83, #80 ) ;
#183 = LOCAL_TIME ( 14, 39, 43.00000000000000000, #104 ) ;
#184 = APPROVAL ( #212, 'UNSPECIFIED' ) ;
#185 = LOCAL_TIME ( 14, 39, 43.00000000000000000, #187 ) ;
#186 = ADVANCED_FACE ( 'NONE', ( #34 ), #215, .F. ) ;
#187 = COORDINATED_UNIVERSAL_TIME_OFFSET ( 2, 0, .AHEAD. ) ;
#188 = CARTESIAN_POINT ( 'NONE',  ( 16.94230275971894900, 25.70326467160964900, -2.104817128621166300 ) ) ;
#189 = CARTESIAN_POINT ( 'NONE',  ( -25.39999999999999900, 7.995584178184967200E-015, -1.548440140768869900 ) ) ;
#190 = DIRECTION ( 'NONE',  ( 0.0000000000000000000, 0.0000000000000000000, 1.000000000000000000 ) ) ;
#191 = AXIS2_PLACEMENT_3D ( 'NONE', #207, #223, #11 ) ;
#192 = DIRECTION ( 'NONE',  ( 1.000000000000000000, 0.0000000000000000000, 0.0000000000000000000 ) ) ;
#193 = PRODUCT_DEFINITION_SHAPE ( 'NONE', 'NONE',  #79 ) ;
#194 = ORIENTED_EDGE ( 'NONE', *, *, #179, .T. ) ;
#195 = APPROVAL_ROLE ( '' ) ;
#196 = APPLICATION_PROTOCOL_DEFINITION ( 'international standard', 'config_control_design', 1994, #76 ) ;
#197 = CC_DESIGN_PERSON_AND_ORGANIZATION_ASSIGNMENT ( #35, #116, ( #173 ) ) ;
#198 = PERSON_AND_ORGANIZATION_ROLE ( 'creator' ) ;
#199 = LOCAL_TIME ( 14, 39, 43.00000000000000000, #39 ) ;
#200 = ORIENTED_EDGE ( 'NONE', *, *, #22, .F. ) ;
#201 = CARTESIAN_POINT ( 'NONE',  ( 25.39999999999999900, 4.884981308350691100E-015, -1.548440140768869900 ) ) ;
#202 = CC_DESIGN_APPROVAL ( #184, ( #173 ) ) ;
#203 = CYLINDRICAL_SURFACE ( 'NONE', #191, 25.39999999999999900 ) ;
#204 = ORGANIZATION ( 'UNSPECIFIED', 'UNSPECIFIED', '' ) ;
#205 = EDGE_CURVE ( 'NONE', #159, #153, #6, .T. ) ;
#206 = VERTEX_POINT ( 'NONE', #178 ) ;
#207 = CARTESIAN_POINT ( 'NONE',  ( 9.992007221626412800E-016, 4.884981308350691100E-015, -1.548440140768869900 ) ) ;
#208 = CARTESIAN_POINT ( 'NONE',  ( 4.263256414560599900E-014, -25.70326467160968800, -1.585778354298877900 ) ) ;
#209 = DATE_AND_TIME ( #147, #89 ) ;
#210 = APPLICATION_CONTEXT ( 'configuration controlled 3d designs of mechanical parts and assemblies' ) ;
#211 =( LENGTH_UNIT ( ) NAMED_UNIT ( * ) SI_UNIT ( .MILLI., .METRE. ) );
#212 = APPROVAL_STATUS ( 'not_yet_approved' ) ;
#213 = CARTESIAN_POINT ( 'NONE',  ( -8.479101929825148400, 25.70326467160964900, -1.585778354298863900 ) ) ;
#214 = MECHANICAL_CONTEXT ( 'NONE', #76, 'mechanical' ) ;
#215 =( BOUNDED_SURFACE ( )  B_SPLINE_SURFACE ( 3, 3, ( 
 ( #16, #176, #213, #31 ),
 ( #78, #57, #172, #100 ),
 ( #18, #44, #12, #58 ),
 ( #139, #143, #231, #99 ) ),
 .UNSPECIFIED., .F., .F., .F. ) 
 B_SPLINE_SURFACE_WITH_KNOTS ( ( 4, 4 ),
 ( 4, 4 ),
 ( 0.0000000000000000000, 1.000000000000000000 ),
 ( 0.0000000000000000000, 1.000000000000000000 ),
 .UNSPECIFIED. ) 
 GEOMETRIC_REPRESENTATION_ITEM ( )  RATIONAL_B_SPLINE_SURFACE ( (
 ( 1.000000000000000000, 0.9987497811236000200, 0.9987497811236000200, 1.000000000000000000),
 ( 0.9949441149233258000, 0.9937002170098855300, 0.9937002170098855300, 0.9949441149233258000),
 ( 0.9949441149233258000, 0.9937002170098855300, 0.9937002170098855300, 0.9949441149233258000),
 ( 1.000000000000000000, 0.9987497811236000200, 0.9987497811236000200, 1.000000000000000000) ) ) 
 REPRESENTATION_ITEM ( '' )  SURFACE ( )  );
#216 = CC_DESIGN_PERSON_AND_ORGANIZATION_ASSIGNMENT ( #85, #140, ( #173 ) ) ;
#217 = CIRCLE ( 'NONE', #160, 25.39999999999999900 ) ;
#218 = CC_DESIGN_PERSON_AND_ORGANIZATION_ASSIGNMENT ( #121, #158, ( #177 ) ) ;
#219 = ORIENTED_EDGE ( 'NONE', *, *, #86, .T. ) ;
#220 = AXIS2_PLACEMENT_3D ( 'NONE', #26, #137, #222 ) ;
#221 = FACE_OUTER_BOUND ( 'NONE', #67, .T. ) ;
#222 = DIRECTION ( 'NONE',  ( 1.000000000000000000, 0.0000000000000000000, 0.0000000000000000000 ) ) ;
#223 = DIRECTION ( 'NONE',  ( 0.0000000000000000000, 0.0000000000000000000, 1.000000000000000000 ) ) ;
#224 = EDGE_CURVE ( 'NONE', #73, #20, #119, .T. ) ;
#225 = ORIENTED_EDGE ( 'NONE', *, *, #29, .T. ) ;
#226 = CARTESIAN_POINT ( 'NONE',  ( 9.992007221626412800E-016, 4.884981308350691100E-015, 4.000000000000000000 ) ) ;
#227 = DATE_AND_TIME ( #138, #185 ) ;
#228 = CARTESIAN_POINT ( 'NONE',  ( 9.992007221626412800E-016, 4.884981308350691100E-015, -1.548440140768869900 ) ) ;
#229 = CC_DESIGN_PERSON_AND_ORGANIZATION_ASSIGNMENT ( #61, #98, ( #235 ) ) ;
#230 = APPLICATION_PROTOCOL_DEFINITION ( 'international standard', 'config_control_design', 1994, #210 ) ;
#231 = CARTESIAN_POINT ( 'NONE',  ( -8.479101929825150200, -25.70326467160968800, -1.585778354298891000 ) ) ;
#232 = LINE ( 'NONE', #189, #181 ) ;
#233 = DATE_AND_TIME ( #1, #199 ) ;
#234 = DIRECTION ( 'NONE',  ( 0.0000000000000000000, 0.0000000000000000000, 1.000000000000000000 ) ) ;
#235 = SECURITY_CLASSIFICATION ( '', '', #30 ) ;
ENDSEC;
END-ISO-10303-21;
