ISO-10303-21;
HEADER;
FILE_DESCRIPTION (( 'STEP AP203' ),
    '1' );
FILE_NAME ('112-5525E CaF2 pl-cv 50.8 F-300.STEP',
    '2019-01-18T12:26:15',
    ( '' ),
    ( '' ),
    'SwSTEP 2.0',
    'SolidWorks 2017',
    '' );
FILE_SCHEMA (( 'CONFIG_CONTROL_DESIGN' ));
ENDSEC;

DATA;
#1 = APPLICATION_PROTOCOL_DEFINITION ( 'international standard', 'config_control_design', 1994, #103 ) ;
#2 = CARTESIAN_POINT ( 'NONE',  ( 0.0000000000000000000, 0.0000000000000000000, 0.0000000000000000000 ) ) ;
#3 = ORIENTED_EDGE ( 'NONE', *, *, #100, .F. ) ;
#4 = PERSON_AND_ORGANIZATION_ROLE ( 'design_owner' ) ;
#5 = AXIS2_PLACEMENT_3D ( 'NONE', #206, #87, #223 ) ;
#6 = PERSON_AND_ORGANIZATION ( #94, #175 ) ;
#7 = PERSON_AND_ORGANIZATION_ROLE ( 'classification_officer' ) ;
#8 = APPROVAL_PERSON_ORGANIZATION ( #66, #211, #149 ) ;
#9 = PRODUCT ( '112-5525E CaF2 pl-cv 50.8 F-300', '112-5525E CaF2 pl-cv 50.8 F-300', '', ( #20 ) ) ;
#10 = LOCAL_TIME ( 14, 26, 15.00000000000000000, #128 ) ;
#11 = PERSON_AND_ORGANIZATION ( #94, #175 ) ;
#12 = CARTESIAN_POINT ( 'NONE',  ( -25.39999999999999900, 7.995584178184967200E-015, 2.999999999999999600 ) ) ;
#13 = APPROVAL ( #44, 'UNSPECIFIED' ) ;
#14 = CARTESIAN_POINT ( 'NONE',  ( 9.992007221626412800E-016, 4.884981308350691100E-015, -2.597233554325559800 ) ) ;
#15 = LINE ( 'NONE', #185, #199 ) ;
#16 = DIRECTION ( 'NONE',  ( 1.000000000000000000, 0.0000000000000000000, 0.0000000000000000000 ) ) ;
#17 = CARTESIAN_POINT ( 'NONE',  ( -8.409684351599931800, 25.70049218566119700, -2.659718734387603000 ) ) ;
#18 = DIRECTION ( 'NONE',  ( 1.000000000000000000, 0.0000000000000000000, 0.0000000000000000000 ) ) ;
#19 = AXIS2_PLACEMENT_3D ( 'NONE', #99, #102, #220 ) ;
#20 = MECHANICAL_CONTEXT ( 'NONE', #103, 'mechanical' ) ;
#21 = APPROVAL_STATUS ( 'not_yet_approved' ) ;
#22 = APPROVAL ( #61, 'UNSPECIFIED' ) ;
#23 = ORIENTED_EDGE ( 'NONE', *, *, #196, .T. ) ;
#24 = CALENDAR_DATE ( 2019, 18, 1 ) ;
#25 = UNCERTAINTY_MEASURE_WITH_UNIT (LENGTH_MEASURE( 1.000000000000000100E-005 ), #117, 'distance_accuracy_value', 'NONE');
#26 = EDGE_CURVE ( 'NONE', #47, #232, #115, .T. ) ;
#27 = ORIENTED_EDGE ( 'NONE', *, *, #26, .F. ) ;
#28 = FACE_OUTER_BOUND ( 'NONE', #122, .T. ) ;
#29 = CARTESIAN_POINT ( 'NONE',  ( 25.00877898716978000, 25.70049218566120400, -5.232399728831119000 ) ) ;
#30 = DESIGN_CONTEXT ( 'detailed design', #41, 'design' ) ;
#31 = CARTESIAN_POINT ( 'NONE',  ( 8.409684351599921100, 25.70049218566120400, -2.659718734387598500 ) ) ;
#32 = CARTESIAN_POINT ( 'NONE',  ( -25.39999999999999900, 7.995584178184967200E-015, -2.597233554325559800 ) ) ;
#33 = CC_DESIGN_APPROVAL ( #13, ( #86 ) ) ;
#34 = DIRECTION ( 'NONE',  ( 0.0000000000000000000, 0.0000000000000000000, 1.000000000000000000 ) ) ;
#35 = ORIENTED_EDGE ( 'NONE', *, *, #52, .T. ) ;
#36 = CIRCLE ( 'NONE', #125, 25.39999999999999900 ) ;
#37 = CARTESIAN_POINT ( 'NONE',  ( 2.426003616100316800E-014, -25.40000000000003400, -2.597233554325568200 ) ) ;
#38 = AXIS2_PLACEMENT_3D ( 'NONE', #2, #118, #143 ) ;
#39 =( NAMED_UNIT ( * ) PLANE_ANGLE_UNIT ( ) SI_UNIT ( $, .RADIAN. ) );
#40 = CIRCLE ( 'NONE', #110, 25.39999999999999900 ) ;
#41 = APPLICATION_CONTEXT ( 'configuration controlled 3d designs of mechanical parts and assemblies' ) ;
#42 = ORIENTED_EDGE ( 'NONE', *, *, #152, .T. ) ;
#43 = PERSON_AND_ORGANIZATION ( #94, #175 ) ;
#44 = APPROVAL_STATUS ( 'not_yet_approved' ) ;
#45 = APPROVAL_DATE_TIME ( #216, #211 ) ;
#46 = MANIFOLD_SOLID_BREP ( 'Imported1', #212 ) ;
#47 = VERTEX_POINT ( 'NONE', #95 ) ;
#48 = CARTESIAN_POINT ( 'NONE',  ( 17.26124226457326200, 8.689603106652834100, 0.01377342182627933100 ) ) ;
#49 = ORIENTED_EDGE ( 'NONE', *, *, #79, .F. ) ;
#50 = CARTESIAN_POINT ( 'NONE',  ( -16.77522118687473500, 25.70049218566119700, -3.520290841305345100 ) ) ;
#51 = APPROVAL_DATE_TIME ( #194, #22 ) ;
#52 = EDGE_CURVE ( 'NONE', #77, #47, #40, .T. ) ;
#53 = PLANE ( 'NONE',  #176 ) ;
#54 = CARTESIAN_POINT ( 'NONE',  ( -25.39999999999999900, 7.995584178184967200E-015, -2.597233554325559800 ) ) ;
#55 = CC_DESIGN_PERSON_AND_ORGANIZATION_ASSIGNMENT ( #192, #151, ( #137 ) ) ;
#56 = CARTESIAN_POINT ( 'NONE',  ( 25.73334730015148300, -8.689603106652860700, -1.747939640653895800 ) ) ;
#57 = CIRCLE ( 'NONE', #204, 25.39999999999999900 ) ;
#58 = CARTESIAN_POINT ( 'NONE',  ( -1.040834085586084400E-014, -8.689603106652866100, 0.8992785044813992300 ) ) ;
#59 = CARTESIAN_POINT ( 'NONE',  ( -8.653334423699542200, -8.689603106652864300, 0.8992785044813973400 ) ) ;
#60 = FACE_OUTER_BOUND ( 'NONE', #163, .T. ) ;
#61 = APPROVAL_STATUS ( 'not_yet_approved' ) ;
#62 = CALENDAR_DATE ( 2019, 18, 1 ) ;
#63 = AXIS2_PLACEMENT_3D ( 'NONE', #180, #166, #18 ) ;
#64 = VERTEX_POINT ( 'NONE', #12 ) ;
#65 = CARTESIAN_POINT ( 'NONE',  ( 8.653334423699542200, 8.689603106652832300, 0.8992785044813911300 ) ) ;
#66 = PERSON_AND_ORGANIZATION ( #94, #175 ) ;
#67 = CARTESIAN_POINT ( 'NONE',  ( 9.992007221626412800E-016, 4.884981308350691100E-015, -2.597233554325559800 ) ) ;
#68 = DIRECTION ( 'NONE',  ( 1.000000000000000000, 0.0000000000000000000, 0.0000000000000000000 ) ) ;
#69 = ORIENTED_EDGE ( 'NONE', *, *, #100, .T. ) ;
#70 = ADVANCED_FACE ( 'NONE', ( #78 ), #107, .F. ) ;
#71 = CARTESIAN_POINT ( 'NONE',  ( 9.992007221626412800E-016, 4.884981308350691100E-015, -2.597233554325559800 ) ) ;
#72 = COORDINATED_UNIVERSAL_TIME_OFFSET ( 2, 0, .AHEAD. ) ;
#73 = EDGE_CURVE ( 'NONE', #108, #64, #213, .T. ) ;
#74 = DIRECTION ( 'NONE',  ( -0.0000000000000000000, -0.0000000000000000000, -1.000000000000000000 ) ) ;
#75 = APPROVAL_ROLE ( '' ) ;
#76 = EDGE_CURVE ( 'NONE', #64, #91, #132, .T. ) ;
#77 = VERTEX_POINT ( 'NONE', #37 ) ;
#78 = FACE_OUTER_BOUND ( 'NONE', #228, .T. ) ;
#79 = EDGE_CURVE ( 'NONE', #108, #77, #36, .T. ) ;
#80 = DIRECTION ( 'NONE',  ( 0.0000000000000000000, 0.0000000000000000000, 1.000000000000000000 ) ) ;
#81 = CIRCLE ( 'NONE', #5, 25.39999999999999900 ) ;
#82 = DIRECTION ( 'NONE',  ( -2.315424381500570500E-016, 1.000000000000000000, -4.423199301295444400E-016 ) ) ;
#83 = ORIENTED_EDGE ( 'NONE', *, *, #76, .T. ) ;
#84 = DIRECTION ( 'NONE',  ( 1.000000000000000000, 0.0000000000000000000, -0.0000000000000000000 ) ) ;
#85 = CARTESIAN_POINT ( 'NONE',  ( 17.26124226457326600, -8.689603106652862500, 0.01377342182629060600 ) ) ;
#86 = SECURITY_CLASSIFICATION ( '', '', #104 ) ;
#87 = DIRECTION ( 'NONE',  ( 0.0000000000000000000, 0.0000000000000000000, 1.000000000000000000 ) ) ;
#88 = CARTESIAN_POINT ( 'NONE',  ( -16.77522118687472000, -25.70049218566124300, -3.520290841305330400 ) ) ;
#89 = FACE_OUTER_BOUND ( 'NONE', #105, .T. ) ;
#90 = CARTESIAN_POINT ( 'NONE',  ( -17.26124226457326900, 8.689603106652827000, 0.01377342182626979000 ) ) ;
#91 = VERTEX_POINT ( 'NONE', #160 ) ;
#92 = COORDINATED_UNIVERSAL_TIME_OFFSET ( 2, 0, .AHEAD. ) ;
#93 = LOCAL_TIME ( 14, 26, 15.00000000000000000, #96 ) ;
#94 = PERSON ( 'UNSPECIFIED', 'UNSPECIFIED', 'UNSPECIFIED', ('UNSPECIFIED'), ('UNSPECIFIED'), ('UNSPECIFIED') ) ;
#95 = CARTESIAN_POINT ( 'NONE',  ( 25.39999999999999900, 4.884981308350691100E-015, -2.597233554325559800 ) ) ;
#96 = COORDINATED_UNIVERSAL_TIME_OFFSET ( 2, 0, .AHEAD. ) ;
#97 = CARTESIAN_POINT ( 'NONE',  ( -1.734723475976807100E-014, 25.70049218566120100, -2.659718734387600800 ) ) ;
#98 = CYLINDRICAL_SURFACE ( 'NONE', #19, 25.39999999999999900 ) ;
#99 = CARTESIAN_POINT ( 'NONE',  ( 9.992007221626412800E-016, 4.884981308350691100E-015, -2.597233554325559800 ) ) ;
#100 = EDGE_CURVE ( 'NONE', #91, #64, #57, .T. ) ;
#101 = LOCAL_TIME ( 14, 26, 15.00000000000000000, #157 ) ;
#102 = DIRECTION ( 'NONE',  ( 0.0000000000000000000, 0.0000000000000000000, 1.000000000000000000 ) ) ;
#103 = APPLICATION_CONTEXT ( 'configuration controlled 3d designs of mechanical parts and assemblies' ) ;
#104 = SECURITY_CLASSIFICATION_LEVEL ( 'unclassified' ) ;
#105 = EDGE_LOOP ( 'NONE', ( #173, #226, #49 ) ) ;
#106 = FACE_OUTER_BOUND ( 'NONE', #181, .T. ) ;
#107 =( BOUNDED_SURFACE ( )  B_SPLINE_SURFACE ( 3, 3, ( 
 ( #111, #31, #131, #29 ),
 ( #200, #65, #48, #217 ),
 ( #130, #133, #85, #56 ),
 ( #186, #139, #136, #205 ) ),
 .UNSPECIFIED., .F., .F., .F. ) 
 B_SPLINE_SURFACE_WITH_KNOTS ( ( 4, 4 ),
 ( 4, 4 ),
 ( 0.0000000000000000000, 1.000000000000000000 ),
 ( 0.0000000000000000000, 1.000000000000000000 ),
 .UNSPECIFIED. ) 
 GEOMETRIC_REPRESENTATION_ITEM ( )  RATIONAL_B_SPLINE_SURFACE ( (
 ( 1.000000000000000000, 0.9965002637055607700, 0.9965002637055607700, 1.000000000000000000),
 ( 0.9858713480245013800, 0.9824210582861723200, 0.9824210582861723200, 0.9858713480245013800),
 ( 0.9858713480245013800, 0.9824210582861723200, 0.9824210582861723200, 0.9858713480245013800),
 ( 1.000000000000000000, 0.9965002637055607700, 0.9965002637055607700, 1.000000000000000000) ) ) 
 REPRESENTATION_ITEM ( '' )  SURFACE ( )  );
#108 = VERTEX_POINT ( 'NONE', #32 ) ;
#109 = PERSON_AND_ORGANIZATION ( #94, #175 ) ;
#110 = AXIS2_PLACEMENT_3D ( 'NONE', #14, #179, #201 ) ;
#111 = CARTESIAN_POINT ( 'NONE',  ( 1.242598454873981800E-014, 25.70049218566120100, -2.659718734387597600 ) ) ;
#112 = PRODUCT_DEFINITION ( 'UNKNOWN', '', #137, #30 ) ;
#113 = CARTESIAN_POINT ( 'NONE',  ( -25.73334730015149700, 8.689603106652821700, -1.747939640653921200 ) ) ;
#114 = CARTESIAN_POINT ( 'NONE',  ( -25.00877898716979800, 25.70049218566119400, -5.232399728831133200 ) ) ;
#115 = CIRCLE ( 'NONE', #158, 25.39999999999999900 ) ;
#116 = DIRECTION ( 'NONE',  ( 1.000000000000000000, 0.0000000000000000000, 0.0000000000000000000 ) ) ;
#117 =( LENGTH_UNIT ( ) NAMED_UNIT ( * ) SI_UNIT ( .MILLI., .METRE. ) );
#118 = DIRECTION ( 'NONE',  ( 0.0000000000000000000, 0.0000000000000000000, 1.000000000000000000 ) ) ;
#119 = CARTESIAN_POINT ( 'NONE',  ( -17.26124226457326600, -8.689603106652866100, 0.01377342182628063000 ) ) ;
#120 = APPLICATION_PROTOCOL_DEFINITION ( 'international standard', 'config_control_design', 1994, #41 ) ;
#121 = ADVANCED_FACE ( 'NONE', ( #28 ), #53, .T. ) ;
#122 = EDGE_LOOP ( 'NONE', ( #3, #134 ) ) ;
#123 = CYLINDRICAL_SURFACE ( 'NONE', #140, 25.39999999999999900 ) ;
#124 = CC_DESIGN_DATE_AND_TIME_ASSIGNMENT ( #150, #189, ( #112 ) ) ;
#125 = AXIS2_PLACEMENT_3D ( 'NONE', #71, #34, #68 ) ;
#126 = LOCAL_TIME ( 14, 26, 15.00000000000000000, #92 ) ;
#127 = CC_DESIGN_PERSON_AND_ORGANIZATION_ASSIGNMENT ( #188, #209, ( #137 ) ) ;
#128 = COORDINATED_UNIVERSAL_TIME_OFFSET ( 2, 0, .AHEAD. ) ;
#129 = CALENDAR_DATE ( 2019, 18, 1 ) ;
#130 = CARTESIAN_POINT ( 'NONE',  ( 2.050944739216371200E-014, -8.689603106652866100, 0.8992785044814027900 ) ) ;
#131 = CARTESIAN_POINT ( 'NONE',  ( 16.77522118687472000, 25.70049218566120400, -3.520290841305334400 ) ) ;
#132 = CIRCLE ( 'NONE', #63, 25.39999999999999900 ) ;
#133 = CARTESIAN_POINT ( 'NONE',  ( 8.653334423699545800, -8.689603106652862500, 0.8992785044814024500 ) ) ;
#134 = ORIENTED_EDGE ( 'NONE', *, *, #76, .F. ) ;
#135 = LOCAL_TIME ( 14, 26, 15.00000000000000000, #72 ) ;
#136 = CARTESIAN_POINT ( 'NONE',  ( 16.77522118687472700, -25.70049218566123600, -3.520290841305320700 ) ) ;
#137 = PRODUCT_DEFINITION_FORMATION_WITH_SPECIFIED_SOURCE ( 'ANY', '', #9, .NOT_KNOWN. ) ;
#138 = DIRECTION ( 'NONE',  ( 0.0000000000000000000, 0.0000000000000000000, 1.000000000000000000 ) ) ;
#139 = CARTESIAN_POINT ( 'NONE',  ( 8.409684351599931800, -25.70049218566123600, -2.659718734387584300 ) ) ;
#140 = AXIS2_PLACEMENT_3D ( 'NONE', #221, #202, #116 ) ;
#141 = CARTESIAN_POINT ( 'NONE',  ( 1.421085471520200100E-014, -2.842170943040400100E-014, -125.5000000000000000 ) ) ;
#142 = CIRCLE ( 'NONE', #198, 125.5000000000000000 ) ;
#143 = DIRECTION ( 'NONE',  ( 1.000000000000000000, 0.0000000000000000000, 0.0000000000000000000 ) ) ;
#144 = DATE_TIME_ROLE ( 'classification_date' ) ;
#145 =( NAMED_UNIT ( * ) SI_UNIT ( $, .STERADIAN. ) SOLID_ANGLE_UNIT ( ) );
#146 = ORIENTED_EDGE ( 'NONE', *, *, #207, .F. ) ;
#147 = CC_DESIGN_SECURITY_CLASSIFICATION ( #86, ( #137 ) ) ;
#148 = CALENDAR_DATE ( 2019, 18, 1 ) ;
#149 = APPROVAL_ROLE ( '' ) ;
#150 = DATE_AND_TIME ( #62, #101 ) ;
#151 = PERSON_AND_ORGANIZATION_ROLE ( 'creator' ) ;
#152 = EDGE_CURVE ( 'NONE', #47, #91, #15, .T. ) ;
#153 = APPROVAL_PERSON_ORGANIZATION ( #11, #22, #191 ) ;
#154 = CC_DESIGN_DATE_AND_TIME_ASSIGNMENT ( #171, #144, ( #86 ) ) ;
#155 = VECTOR ( 'NONE', #138, 1000.000000000000000 ) ;
#156 = ORIENTED_EDGE ( 'NONE', *, *, #52, .F. ) ;
#157 = COORDINATED_UNIVERSAL_TIME_OFFSET ( 2, 0, .AHEAD. ) ;
#158 = AXIS2_PLACEMENT_3D ( 'NONE', #67, #80, #159 ) ;
#159 = DIRECTION ( 'NONE',  ( 1.000000000000000000, 0.0000000000000000000, 0.0000000000000000000 ) ) ;
#160 = CARTESIAN_POINT ( 'NONE',  ( 25.39999999999999900, 4.884981308350691100E-015, 2.999999999999999600 ) ) ;
#161 = CARTESIAN_POINT ( 'NONE',  ( 1.249768030298026100E-014, 25.40000000000000900, -2.597233554325554000 ) ) ;
#162 = DIRECTION ( 'NONE',  ( 0.0000000000000000000, 0.0000000000000000000, 1.000000000000000000 ) ) ;
#163 = EDGE_LOOP ( 'NONE', ( #178, #23, #190, #83, #215 ) ) ;
#164 = DATE_AND_TIME ( #148, #10 ) ;
#165 = PERSON_AND_ORGANIZATION ( #94, #175 ) ;
#166 = DIRECTION ( 'NONE',  ( -0.0000000000000000000, -0.0000000000000000000, -1.000000000000000000 ) ) ;
#167 = DIRECTION ( 'NONE',  ( 1.000000000000000000, 2.315424381500570000E-016, -3.391301625933749800E-017 ) ) ;
#168 = CARTESIAN_POINT ( 'NONE',  ( -6.938893903907228400E-015, -25.70049218566124000, -2.659718734387587900 ) ) ;
#169 = CARTESIAN_POINT ( 'NONE',  ( -25.73334730015149300, -8.689603106652871400, -1.747939640653910300 ) ) ;
#170 = PRODUCT_DEFINITION_SHAPE ( 'NONE', 'NONE',  #112 ) ;
#171 = DATE_AND_TIME ( #129, #126 ) ;
#172 = PERSON_AND_ORGANIZATION_ROLE ( 'creator' ) ;
#173 = ORIENTED_EDGE ( 'NONE', *, *, #196, .F. ) ;
#174 = CC_DESIGN_APPROVAL ( #22, ( #137 ) ) ;
#175 = ORGANIZATION ( 'UNSPECIFIED', 'UNSPECIFIED', '' ) ;
#176 = AXIS2_PLACEMENT_3D ( 'NONE', #182, #203, #84 ) ;
#177 = CC_DESIGN_PERSON_AND_ORGANIZATION_ASSIGNMENT ( #165, #172, ( #112 ) ) ;
#178 = ORIENTED_EDGE ( 'NONE', *, *, #26, .T. ) ;
#179 = DIRECTION ( 'NONE',  ( 0.0000000000000000000, 0.0000000000000000000, 1.000000000000000000 ) ) ;
#180 = CARTESIAN_POINT ( 'NONE',  ( 9.992007221626412800E-016, 4.884981308350691100E-015, 2.999999999999999600 ) ) ;
#181 = EDGE_LOOP ( 'NONE', ( #184, #222, #35, #42, #69 ) ) ;
#182 = CARTESIAN_POINT ( 'NONE',  ( 0.0000000000000000000, 52.02000000000000300, 3.000000000000000000 ) ) ;
#183 = APPROVAL_PERSON_ORGANIZATION ( #43, #13, #75 ) ;
#184 = ORIENTED_EDGE ( 'NONE', *, *, #73, .F. ) ;
#185 = CARTESIAN_POINT ( 'NONE',  ( 25.39999999999999900, 4.884981308350691100E-015, -2.597233554325559800 ) ) ;
#186 = CARTESIAN_POINT ( 'NONE',  ( 2.432749379338878600E-014, -25.70049218566124000, -2.659718734387583900 ) ) ;
#187 = CARTESIAN_POINT ( 'NONE',  ( -8.653334423699547500, 8.689603106652828800, 0.8992785044813854700 ) ) ;
#188 = PERSON_AND_ORGANIZATION ( #94, #175 ) ;
#189 = DATE_TIME_ROLE ( 'creation_date' ) ;
#190 = ORIENTED_EDGE ( 'NONE', *, *, #73, .T. ) ;
#191 = APPROVAL_ROLE ( '' ) ;
#192 = PERSON_AND_ORGANIZATION ( #94, #175 ) ;
#193 = ADVANCED_FACE ( 'NONE', ( #106 ), #98, .T. ) ;
#194 = DATE_AND_TIME ( #235, #93 ) ;
#195 = ADVANCED_FACE ( 'NONE', ( #60 ), #123, .T. ) ;
#196 = EDGE_CURVE ( 'NONE', #232, #108, #81, .T. ) ;
#197 =( BOUNDED_SURFACE ( )  B_SPLINE_SURFACE ( 3, 3, ( 
 ( #114, #50, #17, #97 ),
 ( #113, #90, #187, #208 ),
 ( #169, #119, #59, #58 ),
 ( #225, #88, #224, #168 ) ),
 .UNSPECIFIED., .F., .F., .F. ) 
 B_SPLINE_SURFACE_WITH_KNOTS ( ( 4, 4 ),
 ( 4, 4 ),
 ( 0.0000000000000000000, 1.000000000000000000 ),
 ( 0.0000000000000000000, 1.000000000000000000 ),
 .UNSPECIFIED. ) 
 GEOMETRIC_REPRESENTATION_ITEM ( )  RATIONAL_B_SPLINE_SURFACE ( (
 ( 1.000000000000000000, 0.9965002637055607700, 0.9965002637055607700, 1.000000000000000000),
 ( 0.9858713480245013800, 0.9824210582861723200, 0.9824210582861723200, 0.9858713480245013800),
 ( 0.9858713480245013800, 0.9824210582861723200, 0.9824210582861723200, 0.9858713480245013800),
 ( 1.000000000000000000, 0.9965002637055607700, 0.9965002637055607700, 1.000000000000000000) ) ) 
 REPRESENTATION_ITEM ( '' )  SURFACE ( )  );
#198 = AXIS2_PLACEMENT_3D ( 'NONE', #141, #167, #82 ) ;
#199 = VECTOR ( 'NONE', #162, 1000.000000000000000 ) ;
#200 = CARTESIAN_POINT ( 'NONE',  ( 1.648542361242229500E-014, 8.689603106652828800, 0.8992785044813913500 ) ) ;
#201 = DIRECTION ( 'NONE',  ( 1.000000000000000000, 0.0000000000000000000, 0.0000000000000000000 ) ) ;
#202 = DIRECTION ( 'NONE',  ( 0.0000000000000000000, 0.0000000000000000000, 1.000000000000000000 ) ) ;
#203 = DIRECTION ( 'NONE',  ( 0.0000000000000000000, 0.0000000000000000000, 1.000000000000000000 ) ) ;
#204 = AXIS2_PLACEMENT_3D ( 'NONE', #231, #74, #16 ) ;
#205 = CARTESIAN_POINT ( 'NONE',  ( 25.00877898716979100, -25.70049218566123600, -5.232399728831104800 ) ) ;
#206 = CARTESIAN_POINT ( 'NONE',  ( 9.992007221626412800E-016, 4.884981308350691100E-015, -2.597233554325559800 ) ) ;
#207 = EDGE_CURVE ( 'NONE', #232, #77, #142, .T. ) ;
#208 = CARTESIAN_POINT ( 'NONE',  ( -1.734723475976806800E-014, 8.689603106652828800, 0.8992785044813875700 ) ) ;
#209 = PERSON_AND_ORGANIZATION_ROLE ( 'design_supplier' ) ;
#210 = ADVANCED_FACE ( 'NONE', ( #89 ), #197, .F. ) ;
#211 = APPROVAL ( #21, 'UNSPECIFIED' ) ;
#212 = CLOSED_SHELL ( 'NONE', ( #210, #195, #70, #193, #121 ) ) ;
#213 = LINE ( 'NONE', #54, #155 ) ;
#214 = APPROVAL_DATE_TIME ( #164, #13 ) ;
#215 = ORIENTED_EDGE ( 'NONE', *, *, #152, .F. ) ;
#216 = DATE_AND_TIME ( #24, #135 ) ;
#217 = CARTESIAN_POINT ( 'NONE',  ( 25.73334730015147900, 8.689603106652834100, -1.747939640653907200 ) ) ;
#218 = CC_DESIGN_PERSON_AND_ORGANIZATION_ASSIGNMENT ( #109, #4, ( #9 ) ) ;
#219 = ADVANCED_BREP_SHAPE_REPRESENTATION ( '112-5525E CaF2 pl-cv 50.8 F-300', ( #46, #38 ), #230 ) ;
#220 = DIRECTION ( 'NONE',  ( 1.000000000000000000, 0.0000000000000000000, 0.0000000000000000000 ) ) ;
#221 = CARTESIAN_POINT ( 'NONE',  ( 9.992007221626412800E-016, 4.884981308350691100E-015, -2.597233554325559800 ) ) ;
#222 = ORIENTED_EDGE ( 'NONE', *, *, #79, .T. ) ;
#223 = DIRECTION ( 'NONE',  ( 1.000000000000000000, 0.0000000000000000000, 0.0000000000000000000 ) ) ;
#224 = CARTESIAN_POINT ( 'NONE',  ( -8.409684351599921100, -25.70049218566124300, -2.659718734387589700 ) ) ;
#225 = CARTESIAN_POINT ( 'NONE',  ( -25.00877898716978700, -25.70049218566124700, -5.232399728831119000 ) ) ;
#226 = ORIENTED_EDGE ( 'NONE', *, *, #207, .T. ) ;
#227 = PRODUCT_RELATED_PRODUCT_CATEGORY ( 'detail', '', ( #9 ) ) ;
#228 = EDGE_LOOP ( 'NONE', ( #146, #27, #156 ) ) ;
#229 = CC_DESIGN_PERSON_AND_ORGANIZATION_ASSIGNMENT ( #6, #7, ( #86 ) ) ;
#230 =( GEOMETRIC_REPRESENTATION_CONTEXT ( 3 ) GLOBAL_UNCERTAINTY_ASSIGNED_CONTEXT ( ( #25 ) ) GLOBAL_UNIT_ASSIGNED_CONTEXT ( ( #117, #39, #145 ) ) REPRESENTATION_CONTEXT ( 'NONE', 'WORKASPACE' ) );
#231 = CARTESIAN_POINT ( 'NONE',  ( 9.992007221626412800E-016, 4.884981308350691100E-015, 2.999999999999999600 ) ) ;
#232 = VERTEX_POINT ( 'NONE', #161 ) ;
#233 = CC_DESIGN_APPROVAL ( #211, ( #112 ) ) ;
#234 = SHAPE_DEFINITION_REPRESENTATION ( #170, #219 ) ;
#235 = CALENDAR_DATE ( 2019, 18, 1 ) ;
ENDSEC;
END-ISO-10303-21;
