ISO-10303-21;
HEADER;
FILE_DESCRIPTION (( 'STEP AP203' ),
    '1' );
FILE_NAME ('112-5519E CaF2 pl-cv 50.8 F-200.STEP',
    '2019-01-18T12:07:38',
    ( '' ),
    ( '' ),
    'SwSTEP 2.0',
    'SolidWorks 2017',
    '' );
FILE_SCHEMA (( 'CONFIG_CONTROL_DESIGN' ));
ENDSEC;

DATA;
#1 = CIRCLE ( 'NONE', #143, 25.39999999999999900 ) ;
#2 = DIRECTION ( 'NONE',  ( 0.0000000000000000000, 0.0000000000000000000, 1.000000000000000000 ) ) ;
#3 = AXIS2_PLACEMENT_3D ( 'NONE', #214, #160, #66 ) ;
#4 = CARTESIAN_POINT ( 'NONE',  ( -25.39999999999999900, 7.995584178184967200E-015, -3.949545170682990000 ) ) ;
#5 = DIRECTION ( 'NONE',  ( 1.000000000000000000, 0.0000000000000000000, 0.0000000000000000000 ) ) ;
#6 = CARTESIAN_POINT ( 'NONE',  ( 24.31237598715985700, -25.69489275285956600, -7.847603202286414600 ) ) ;
#7 = ADVANCED_FACE ( 'NONE', ( #90 ), #57, .T. ) ;
#8 = CARTESIAN_POINT ( 'NONE',  ( -8.268941173388416400, 25.69489275285958400, -4.044127186374967500 ) ) ;
#9 = EDGE_LOOP ( 'NONE', ( #36, #222, #107 ) ) ;
#10 = PERSON_AND_ORGANIZATION ( #44, #56 ) ;
#11 = CARTESIAN_POINT ( 'NONE',  ( -16.43851520568680500, 25.69489275285958000, -5.322191449138524700 ) ) ;
#12 = PERSON_AND_ORGANIZATION_ROLE ( 'classification_officer' ) ;
#13 = CARTESIAN_POINT ( 'NONE',  ( 25.39999999999999900, 4.884981308350691100E-015, -3.949545170682990000 ) ) ;
#14 = AXIS2_PLACEMENT_3D ( 'NONE', #38, #130, #188 ) ;
#15 = APPROVAL_ROLE ( '' ) ;
#16 = EDGE_LOOP ( 'NONE', ( #180, #218, #179, #163, #105 ) ) ;
#17 = COORDINATED_UNIVERSAL_TIME_OFFSET ( 2, 0, .AHEAD. ) ;
#18 = DATE_AND_TIME ( #103, #145 ) ;
#19 = CARTESIAN_POINT ( 'NONE',  ( 9.992007221626412800E-016, 4.884981308350691100E-015, 3.600000000000000100 ) ) ;
#20 = CARTESIAN_POINT ( 'NONE',  ( 9.992007221626412800E-016, 4.884981308350691100E-015, -3.949545170682990000 ) ) ;
#21 = CARTESIAN_POINT ( 'NONE',  ( -1.510330810484473600E-014, -25.39999999999999100, -3.949545170682992700 ) ) ;
#22 = EDGE_LOOP ( 'NONE', ( #206, #51, #138 ) ) ;
#23 = AXIS2_PLACEMENT_3D ( 'NONE', #61, #24, #46 ) ;
#24 = DIRECTION ( 'NONE',  ( 1.000000000000000000, 3.473828569973949900E-016, 3.002094871832189900E-016 ) ) ;
#25 = CARTESIAN_POINT ( 'NONE',  ( 17.56126240751323700, -8.850211354717089300, 0.02758173750898188600 ) ) ;
#26 = PERSON_AND_ORGANIZATION ( #44, #56 ) ;
#27 = CARTESIAN_POINT ( 'NONE',  ( -24.31237598715986100, -25.69489275285958400, -7.847603202286418200 ) ) ;
#28 = CARTESIAN_POINT ( 'NONE',  ( -25.97290625815990200, 8.850211354717096400, -2.670315118084518200 ) ) ;
#29 = APPROVAL_ROLE ( '' ) ;
#30 = CALENDAR_DATE ( 2019, 18, 1 ) ;
#31 = FACE_OUTER_BOUND ( 'NONE', #16, .T. ) ;
#32 = CLOSED_SHELL ( 'NONE', ( #176, #117, #173, #135, #7 ) ) ;
#33 = FACE_OUTER_BOUND ( 'NONE', #22, .T. ) ;
#34 = LOCAL_TIME ( 14, 7, 38.00000000000000000, #125 ) ;
#35 = AXIS2_PLACEMENT_3D ( 'NONE', #153, #230, #5 ) ;
#36 = ORIENTED_EDGE ( 'NONE', *, *, #121, .F. ) ;
#37 = VECTOR ( 'NONE', #104, 1000.000000000000000 ) ;
#38 = CARTESIAN_POINT ( 'NONE',  ( 9.992007221626412800E-016, 4.884981308350691100E-015, -3.949545170682990000 ) ) ;
#39 = CARTESIAN_POINT ( 'NONE',  ( 9.992007221626412800E-016, 4.884981308350691100E-015, -3.949545170682990000 ) ) ;
#40 = PERSON_AND_ORGANIZATION ( #44, #56 ) ;
#41 = DIRECTION ( 'NONE',  ( 0.0000000000000000000, 0.0000000000000000000, 1.000000000000000000 ) ) ;
#42 = CARTESIAN_POINT ( 'NONE',  ( 17.56126240751323700, 8.850211354717107100, 0.02758173750898448500 ) ) ;
#43 = CARTESIAN_POINT ( 'NONE',  ( -8.833708151933885600, -8.850211354717092900, 1.392937526107897800 ) ) ;
#44 = PERSON ( 'UNSPECIFIED', 'UNSPECIFIED', 'UNSPECIFIED', ('UNSPECIFIED'), ('UNSPECIFIED'), ('UNSPECIFIED') ) ;
#45 = CARTESIAN_POINT ( 'NONE',  ( -17.56126240751326900, -8.850211354717094600, 0.02758173750897667900 ) ) ;
#46 = DIRECTION ( 'NONE',  ( -3.473828569973949900E-016, 1.000000000000000000, 0.0000000000000000000 ) ) ;
#47 = APPROVAL_PERSON_ORGANIZATION ( #40, #70, #142 ) ;
#48 = APPROVAL_STATUS ( 'not_yet_approved' ) ;
#49 = SECURITY_CLASSIFICATION ( '', '', #161 ) ;
#50 = DATE_TIME_ROLE ( 'creation_date' ) ;
#51 = ORIENTED_EDGE ( 'NONE', *, *, #196, .F. ) ;
#52 = APPLICATION_CONTEXT ( 'configuration controlled 3d designs of mechanical parts and assemblies' ) ;
#53 = LINE ( 'NONE', #13, #37 ) ;
#54 = VERTEX_POINT ( 'NONE', #129 ) ;
#55 = ORIENTED_EDGE ( 'NONE', *, *, #92, .F. ) ;
#56 = ORGANIZATION ( 'UNSPECIFIED', 'UNSPECIFIED', '' ) ;
#57 = PLANE ( 'NONE',  #198 ) ;
#58 = CC_DESIGN_PERSON_AND_ORGANIZATION_ASSIGNMENT ( #212, #200, ( #201 ) ) ;
#59 = CARTESIAN_POINT ( 'NONE',  ( -8.833708151933896200, 8.850211354717100000, 1.392937526107899100 ) ) ;
#60 = ORIENTED_EDGE ( 'NONE', *, *, #182, .F. ) ;
#61 = CARTESIAN_POINT ( 'NONE',  ( 0.0000000000000000000, 0.0000000000000000000, -83.65000000000000600 ) ) ;
#62 = APPROVAL_DATE_TIME ( #111, #70 ) ;
#63 = CARTESIAN_POINT ( 'NONE',  ( 9.992007221626412800E-016, 4.884981308350691100E-015, -3.949545170682990000 ) ) ;
#64 = CARTESIAN_POINT ( 'NONE',  ( -24.31237598715988200, 25.69489275285958000, -7.847603202286418200 ) ) ;
#65 = PRODUCT ( '112-5519E CaF2 pl-cv 50.8 F-200', '112-5519E CaF2 pl-cv 50.8 F-200', '', ( #141 ) ) ;
#66 = DIRECTION ( 'NONE',  ( 1.000000000000000000, 0.0000000000000000000, 0.0000000000000000000 ) ) ;
#67 = APPLICATION_CONTEXT ( 'configuration controlled 3d designs of mechanical parts and assemblies' ) ;
#68 = LOCAL_TIME ( 14, 7, 38.00000000000000000, #192 ) ;
#69 = APPROVAL ( #216, 'UNSPECIFIED' ) ;
#70 = APPROVAL ( #48, 'UNSPECIFIED' ) ;
#71 = MANIFOLD_SOLID_BREP ( 'Imported1', #32 ) ;
#72 = EDGE_LOOP ( 'NONE', ( #55, #60 ) ) ;
#73 = AXIS2_PLACEMENT_3D ( 'NONE', #168, #2, #225 ) ;
#74 = APPROVAL_PERSON_ORGANIZATION ( #88, #69, #15 ) ;
#75 = DIRECTION ( 'NONE',  ( 1.000000000000000000, 0.0000000000000000000, 0.0000000000000000000 ) ) ;
#76 = CARTESIAN_POINT ( 'NONE',  ( -5.204170427930421300E-014, 25.69489275285959100, -4.044127186374963900 ) ) ;
#77 = CARTESIAN_POINT ( 'NONE',  ( 9.992007221626412800E-016, 4.884981308350691100E-015, 3.600000000000000100 ) ) ;
#78 = ORIENTED_EDGE ( 'NONE', *, *, #196, .T. ) ;
#79 = CARTESIAN_POINT ( 'NONE',  ( -1.497247299942090500E-014, -25.69489275285957700, -4.044127186374965700 ) ) ;
#80 =( BOUNDED_SURFACE ( )  B_SPLINE_SURFACE ( 3, 3, ( 
 ( #102, #227, #113, #193 ),
 ( #152, #118, #42, #154 ),
 ( #137, #172, #25, #210 ),
 ( #79, #177, #139, #6 ) ),
 .UNSPECIFIED., .F., .F., .F. ) 
 B_SPLINE_SURFACE_WITH_KNOTS ( ( 4, 4 ),
 ( 4, 4 ),
 ( 0.0000000000000000000, 1.000000000000000000 ),
 ( 0.0000000000000000000, 1.000000000000000000 ),
 .UNSPECIFIED. ) 
 GEOMETRIC_REPRESENTATION_ITEM ( )  RATIONAL_B_SPLINE_SURFACE ( (
 ( 1.000000000000000000, 0.9919887251175699700, 0.9919887251175699700, 1.000000000000000000),
 ( 0.9677694585664476900, 0.9600163914110514400, 0.9600163914110514400, 0.9677694585664476900),
 ( 0.9677694585664476900, 0.9600163914110514400, 0.9600163914110514400, 0.9677694585664476900),
 ( 1.000000000000000000, 0.9919887251175699700, 0.9919887251175699700, 1.000000000000000000) ) ) 
 REPRESENTATION_ITEM ( '' )  SURFACE ( )  );
#81 = CARTESIAN_POINT ( 'NONE',  ( -25.39999999999999900, 7.995584178184967200E-015, -3.949545170682990000 ) ) ;
#82 =( NAMED_UNIT ( * ) PLANE_ANGLE_UNIT ( ) SI_UNIT ( $, .RADIAN. ) );
#83 = PERSON_AND_ORGANIZATION_ROLE ( 'creator' ) ;
#84 = APPROVAL ( #85, 'UNSPECIFIED' ) ;
#85 = APPROVAL_STATUS ( 'not_yet_approved' ) ;
#86 = DATE_TIME_ROLE ( 'classification_date' ) ;
#87 = CIRCLE ( 'NONE', #35, 25.39999999999999900 ) ;
#88 = PERSON_AND_ORGANIZATION ( #44, #56 ) ;
#89 = AXIS2_PLACEMENT_3D ( 'NONE', #20, #96, #150 ) ;
#90 = FACE_OUTER_BOUND ( 'NONE', #72, .T. ) ;
#91 = ORIENTED_EDGE ( 'NONE', *, *, #121, .T. ) ;
#92 = EDGE_CURVE ( 'NONE', #147, #54, #195, .T. ) ;
#93 = VECTOR ( 'NONE', #132, 1000.000000000000000 ) ;
#94 = DIRECTION ( 'NONE',  ( 0.0000000000000000000, 0.0000000000000000000, 1.000000000000000000 ) ) ;
#95 = DATE_AND_TIME ( #217, #34 ) ;
#96 = DIRECTION ( 'NONE',  ( 0.0000000000000000000, 0.0000000000000000000, 1.000000000000000000 ) ) ;
#97 = CC_DESIGN_APPROVAL ( #84, ( #201 ) ) ;
#98 = PRODUCT_DEFINITION_SHAPE ( 'NONE', 'NONE',  #201 ) ;
#99 = ORIENTED_EDGE ( 'NONE', *, *, #167, .T. ) ;
#100 = CARTESIAN_POINT ( 'NONE',  ( -17.56126240751327900, 8.850211354717098200, 0.02758173750897841700 ) ) ;
#101 = CARTESIAN_POINT ( 'NONE',  ( 25.39999999999999900, 4.884981308350691100E-015, -3.949545170682990000 ) ) ;
#102 = CARTESIAN_POINT ( 'NONE',  ( -3.282440350888094400E-014, 25.69489275285958700, -4.044127186374965700 ) ) ;
#103 = CALENDAR_DATE ( 2019, 18, 1 ) ;
#104 = DIRECTION ( 'NONE',  ( 0.0000000000000000000, 0.0000000000000000000, 1.000000000000000000 ) ) ;
#105 = ORIENTED_EDGE ( 'NONE', *, *, #92, .T. ) ;
#106 = PRODUCT_RELATED_PRODUCT_CATEGORY ( 'detail', '', ( #65 ) ) ;
#107 = ORIENTED_EDGE ( 'NONE', *, *, #162, .F. ) ;
#108 = CIRCLE ( 'NONE', #220, 25.39999999999999900 ) ;
#109 = CC_DESIGN_APPROVAL ( #69, ( #185 ) ) ;
#110 = ORIENTED_EDGE ( 'NONE', *, *, #182, .T. ) ;
#111 = DATE_AND_TIME ( #235, #68 ) ;
#112 = AXIS2_PLACEMENT_3D ( 'NONE', #19, #190, #75 ) ;
#113 = CARTESIAN_POINT ( 'NONE',  ( 16.43851520568674100, 25.69489275285959100, -5.322191449138518500 ) ) ;
#114 = CARTESIAN_POINT ( 'NONE',  ( -3.275035724031240000E-014, 25.39999999999999900, -3.949545170682992700 ) ) ;
#115 = DESIGN_CONTEXT ( 'detailed design', #52, 'design' ) ;
#116 =( BOUNDED_SURFACE ( )  B_SPLINE_SURFACE ( 3, 3, ( 
 ( #64, #11, #8, #76 ),
 ( #28, #100, #59, #120 ),
 ( #197, #45, #43, #211 ),
 ( #27, #229, #175, #194 ) ),
 .UNSPECIFIED., .F., .F., .F. ) 
 B_SPLINE_SURFACE_WITH_KNOTS ( ( 4, 4 ),
 ( 4, 4 ),
 ( 0.0000000000000000000, 1.000000000000000000 ),
 ( 0.0000000000000000000, 1.000000000000000000 ),
 .UNSPECIFIED. ) 
 GEOMETRIC_REPRESENTATION_ITEM ( )  RATIONAL_B_SPLINE_SURFACE ( (
 ( 1.000000000000000000, 0.9919887251175699700, 0.9919887251175699700, 1.000000000000000000),
 ( 0.9677694585664476900, 0.9600163914110514400, 0.9600163914110514400, 0.9677694585664476900),
 ( 0.9677694585664476900, 0.9600163914110514400, 0.9600163914110514400, 0.9677694585664476900),
 ( 1.000000000000000000, 0.9919887251175699700, 0.9919887251175699700, 1.000000000000000000) ) ) 
 REPRESENTATION_ITEM ( '' )  SURFACE ( )  );
#117 = ADVANCED_FACE ( 'NONE', ( #133 ), #140, .T. ) ;
#118 = CARTESIAN_POINT ( 'NONE',  ( 8.833708151933835900, 8.850211354717105300, 1.392937526107906200 ) ) ;
#119 = CALENDAR_DATE ( 2019, 18, 1 ) ;
#120 = CARTESIAN_POINT ( 'NONE',  ( -5.204170427930421300E-014, 8.850211354717105300, 1.392937526107904000 ) ) ;
#121 = EDGE_CURVE ( 'NONE', #219, #204, #234, .T. ) ;
#122 = DIRECTION ( 'NONE',  ( 1.000000000000000000, 0.0000000000000000000, 0.0000000000000000000 ) ) ;
#123 = APPLICATION_PROTOCOL_DEFINITION ( 'international standard', 'config_control_design', 1994, #67 ) ;
#124 = VERTEX_POINT ( 'NONE', #21 ) ;
#125 = COORDINATED_UNIVERSAL_TIME_OFFSET ( 2, 0, .AHEAD. ) ;
#126 = ADVANCED_BREP_SHAPE_REPRESENTATION ( '112-5519E CaF2 pl-cv 50.8 F-200', ( #71, #3 ), #191 ) ;
#127 = LOCAL_TIME ( 14, 7, 38.00000000000000000, #134 ) ;
#128 = APPROVAL_DATE_TIME ( #18, #84 ) ;
#129 = CARTESIAN_POINT ( 'NONE',  ( -25.39999999999999900, 7.995584178184967200E-015, 3.600000000000000100 ) ) ;
#130 = DIRECTION ( 'NONE',  ( 0.0000000000000000000, 0.0000000000000000000, 1.000000000000000000 ) ) ;
#131 = CARTESIAN_POINT ( 'NONE',  ( 0.0000000000000000000, 52.02000000000000300, 3.600000000000000500 ) ) ;
#132 = DIRECTION ( 'NONE',  ( 0.0000000000000000000, 0.0000000000000000000, 1.000000000000000000 ) ) ;
#133 = FACE_OUTER_BOUND ( 'NONE', #228, .T. ) ;
#134 = COORDINATED_UNIVERSAL_TIME_OFFSET ( 2, 0, .AHEAD. ) ;
#135 = ADVANCED_FACE ( 'NONE', ( #31 ), #178, .T. ) ;
#136 = DIRECTION ( 'NONE',  ( -0.0000000000000000000, -0.0000000000000000000, -1.000000000000000000 ) ) ;
#137 = CARTESIAN_POINT ( 'NONE',  ( -2.245628495783497400E-014, -8.850211354717092900, 1.392937526107900900 ) ) ;
#138 = ORIENTED_EDGE ( 'NONE', *, *, #144, .F. ) ;
#139 = CARTESIAN_POINT ( 'NONE',  ( 16.43851520568675500, -25.69489275285956600, -5.322191449138518500 ) ) ;
#140 = CYLINDRICAL_SURFACE ( 'NONE', #14, 25.39999999999999900 ) ;
#141 = MECHANICAL_CONTEXT ( 'NONE', #67, 'mechanical' ) ;
#142 = APPROVAL_ROLE ( '' ) ;
#143 = AXIS2_PLACEMENT_3D ( 'NONE', #77, #136, #174 ) ;
#144 = EDGE_CURVE ( 'NONE', #124, #208, #224, .T. ) ;
#145 = LOCAL_TIME ( 14, 7, 38.00000000000000000, #17 ) ;
#146 = CC_DESIGN_PERSON_AND_ORGANIZATION_ASSIGNMENT ( #205, #83, ( #185 ) ) ;
#147 = VERTEX_POINT ( 'NONE', #171 ) ;
#148 = LOCAL_TIME ( 14, 7, 38.00000000000000000, #149 ) ;
#149 = COORDINATED_UNIVERSAL_TIME_OFFSET ( 2, 0, .AHEAD. ) ;
#150 = DIRECTION ( 'NONE',  ( 1.000000000000000000, 0.0000000000000000000, 0.0000000000000000000 ) ) ;
#151 = ORIENTED_EDGE ( 'NONE', *, *, #233, .F. ) ;
#152 = CARTESIAN_POINT ( 'NONE',  ( -2.860510836869979300E-014, 8.850211354717103500, 1.392937526107903100 ) ) ;
#153 = CARTESIAN_POINT ( 'NONE',  ( 9.992007221626412800E-016, 4.884981308350691100E-015, -3.949545170682990000 ) ) ;
#154 = CARTESIAN_POINT ( 'NONE',  ( 25.97290625815987800, 8.850211354717112400, -2.670315118084515000 ) ) ;
#155 = DATE_AND_TIME ( #119, #148 ) ;
#156 = EDGE_CURVE ( 'NONE', #219, #124, #189, .T. ) ;
#157 = CC_DESIGN_PERSON_AND_ORGANIZATION_ASSIGNMENT ( #232, #181, ( #65 ) ) ;
#158 =( NAMED_UNIT ( * ) SI_UNIT ( $, .STERADIAN. ) SOLID_ANGLE_UNIT ( ) );
#159 = CC_DESIGN_PERSON_AND_ORGANIZATION_ASSIGNMENT ( #207, #12, ( #49 ) ) ;
#160 = DIRECTION ( 'NONE',  ( 0.0000000000000000000, 0.0000000000000000000, 1.000000000000000000 ) ) ;
#161 = SECURITY_CLASSIFICATION_LEVEL ( 'unclassified' ) ;
#162 = EDGE_CURVE ( 'NONE', #204, #124, #87, .T. ) ;
#163 = ORIENTED_EDGE ( 'NONE', *, *, #233, .T. ) ;
#164 = CC_DESIGN_SECURITY_CLASSIFICATION ( #49, ( #185 ) ) ;
#165 = APPROVAL_DATE_TIME ( #95, #69 ) ;
#166 = DIRECTION ( 'NONE',  ( 1.000000000000000000, 0.0000000000000000000, -0.0000000000000000000 ) ) ;
#167 = EDGE_CURVE ( 'NONE', #204, #54, #231, .T. ) ;
#168 = CARTESIAN_POINT ( 'NONE',  ( 9.992007221626412800E-016, 4.884981308350691100E-015, -3.949545170682990000 ) ) ;
#169 = DIRECTION ( 'NONE',  ( 1.000000000000000000, 0.0000000000000000000, 0.0000000000000000000 ) ) ;
#170 = CC_DESIGN_DATE_AND_TIME_ASSIGNMENT ( #155, #86, ( #49 ) ) ;
#171 = CARTESIAN_POINT ( 'NONE',  ( 25.39999999999999900, 4.884981308350691100E-015, 3.600000000000000100 ) ) ;
#172 = CARTESIAN_POINT ( 'NONE',  ( 8.833708151933839400, -8.850211354717091100, 1.392937526107903100 ) ) ;
#173 = ADVANCED_FACE ( 'NONE', ( #33 ), #80, .F. ) ;
#174 = DIRECTION ( 'NONE',  ( 1.000000000000000000, 0.0000000000000000000, 0.0000000000000000000 ) ) ;
#175 = CARTESIAN_POINT ( 'NONE',  ( -8.268941173388398600, -25.69489275285957300, -4.044127186374968400 ) ) ;
#176 = ADVANCED_FACE ( 'NONE', ( #186 ), #116, .F. ) ;
#177 = CARTESIAN_POINT ( 'NONE',  ( 8.268941173388366600, -25.69489275285957000, -4.044127186374962200 ) ) ;
#178 = CYLINDRICAL_SURFACE ( 'NONE', #89, 25.39999999999999900 ) ;
#179 = ORIENTED_EDGE ( 'NONE', *, *, #144, .T. ) ;
#180 = ORIENTED_EDGE ( 'NONE', *, *, #167, .F. ) ;
#181 = PERSON_AND_ORGANIZATION_ROLE ( 'design_owner' ) ;
#182 = EDGE_CURVE ( 'NONE', #54, #147, #1, .T. ) ;
#183 = AXIS2_PLACEMENT_3D ( 'NONE', #39, #41, #169 ) ;
#184 = SHAPE_DEFINITION_REPRESENTATION ( #98, #126 ) ;
#185 = PRODUCT_DEFINITION_FORMATION_WITH_SPECIFIED_SOURCE ( 'ANY', '', #65, .NOT_KNOWN. ) ;
#186 = FACE_OUTER_BOUND ( 'NONE', #9, .T. ) ;
#187 = UNCERTAINTY_MEASURE_WITH_UNIT (LENGTH_MEASURE( 1.000000000000000100E-005 ), #199, 'distance_accuracy_value', 'NONE');
#188 = DIRECTION ( 'NONE',  ( 1.000000000000000000, 0.0000000000000000000, 0.0000000000000000000 ) ) ;
#189 = CIRCLE ( 'NONE', #23, 83.65000000000000600 ) ;
#190 = DIRECTION ( 'NONE',  ( -0.0000000000000000000, -0.0000000000000000000, -1.000000000000000000 ) ) ;
#191 =( GEOMETRIC_REPRESENTATION_CONTEXT ( 3 ) GLOBAL_UNCERTAINTY_ASSIGNED_CONTEXT ( ( #187 ) ) GLOBAL_UNIT_ASSIGNED_CONTEXT ( ( #199, #82, #158 ) ) REPRESENTATION_CONTEXT ( 'NONE', 'WORKASPACE' ) );
#192 = COORDINATED_UNIVERSAL_TIME_OFFSET ( 2, 0, .AHEAD. ) ;
#193 = CARTESIAN_POINT ( 'NONE',  ( 24.31237598715983900, 25.69489275285959800, -7.847603202286414600 ) ) ;
#194 = CARTESIAN_POINT ( 'NONE',  ( -3.469446951953614200E-014, -25.69489275285957300, -4.044127186374964800 ) ) ;
#195 = CIRCLE ( 'NONE', #112, 25.39999999999999900 ) ;
#196 = EDGE_CURVE ( 'NONE', #208, #219, #108, .T. ) ;
#197 = CARTESIAN_POINT ( 'NONE',  ( -25.97290625815989500, -8.850211354717100000, -2.670315118084519900 ) ) ;
#198 = AXIS2_PLACEMENT_3D ( 'NONE', #131, #94, #166 ) ;
#199 =( LENGTH_UNIT ( ) NAMED_UNIT ( * ) SI_UNIT ( .MILLI., .METRE. ) );
#200 = PERSON_AND_ORGANIZATION_ROLE ( 'creator' ) ;
#201 = PRODUCT_DEFINITION ( 'UNKNOWN', '', #185, #115 ) ;
#202 = CC_DESIGN_APPROVAL ( #70, ( #49 ) ) ;
#203 = APPLICATION_PROTOCOL_DEFINITION ( 'international standard', 'config_control_design', 1994, #52 ) ;
#204 = VERTEX_POINT ( 'NONE', #81 ) ;
#205 = PERSON_AND_ORGANIZATION ( #44, #56 ) ;
#206 = ORIENTED_EDGE ( 'NONE', *, *, #156, .F. ) ;
#207 = PERSON_AND_ORGANIZATION ( #44, #56 ) ;
#208 = VERTEX_POINT ( 'NONE', #101 ) ;
#209 = CC_DESIGN_DATE_AND_TIME_ASSIGNMENT ( #223, #50, ( #201 ) ) ;
#210 = CARTESIAN_POINT ( 'NONE',  ( 25.97290625815988500, -8.850211354717084000, -2.670315118084517700 ) ) ;
#211 = CARTESIAN_POINT ( 'NONE',  ( -4.163336342344337000E-014, -8.850211354717091100, 1.392937526107902200 ) ) ;
#212 = PERSON_AND_ORGANIZATION ( #44, #56 ) ;
#213 = DIRECTION ( 'NONE',  ( 0.0000000000000000000, 0.0000000000000000000, 1.000000000000000000 ) ) ;
#214 = CARTESIAN_POINT ( 'NONE',  ( 0.0000000000000000000, 0.0000000000000000000, 0.0000000000000000000 ) ) ;
#215 = PERSON_AND_ORGANIZATION_ROLE ( 'design_supplier' ) ;
#216 = APPROVAL_STATUS ( 'not_yet_approved' ) ;
#217 = CALENDAR_DATE ( 2019, 18, 1 ) ;
#218 = ORIENTED_EDGE ( 'NONE', *, *, #162, .T. ) ;
#219 = VERTEX_POINT ( 'NONE', #114 ) ;
#220 = AXIS2_PLACEMENT_3D ( 'NONE', #63, #213, #122 ) ;
#221 = CC_DESIGN_PERSON_AND_ORGANIZATION_ASSIGNMENT ( #10, #215, ( #185 ) ) ;
#222 = ORIENTED_EDGE ( 'NONE', *, *, #156, .T. ) ;
#223 = DATE_AND_TIME ( #30, #127 ) ;
#224 = CIRCLE ( 'NONE', #183, 25.39999999999999900 ) ;
#225 = DIRECTION ( 'NONE',  ( 1.000000000000000000, 0.0000000000000000000, 0.0000000000000000000 ) ) ;
#226 = APPROVAL_PERSON_ORGANIZATION ( #26, #84, #29 ) ;
#227 = CARTESIAN_POINT ( 'NONE',  ( 8.268941173388348900, 25.69489275285958700, -4.044127186374962200 ) ) ;
#228 = EDGE_LOOP ( 'NONE', ( #78, #91, #99, #110, #151 ) ) ;
#229 = CARTESIAN_POINT ( 'NONE',  ( -16.43851520568678400, -25.69489275285957700, -5.322191449138524700 ) ) ;
#230 = DIRECTION ( 'NONE',  ( 0.0000000000000000000, 0.0000000000000000000, 1.000000000000000000 ) ) ;
#231 = LINE ( 'NONE', #4, #93 ) ;
#232 = PERSON_AND_ORGANIZATION ( #44, #56 ) ;
#233 = EDGE_CURVE ( 'NONE', #208, #147, #53, .T. ) ;
#234 = CIRCLE ( 'NONE', #73, 25.39999999999999900 ) ;
#235 = CALENDAR_DATE ( 2019, 18, 1 ) ;
ENDSEC;
END-ISO-10303-21;
