ISO-10303-21;
HEADER;
FILE_DESCRIPTION (( 'STEP AP203' ),
    '1' );
FILE_NAME ('112-5235E CaF2 pl-cv 12.7 F-1000.STEP',
    '2019-01-18T08:56:15',
    ( '' ),
    ( '' ),
    'SwSTEP 2.0',
    'SolidWorks 2017',
    '' );
FILE_SCHEMA (( 'CONFIG_CONTROL_DESIGN' ));
ENDSEC;

DATA;
#1 = FACE_OUTER_BOUND ( 'NONE', #192, .T. ) ;
#2 = AXIS2_PLACEMENT_3D ( 'NONE', #34, #56, #202 ) ;
#3 = CARTESIAN_POINT ( 'NONE',  ( -4.257542438048023600, -12.85235230930921400, -0.1974921862851909700 ) ) ;
#4 = ORIENTED_EDGE ( 'NONE', *, *, #162, .F. ) ;
#5 = CARTESIAN_POINT ( 'NONE',  ( 12.69999999999999900, 2.442490654175340100E-015, -0.1928367033160340000 ) ) ;
#6 = CARTESIAN_POINT ( 'NONE',  ( 4.996003610813200500E-016, 2.442490654175340100E-015, -0.1928367033160340000 ) ) ;
#7 = CARTESIAN_POINT ( 'NONE',  ( 4.996003610813200500E-016, 2.442490654175340100E-015, -0.1928367033160340000 ) ) ;
#8 = CC_DESIGN_PERSON_AND_ORGANIZATION_ASSIGNMENT ( #19, #31, ( #184 ) ) ;
#9 = APPLICATION_CONTEXT ( 'configuration controlled 3d designs of mechanical parts and assemblies' ) ;
#10 = CARTESIAN_POINT ( 'NONE',  ( 4.260224069252893200, 4.285466302655673400, 0.06585145574873754700 ) ) ;
#11 = PERSON_AND_ORGANIZATION ( #182, #22 ) ;
#12 = CARTESIAN_POINT ( 'NONE',  ( 6.064950328719694900E-014, -4.285466302655870600, 0.06585145574873457800 ) ) ;
#13 = FACE_OUTER_BOUND ( 'NONE', #213, .T. ) ;
#14 = CC_DESIGN_DATE_AND_TIME_ASSIGNMENT ( #103, #208, ( #194 ) ) ;
#15 = CALENDAR_DATE ( 2019, 18, 1 ) ;
#16 = AXIS2_PLACEMENT_3D ( 'NONE', #159, #173, #229 ) ;
#17 = DIRECTION ( 'NONE',  ( 0.0000000000000000000, 0.0000000000000000000, 1.000000000000000000 ) ) ;
#18 = ORIENTED_EDGE ( 'NONE', *, *, #72, .T. ) ;
#19 = PERSON_AND_ORGANIZATION ( #182, #22 ) ;
#20 = CARTESIAN_POINT ( 'NONE',  ( -12.77818767393014500, -4.285466302655870600, -0.1293367725762336900 ) ) ;
#21 = CC_DESIGN_SECURITY_CLASSIFICATION ( #59, ( #62 ) ) ;
#22 = ORGANIZATION ( 'UNSPECIFIED', 'UNSPECIFIED', '' ) ;
#23 = ORIENTED_EDGE ( 'NONE', *, *, #151, .F. ) ;
#24 = DIRECTION ( 'NONE',  ( 1.000000000000000000, 0.0000000000000000000, 0.0000000000000000000 ) ) ;
#25 = DIRECTION ( 'NONE',  ( 0.0000000000000000000, 0.0000000000000000000, 1.000000000000000000 ) ) ;
#26 = CC_DESIGN_PERSON_AND_ORGANIZATION_ASSIGNMENT ( #200, #107, ( #59 ) ) ;
#27 = CARTESIAN_POINT ( 'NONE',  ( 8.514588258941381900, 12.85235230930901600, -0.2625190314749919500 ) ) ;
#28 = DIRECTION ( 'NONE',  ( 0.0000000000000000000, 0.0000000000000000000, 1.000000000000000000 ) ) ;
#29 = CARTESIAN_POINT ( 'NONE',  ( 8.519951208554511300, 4.285466302655673400, 0.0007836531240850026200 ) ) ;
#30 = APPROVAL ( #172, 'UNSPECIFIED' ) ;
#31 = PERSON_AND_ORGANIZATION_ROLE ( 'design_owner' ) ;
#32 = CARTESIAN_POINT ( 'NONE',  ( 12.77818767393037400, -4.285466302655870600, -0.1293367725762617200 ) ) ;
#33 = CARTESIAN_POINT ( 'NONE',  ( 6.057685388804582300E-014, -12.70000000000080900, -0.1928367033160400500 ) ) ;
#34 = CARTESIAN_POINT ( 'NONE',  ( -5.684341886080800200E-014, -1.989519660128280000E-013, -418.3000000000000100 ) ) ;
#35 = APPROVAL_PERSON_ORGANIZATION ( #96, #149, #46 ) ;
#36 = APPROVAL_PERSON_ORGANIZATION ( #126, #30, #138 ) ;
#37 = ORIENTED_EDGE ( 'NONE', *, *, #148, .F. ) ;
#38 = VERTEX_POINT ( 'NONE', #33 ) ;
#39 = PRODUCT_RELATED_PRODUCT_CATEGORY ( 'detail', '', ( #184 ) ) ;
#40 = CARTESIAN_POINT ( 'NONE',  ( -8.519951208554351400, -4.285466302655869700, 0.0007836531241031902200 ) ) ;
#41 = DIRECTION ( 'NONE',  ( -0.0000000000000000000, -0.0000000000000000000, -1.000000000000000000 ) ) ;
#42 = UNCERTAINTY_MEASURE_WITH_UNIT (LENGTH_MEASURE( 1.000000000000000100E-005 ), #111, 'distance_accuracy_value', 'NONE');
#43 = DIRECTION ( 'NONE',  ( 0.0000000000000000000, 0.0000000000000000000, 1.000000000000000000 ) ) ;
#44 = DATE_AND_TIME ( #81, #133 ) ;
#45 = CIRCLE ( 'NONE', #2, 418.3000000000000100 ) ;
#46 = APPROVAL_ROLE ( '' ) ;
#47 = PERSON_AND_ORGANIZATION_ROLE ( 'creator' ) ;
#48 = LOCAL_TIME ( 10, 56, 15.00000000000000000, #74 ) ;
#49 = APPROVAL_ROLE ( '' ) ;
#50 = ORIENTED_EDGE ( 'NONE', *, *, #156, .F. ) ;
#51 = APPLICATION_PROTOCOL_DEFINITION ( 'international standard', 'config_control_design', 1994, #142 ) ;
#52 = AXIS2_PLACEMENT_3D ( 'NONE', #227, #183, #122 ) ;
#53 = ORIENTED_EDGE ( 'NONE', *, *, #176, .F. ) ;
#54 = PRODUCT_DEFINITION_SHAPE ( 'NONE', 'NONE',  #194 ) ;
#55 = CARTESIAN_POINT ( 'NONE',  ( -8.514588258941222100, 12.85235230930901600, -0.2625190314749696300 ) ) ;
#56 = DIRECTION ( 'NONE',  ( 1.000000000000000000, 7.803724544329299600E-032, -2.808377446179599900E-016 ) ) ;
#57 = EDGE_LOOP ( 'NONE', ( #53, #4 ) ) ;
#58 = CARTESIAN_POINT ( 'NONE',  ( -4.257542438048023600, 12.85235230930901600, -0.1974921862851909700 ) ) ;
#59 = SECURITY_CLASSIFICATION ( '', '', #189 ) ;
#60 = CIRCLE ( 'NONE', #16, 12.69999999999999900 ) ;
#61 = CARTESIAN_POINT ( 'NONE',  ( -4.163336342344337000E-014, -4.285466302655870600, 0.06585145574877428200 ) ) ;
#62 = PRODUCT_DEFINITION_FORMATION_WITH_SPECIFIED_SOURCE ( 'ANY', '', #184, .NOT_KNOWN. ) ;
#63 = CYLINDRICAL_SURFACE ( 'NONE', #106, 12.69999999999999900 ) ;
#64 = CARTESIAN_POINT ( 'NONE',  ( 6.057685388804582300E-014, 12.70000000000061400, -0.1928367033160400500 ) ) ;
#65 = CIRCLE ( 'NONE', #110, 12.69999999999999900 ) ;
#66 = AXIS2_PLACEMENT_3D ( 'NONE', #136, #41, #86 ) ;
#67 = CC_DESIGN_DATE_AND_TIME_ASSIGNMENT ( #44, #158, ( #59 ) ) ;
#68 = PERSON_AND_ORGANIZATION ( #182, #22 ) ;
#69 = PERSON_AND_ORGANIZATION_ROLE ( 'design_supplier' ) ;
#70 = CARTESIAN_POINT ( 'NONE',  ( 0.0000000000000000000, 0.0000000000000000000, 0.0000000000000000000 ) ) ;
#71 = CARTESIAN_POINT ( 'NONE',  ( 6.057554645270864300E-014, 12.85235230930901400, -0.1974921862852308000 ) ) ;
#72 = EDGE_CURVE ( 'NONE', #179, #135, #150, .T. ) ;
#73 = VERTEX_POINT ( 'NONE', #75 ) ;
#74 = COORDINATED_UNIVERSAL_TIME_OFFSET ( 2, 0, .AHEAD. ) ;
#75 = CARTESIAN_POINT ( 'NONE',  ( -12.69999999999999900, 3.997792089092478900E-015, 2.799999999999999800 ) ) ;
#76 = ORIENTED_EDGE ( 'NONE', *, *, #156, .T. ) ;
#77 = CARTESIAN_POINT ( 'NONE',  ( -4.260224069252804400, 4.285466302655673400, 0.06585145574877854200 ) ) ;
#78 = APPROVAL ( #195, 'UNSPECIFIED' ) ;
#79 = AXIS2_PLACEMENT_3D ( 'NONE', #225, #169, #171 ) ;
#80 = CARTESIAN_POINT ( 'NONE',  ( -3.989863994746656300E-014, -12.85235230930921100, -0.1974921862851911300 ) ) ;
#81 = CALENDAR_DATE ( 2019, 18, 1 ) ;
#82 =( BOUNDED_SURFACE ( )  B_SPLINE_SURFACE ( 3, 3, ( 
 ( #199, #55, #58, #98 ),
 ( #130, #219, #77, #205 ),
 ( #20, #40, #102, #61 ),
 ( #181, #221, #3, #80 ) ),
 .UNSPECIFIED., .F., .F., .F. ) 
 B_SPLINE_SURFACE_WITH_KNOTS ( ( 4, 4 ),
 ( 4, 4 ),
 ( 0.0000000000000000000, 1.000000000000000000 ),
 ( 0.0000000000000000000, 1.000000000000000000 ),
 .UNSPECIFIED. ) 
 GEOMETRIC_REPRESENTATION_ITEM ( )  RATIONAL_B_SPLINE_SURFACE ( (
 ( 1.000000000000000000, 0.9999222372746698900, 0.9999222372746698900, 1.000000000000000000),
 ( 0.9996852463363051800, 0.9996075080870777700, 0.9996075080870777700, 0.9996852463363051800),
 ( 0.9996852463363051800, 0.9996075080870777700, 0.9996075080870777700, 0.9996852463363051800),
 ( 1.000000000000000000, 0.9999222372746698900, 0.9999222372746698900, 1.000000000000000000) ) ) 
 REPRESENTATION_ITEM ( '' )  SURFACE ( )  );
#83 = ORIENTED_EDGE ( 'NONE', *, *, #176, .T. ) ;
#84 = DIRECTION ( 'NONE',  ( 0.0000000000000000000, 0.0000000000000000000, 1.000000000000000000 ) ) ;
#85 = EDGE_LOOP ( 'NONE', ( #198, #166, #76, #206, #186 ) ) ;
#86 = DIRECTION ( 'NONE',  ( 1.000000000000000000, 0.0000000000000000000, 0.0000000000000000000 ) ) ;
#87 = CARTESIAN_POINT ( 'NONE',  ( 12.77014434422519600, -12.85235230930921100, -0.3925575518604342800 ) ) ;
#88 = CARTESIAN_POINT ( 'NONE',  ( 6.064950328719696100E-014, 4.285466302655672500, 0.06585145574873872700 ) ) ;
#89 = PERSON_AND_ORGANIZATION ( #182, #22 ) ;
#90 = LINE ( 'NONE', #222, #112 ) ;
#91 = CARTESIAN_POINT ( 'NONE',  ( 8.519951208554511300, -4.285466302655869700, 0.0007836531240808285500 ) ) ;
#92 = EDGE_CURVE ( 'NONE', #179, #134, #201, .T. ) ;
#93 = CC_DESIGN_APPROVAL ( #78, ( #59 ) ) ;
#94 = CARTESIAN_POINT ( 'NONE',  ( -12.69999999999999900, 3.997792089092478900E-015, -0.1928367033160340000 ) ) ;
#95 = COORDINATED_UNIVERSAL_TIME_OFFSET ( 2, 0, .AHEAD. ) ;
#96 = PERSON_AND_ORGANIZATION ( #182, #22 ) ;
#97 = ORIENTED_EDGE ( 'NONE', *, *, #92, .F. ) ;
#98 = CARTESIAN_POINT ( 'NONE',  ( -3.989863994746656300E-014, 12.85235230930901400, -0.1974921862851911300 ) ) ;
#99 = DESIGN_CONTEXT ( 'detailed design', #9, 'design' ) ;
#100 = LOCAL_TIME ( 10, 56, 15.00000000000000000, #95 ) ;
#101 = CYLINDRICAL_SURFACE ( 'NONE', #79, 12.69999999999999900 ) ;
#102 = CARTESIAN_POINT ( 'NONE',  ( -4.260224069252804400, -4.285466302655869700, 0.06585145574877442100 ) ) ;
#103 = DATE_AND_TIME ( #145, #165 ) ;
#104 = CIRCLE ( 'NONE', #52, 12.69999999999999900 ) ;
#105 = ADVANCED_FACE ( 'NONE', ( #161 ), #214, .T. ) ;
#106 = AXIS2_PLACEMENT_3D ( 'NONE', #7, #25, #154 ) ;
#107 = PERSON_AND_ORGANIZATION_ROLE ( 'classification_officer' ) ;
#108 = ORIENTED_EDGE ( 'NONE', *, *, #203, .F. ) ;
#109 = CARTESIAN_POINT ( 'NONE',  ( 8.514588258941381900, -12.85235230930921400, -0.2625190314749919500 ) ) ;
#110 = AXIS2_PLACEMENT_3D ( 'NONE', #188, #84, #155 ) ;
#111 =( LENGTH_UNIT ( ) NAMED_UNIT ( * ) SI_UNIT ( .MILLI., .METRE. ) );
#112 = VECTOR ( 'NONE', #43, 1000.000000000000000 ) ;
#113 = CARTESIAN_POINT ( 'NONE',  ( 0.0000000000000000000, 26.11199999999999800, 2.799999999999999800 ) ) ;
#114 = CARTESIAN_POINT ( 'NONE',  ( 12.69999999999999900, 2.442490654175340100E-015, -0.1928367033160340000 ) ) ;
#115 = DIRECTION ( 'NONE',  ( 1.000000000000000000, 0.0000000000000000000, 0.0000000000000000000 ) ) ;
#116 = PERSON_AND_ORGANIZATION ( #182, #22 ) ;
#117 = VECTOR ( 'NONE', #215, 1000.000000000000000 ) ;
#118 = EDGE_CURVE ( 'NONE', #134, #38, #45, .T. ) ;
#119 = CC_DESIGN_APPROVAL ( #30, ( #62 ) ) ;
#120 = APPROVAL_DATE_TIME ( #235, #30 ) ;
#121 = ADVANCED_FACE ( 'NONE', ( #13 ), #82, .F. ) ;
#122 = DIRECTION ( 'NONE',  ( 1.000000000000000000, 0.0000000000000000000, 0.0000000000000000000 ) ) ;
#123 = SHAPE_DEFINITION_REPRESENTATION ( #54, #217 ) ;
#124 = CC_DESIGN_APPROVAL ( #149, ( #194 ) ) ;
#125 =( NAMED_UNIT ( * ) SI_UNIT ( $, .STERADIAN. ) SOLID_ANGLE_UNIT ( ) );
#126 = PERSON_AND_ORGANIZATION ( #182, #22 ) ;
#127 = VERTEX_POINT ( 'NONE', #94 ) ;
#128 = MECHANICAL_CONTEXT ( 'NONE', #142, 'mechanical' ) ;
#129 = CC_DESIGN_PERSON_AND_ORGANIZATION_ASSIGNMENT ( #116, #47, ( #62 ) ) ;
#130 = CARTESIAN_POINT ( 'NONE',  ( -12.77818767393014500, 4.285466302655672500, -0.1293367725762295800 ) ) ;
#131 = CLOSED_SHELL ( 'NONE', ( #121, #187, #224, #185, #105 ) ) ;
#132 = AXIS2_PLACEMENT_3D ( 'NONE', #6, #228, #24 ) ;
#133 = LOCAL_TIME ( 10, 56, 15.00000000000000000, #152 ) ;
#134 = VERTEX_POINT ( 'NONE', #64 ) ;
#135 = VERTEX_POINT ( 'NONE', #204 ) ;
#136 = CARTESIAN_POINT ( 'NONE',  ( 4.996003610813200500E-016, 2.442490654175340100E-015, 2.799999999999999800 ) ) ;
#137 = CIRCLE ( 'NONE', #66, 12.69999999999999900 ) ;
#138 = APPROVAL_ROLE ( '' ) ;
#139 = CARTESIAN_POINT ( 'NONE',  ( 4.257542438048114200, 12.85235230930901600, -0.1974921862852319900 ) ) ;
#140 = EDGE_LOOP ( 'NONE', ( #147, #97, #37 ) ) ;
#141 = CARTESIAN_POINT ( 'NONE',  ( 4.257542438048114200, -12.85235230930921400, -0.1974921862852319900 ) ) ;
#142 = APPLICATION_CONTEXT ( 'configuration controlled 3d designs of mechanical parts and assemblies' ) ;
#143 = FACE_OUTER_BOUND ( 'NONE', #140, .T. ) ;
#144 = CARTESIAN_POINT ( 'NONE',  ( 4.996003610813200500E-016, 2.442490654175340100E-015, -0.1928367033160340000 ) ) ;
#145 = CALENDAR_DATE ( 2019, 18, 1 ) ;
#146 = CC_DESIGN_PERSON_AND_ORGANIZATION_ASSIGNMENT ( #89, #211, ( #194 ) ) ;
#147 = ORIENTED_EDGE ( 'NONE', *, *, #118, .F. ) ;
#148 = EDGE_CURVE ( 'NONE', #38, #179, #65, .T. ) ;
#149 = APPROVAL ( #174, 'UNSPECIFIED' ) ;
#150 = LINE ( 'NONE', #114, #117 ) ;
#151 = EDGE_CURVE ( 'NONE', #134, #127, #153, .T. ) ;
#152 = COORDINATED_UNIVERSAL_TIME_OFFSET ( 2, 0, .AHEAD. ) ;
#153 = CIRCLE ( 'NONE', #132, 12.69999999999999900 ) ;
#154 = DIRECTION ( 'NONE',  ( 1.000000000000000000, 0.0000000000000000000, 0.0000000000000000000 ) ) ;
#155 = DIRECTION ( 'NONE',  ( 1.000000000000000000, 0.0000000000000000000, 0.0000000000000000000 ) ) ;
#156 = EDGE_CURVE ( 'NONE', #127, #73, #90, .T. ) ;
#157 = CALENDAR_DATE ( 2019, 18, 1 ) ;
#158 = DATE_TIME_ROLE ( 'classification_date' ) ;
#159 = CARTESIAN_POINT ( 'NONE',  ( 4.996003610813200500E-016, 2.442490654175340100E-015, -0.1928367033160340000 ) ) ;
#160 = CARTESIAN_POINT ( 'NONE',  ( 4.260224069252893200, -4.285466302655869700, 0.06585145574873337000 ) ) ;
#161 = FACE_OUTER_BOUND ( 'NONE', #57, .T. ) ;
#162 = EDGE_CURVE ( 'NONE', #73, #135, #104, .T. ) ;
#163 = DIRECTION ( 'NONE',  ( 1.000000000000000000, 0.0000000000000000000, -0.0000000000000000000 ) ) ;
#164 = CC_DESIGN_PERSON_AND_ORGANIZATION_ASSIGNMENT ( #11, #69, ( #62 ) ) ;
#165 = LOCAL_TIME ( 10, 56, 15.00000000000000000, #220 ) ;
#166 = ORIENTED_EDGE ( 'NONE', *, *, #151, .T. ) ;
#167 = AXIS2_PLACEMENT_3D ( 'NONE', #70, #28, #232 ) ;
#168 = ORIENTED_EDGE ( 'NONE', *, *, #118, .T. ) ;
#169 = DIRECTION ( 'NONE',  ( 0.0000000000000000000, 0.0000000000000000000, 1.000000000000000000 ) ) ;
#170 = MANIFOLD_SOLID_BREP ( 'Imported1', #131 ) ;
#171 = DIRECTION ( 'NONE',  ( 1.000000000000000000, 0.0000000000000000000, 0.0000000000000000000 ) ) ;
#172 = APPROVAL_STATUS ( 'not_yet_approved' ) ;
#173 = DIRECTION ( 'NONE',  ( 0.0000000000000000000, 0.0000000000000000000, 1.000000000000000000 ) ) ;
#174 = APPROVAL_STATUS ( 'not_yet_approved' ) ;
#175 =( BOUNDED_SURFACE ( )  B_SPLINE_SURFACE ( 3, 3, ( 
 ( #71, #139, #27, #193 ),
 ( #88, #10, #29, #209 ),
 ( #12, #160, #91, #32 ),
 ( #210, #141, #109, #87 ) ),
 .UNSPECIFIED., .F., .F., .F. ) 
 B_SPLINE_SURFACE_WITH_KNOTS ( ( 4, 4 ),
 ( 4, 4 ),
 ( 0.0000000000000000000, 1.000000000000000000 ),
 ( 0.0000000000000000000, 1.000000000000000000 ),
 .UNSPECIFIED. ) 
 GEOMETRIC_REPRESENTATION_ITEM ( )  RATIONAL_B_SPLINE_SURFACE ( (
 ( 1.000000000000000000, 0.9999222372746698900, 0.9999222372746698900, 1.000000000000000000),
 ( 0.9996852463363051800, 0.9996075080870777700, 0.9996075080870777700, 0.9996852463363051800),
 ( 0.9996852463363051800, 0.9996075080870777700, 0.9996075080870777700, 0.9996852463363051800),
 ( 1.000000000000000000, 0.9999222372746698900, 0.9999222372746698900, 1.000000000000000000) ) ) 
 REPRESENTATION_ITEM ( '' )  SURFACE ( )  );
#176 = EDGE_CURVE ( 'NONE', #135, #73, #137, .T. ) ;
#177 = APPROVAL_PERSON_ORGANIZATION ( #68, #78, #49 ) ;
#178 = CALENDAR_DATE ( 2019, 18, 1 ) ;
#179 = VERTEX_POINT ( 'NONE', #5 ) ;
#180 = AXIS2_PLACEMENT_3D ( 'NONE', #113, #233, #163 ) ;
#181 = CARTESIAN_POINT ( 'NONE',  ( -12.77014434422496700, -12.85235230930921100, -0.3925575518604063100 ) ) ;
#182 = PERSON ( 'UNSPECIFIED', 'UNSPECIFIED', 'UNSPECIFIED', ('UNSPECIFIED'), ('UNSPECIFIED'), ('UNSPECIFIED') ) ;
#183 = DIRECTION ( 'NONE',  ( -0.0000000000000000000, -0.0000000000000000000, -1.000000000000000000 ) ) ;
#184 = PRODUCT ( '112-5235E CaF2 pl-cv 12.7 F-1000', '112-5235E CaF2 pl-cv 12.7 F-1000', '', ( #128 ) ) ;
#185 = ADVANCED_FACE ( 'NONE', ( #1 ), #101, .T. ) ;
#186 = ORIENTED_EDGE ( 'NONE', *, *, #72, .F. ) ;
#187 = ADVANCED_FACE ( 'NONE', ( #197 ), #63, .T. ) ;
#188 = CARTESIAN_POINT ( 'NONE',  ( 4.996003610813200500E-016, 2.442490654175340100E-015, -0.1928367033160340000 ) ) ;
#189 = SECURITY_CLASSIFICATION_LEVEL ( 'unclassified' ) ;
#190 = APPROVAL_DATE_TIME ( #234, #78 ) ;
#191 = COORDINATED_UNIVERSAL_TIME_OFFSET ( 2, 0, .AHEAD. ) ;
#192 = EDGE_LOOP ( 'NONE', ( #50, #218, #231, #18, #83 ) ) ;
#193 = CARTESIAN_POINT ( 'NONE',  ( 12.77014434422519600, 12.85235230930901400, -0.3925575518604342800 ) ) ;
#194 = PRODUCT_DEFINITION ( 'UNKNOWN', '', #62, #99 ) ;
#195 = APPROVAL_STATUS ( 'not_yet_approved' ) ;
#196 = APPLICATION_PROTOCOL_DEFINITION ( 'international standard', 'config_control_design', 1994, #9 ) ;
#197 = FACE_OUTER_BOUND ( 'NONE', #85, .T. ) ;
#198 = ORIENTED_EDGE ( 'NONE', *, *, #92, .T. ) ;
#199 = CARTESIAN_POINT ( 'NONE',  ( -12.77014434422496700, 12.85235230930901400, -0.3925575518604063100 ) ) ;
#200 = PERSON_AND_ORGANIZATION ( #182, #22 ) ;
#201 = CIRCLE ( 'NONE', #216, 12.69999999999999900 ) ;
#202 = DIRECTION ( 'NONE',  ( 0.0000000000000000000, 1.000000000000000000, 2.654131065324304400E-016 ) ) ;
#203 = EDGE_CURVE ( 'NONE', #127, #38, #60, .T. ) ;
#204 = CARTESIAN_POINT ( 'NONE',  ( 12.69999999999999900, 2.442490654175340100E-015, 2.799999999999999800 ) ) ;
#205 = CARTESIAN_POINT ( 'NONE',  ( -4.163336342344337000E-014, 4.285466302655672500, 0.06585145574877839000 ) ) ;
#206 = ORIENTED_EDGE ( 'NONE', *, *, #162, .T. ) ;
#207 = APPROVAL_DATE_TIME ( #212, #149 ) ;
#208 = DATE_TIME_ROLE ( 'creation_date' ) ;
#209 = CARTESIAN_POINT ( 'NONE',  ( 12.77818767393037400, 4.285466302655672500, -0.1293367725762575300 ) ) ;
#210 = CARTESIAN_POINT ( 'NONE',  ( 6.057554645270864300E-014, -12.85235230930921100, -0.1974921862852308000 ) ) ;
#211 = PERSON_AND_ORGANIZATION_ROLE ( 'creator' ) ;
#212 = DATE_AND_TIME ( #178, #48 ) ;
#213 = EDGE_LOOP ( 'NONE', ( #23, #168, #108 ) ) ;
#214 = PLANE ( 'NONE',  #180 ) ;
#215 = DIRECTION ( 'NONE',  ( 0.0000000000000000000, 0.0000000000000000000, 1.000000000000000000 ) ) ;
#216 = AXIS2_PLACEMENT_3D ( 'NONE', #144, #17, #115 ) ;
#217 = ADVANCED_BREP_SHAPE_REPRESENTATION ( '112-5235E CaF2 pl-cv 12.7 F-1000', ( #170, #167 ), #226 ) ;
#218 = ORIENTED_EDGE ( 'NONE', *, *, #203, .T. ) ;
#219 = CARTESIAN_POINT ( 'NONE',  ( -8.519951208554351400, 4.285466302655673400, 0.0007836531241073101900 ) ) ;
#220 = COORDINATED_UNIVERSAL_TIME_OFFSET ( 2, 0, .AHEAD. ) ;
#221 = CARTESIAN_POINT ( 'NONE',  ( -8.514588258941222100, -12.85235230930921400, -0.2625190314749696300 ) ) ;
#222 = CARTESIAN_POINT ( 'NONE',  ( -12.69999999999999900, 3.997792089092478900E-015, -0.1928367033160340000 ) ) ;
#223 = LOCAL_TIME ( 10, 56, 15.00000000000000000, #191 ) ;
#224 = ADVANCED_FACE ( 'NONE', ( #143 ), #175, .F. ) ;
#225 = CARTESIAN_POINT ( 'NONE',  ( 4.996003610813200500E-016, 2.442490654175340100E-015, -0.1928367033160340000 ) ) ;
#226 =( GEOMETRIC_REPRESENTATION_CONTEXT ( 3 ) GLOBAL_UNCERTAINTY_ASSIGNED_CONTEXT ( ( #42 ) ) GLOBAL_UNIT_ASSIGNED_CONTEXT ( ( #111, #230, #125 ) ) REPRESENTATION_CONTEXT ( 'NONE', 'WORKASPACE' ) );
#227 = CARTESIAN_POINT ( 'NONE',  ( 4.996003610813200500E-016, 2.442490654175340100E-015, 2.799999999999999800 ) ) ;
#228 = DIRECTION ( 'NONE',  ( 0.0000000000000000000, 0.0000000000000000000, 1.000000000000000000 ) ) ;
#229 = DIRECTION ( 'NONE',  ( 1.000000000000000000, 0.0000000000000000000, 0.0000000000000000000 ) ) ;
#230 =( NAMED_UNIT ( * ) PLANE_ANGLE_UNIT ( ) SI_UNIT ( $, .RADIAN. ) );
#231 = ORIENTED_EDGE ( 'NONE', *, *, #148, .T. ) ;
#232 = DIRECTION ( 'NONE',  ( 1.000000000000000000, 0.0000000000000000000, 0.0000000000000000000 ) ) ;
#233 = DIRECTION ( 'NONE',  ( 0.0000000000000000000, 0.0000000000000000000, 1.000000000000000000 ) ) ;
#234 = DATE_AND_TIME ( #157, #100 ) ;
#235 = DATE_AND_TIME ( #15, #223 ) ;
ENDSEC;
END-ISO-10303-21;
