ISO-10303-21;
HEADER;
FILE_DESCRIPTION (( 'STEP AP203' ),
    '1' );
FILE_NAME ('112-5230E CaF2 pl-cv 12.7 F-500.STEP',
    '2019-01-18T08:49:41',
    ( '' ),
    ( '' ),
    'SwSTEP 2.0',
    'SolidWorks 2017',
    '' );
FILE_SCHEMA (( 'CONFIG_CONTROL_DESIGN' ));
ENDSEC;

DATA;
#1 = ORGANIZATION ( 'UNSPECIFIED', 'UNSPECIFIED', '' ) ;
#2 = VERTEX_POINT ( 'NONE', #56 ) ;
#3 = EDGE_CURVE ( 'NONE', #14, #2, #129, .T. ) ;
#4 = DATE_AND_TIME ( #104, #151 ) ;
#5 = CIRCLE ( 'NONE', #153, 12.69999999999999900 ) ;
#6 = DIRECTION ( 'NONE',  ( 1.000000000000000000, 0.0000000000000000000, -0.0000000000000000000 ) ) ;
#7 = DIRECTION ( 'NONE',  ( 1.000000000000000000, 0.0000000000000000000, 0.0000000000000000000 ) ) ;
#8 = PERSON_AND_ORGANIZATION ( #57, #1 ) ;
#9 = CARTESIAN_POINT ( 'NONE',  ( 12.78416751089367400, 4.289476457133230400, -0.2589746101539819900 ) ) ;
#10 = DIRECTION ( 'NONE',  ( 0.0000000000000000000, 0.0000000000000000000, 1.000000000000000000 ) ) ;
#11 = CARTESIAN_POINT ( 'NONE',  ( -8.505935664996389500, 12.85220893490430400, -0.5253707351734235900 ) ) ;
#12 = CARTESIAN_POINT ( 'NONE',  ( 4.996003610813200500E-016, 2.442490654175340100E-015, -0.3860330500136340800 ) ) ;
#13 = DATE_AND_TIME ( #55, #159 ) ;
#14 = VERTEX_POINT ( 'NONE', #227 ) ;
#15 = APPROVAL_STATUS ( 'not_yet_approved' ) ;
#16 =( LENGTH_UNIT ( ) NAMED_UNIT ( * ) SI_UNIT ( .MILLI., .METRE. ) );
#17 = CARTESIAN_POINT ( 'NONE',  ( -5.204170427930421300E-015, -12.85220893490434000, -0.3953504938292744500 ) ) ;
#18 = EDGE_CURVE ( 'NONE', #220, #152, #87, .T. ) ;
#19 = CARTESIAN_POINT ( 'NONE',  ( -5.204170427930421300E-015, 4.289476457133229600, 0.1319498184464480400 ) ) ;
#20 = APPROVAL_PERSON_ORGANIZATION ( #167, #94, #66 ) ;
#21 = ORIENTED_EDGE ( 'NONE', *, *, #39, .T. ) ;
#22 = LOCAL_TIME ( 10, 49, 41.00000000000000000, #63 ) ;
#23 = VERTEX_POINT ( 'NONE', #169 ) ;
#24 = DIRECTION ( 'NONE',  ( 0.0000000000000000000, 0.0000000000000000000, 1.000000000000000000 ) ) ;
#25 = EDGE_CURVE ( 'NONE', #23, #2, #37, .T. ) ;
#26 = DIRECTION ( 'NONE',  ( 0.0000000000000000000, 0.0000000000000000000, 1.000000000000000000 ) ) ;
#27 = CARTESIAN_POINT ( 'NONE',  ( 4.263256414560599900E-014, -12.85220893490434000, -0.3953504938292717900 ) ) ;
#28 = PERSON_AND_ORGANIZATION ( #57, #1 ) ;
#29 = CARTESIAN_POINT ( 'NONE',  ( 4.263256414560599900E-014, 12.85220893490430200, -0.3953504938292995400 ) ) ;
#30 = ORIENTED_EDGE ( 'NONE', *, *, #3, .F. ) ;
#31 = EDGE_CURVE ( 'NONE', #187, #220, #71, .T. ) ;
#32 = CARTESIAN_POINT ( 'NONE',  ( -12.78416751089377700, -4.289476457133266900, -0.2589746101539717200 ) ) ;
#33 =( NAMED_UNIT ( * ) PLANE_ANGLE_UNIT ( ) SI_UNIT ( $, .RADIAN. ) );
#34 = APPROVAL_STATUS ( 'not_yet_approved' ) ;
#35 = MANIFOLD_SOLID_BREP ( 'Imported1', #226 ) ;
#36 = CC_DESIGN_PERSON_AND_ORGANIZATION_ASSIGNMENT ( #184, #218, ( #102 ) ) ;
#37 = LINE ( 'NONE', #96, #53 ) ;
#38 = EDGE_LOOP ( 'NONE', ( #146, #133, #84, #188, #72 ) ) ;
#39 = EDGE_CURVE ( 'NONE', #23, #220, #5, .T. ) ;
#40 = DIRECTION ( 'NONE',  ( -0.0000000000000000000, -0.0000000000000000000, -1.000000000000000000 ) ) ;
#41 = FACE_OUTER_BOUND ( 'NONE', #193, .T. ) ;
#42 = AXIS2_PLACEMENT_3D ( 'NONE', #235, #106, #83 ) ;
#43 = CIRCLE ( 'NONE', #42, 12.69999999999999900 ) ;
#44 = CARTESIAN_POINT ( 'NONE',  ( 12.75194922144730300, -12.85220893490434000, -0.7852897259840563300 ) ) ;
#45 = SECURITY_CLASSIFICATION ( '', '', #85 ) ;
#46 = COORDINATED_UNIVERSAL_TIME_OFFSET ( 2, 0, .AHEAD. ) ;
#47 = CARTESIAN_POINT ( 'NONE',  ( 4.263256414560600500E-014, -4.289476457133266900, 0.1319498184464779300 ) ) ;
#48 = PERSON_AND_ORGANIZATION_ROLE ( 'creator' ) ;
#49 = EDGE_LOOP ( 'NONE', ( #142, #105, #207 ) ) ;
#50 = CARTESIAN_POINT ( 'NONE',  ( 0.0000000000000000000, 0.0000000000000000000, 0.0000000000000000000 ) ) ;
#51 = DATE_TIME_ROLE ( 'creation_date' ) ;
#52 = ADVANCED_FACE ( 'NONE', ( #224 ), #154, .T. ) ;
#53 = VECTOR ( 'NONE', #115, 1000.000000000000000 ) ;
#54 = AXIS2_PLACEMENT_3D ( 'NONE', #12, #123, #165 ) ;
#55 = CALENDAR_DATE ( 2019, 18, 1 ) ;
#56 = CARTESIAN_POINT ( 'NONE',  ( -12.69999999999999900, 3.997792089092478900E-015, 2.600000000000000500 ) ) ;
#57 = PERSON ( 'UNSPECIFIED', 'UNSPECIFIED', 'UNSPECIFIED', ('UNSPECIFIED'), ('UNSPECIFIED'), ('UNSPECIFIED') ) ;
#58 = CARTESIAN_POINT ( 'NONE',  ( -5.204170427930421300E-015, 12.85220893490430200, -0.3953504938293023200 ) ) ;
#59 = APPROVAL_DATE_TIME ( #81, #76 ) ;
#60 = CARTESIAN_POINT ( 'NONE',  ( 12.69999999999999900, 2.442490654175340100E-015, -0.3860330500136340800 ) ) ;
#61 = CARTESIAN_POINT ( 'NONE',  ( 4.996003610813200500E-016, 2.442490654175340100E-015, 2.600000000000000500 ) ) ;
#62 = CARTESIAN_POINT ( 'NONE',  ( -4.253961565805442800, 12.85220893490430400, -0.3953504938293032600 ) ) ;
#63 = COORDINATED_UNIVERSAL_TIME_OFFSET ( 2, 0, .AHEAD. ) ;
#64 = ORIENTED_EDGE ( 'NONE', *, *, #25, .F. ) ;
#65 =( GEOMETRIC_REPRESENTATION_CONTEXT ( 3 ) GLOBAL_UNCERTAINTY_ASSIGNED_CONTEXT ( ( #172 ) ) GLOBAL_UNIT_ASSIGNED_CONTEXT ( ( #16, #33, #163 ) ) REPRESENTATION_CONTEXT ( 'NONE', 'WORKASPACE' ) );
#66 = APPROVAL_ROLE ( '' ) ;
#67 = APPROVAL_DATE_TIME ( #225, #94 ) ;
#68 = DIRECTION ( 'NONE',  ( 1.000000000000000000, 0.0000000000000000000, 0.0000000000000000000 ) ) ;
#69 = CC_DESIGN_PERSON_AND_ORGANIZATION_ASSIGNMENT ( #192, #234, ( #45 ) ) ;
#70 = ADVANCED_FACE ( 'NONE', ( #185 ), #197, .T. ) ;
#71 = CIRCLE ( 'NONE', #168, 209.0999999999999900 ) ;
#72 = ORIENTED_EDGE ( 'NONE', *, *, #88, .F. ) ;
#73 = AXIS2_PLACEMENT_3D ( 'NONE', #50, #180, #68 ) ;
#74 = ORIENTED_EDGE ( 'NONE', *, *, #39, .F. ) ;
#75 = CARTESIAN_POINT ( 'NONE',  ( 4.996003610813200500E-016, 2.442490654175340100E-015, 2.600000000000000500 ) ) ;
#76 = APPROVAL ( #34, 'UNSPECIFIED' ) ;
#77 = CARTESIAN_POINT ( 'NONE',  ( 8.505935664996332700, -12.85220893490434300, -0.5253707351733857300 ) ) ;
#78 = CARTESIAN_POINT ( 'NONE',  ( 4.253961565805433900, 12.85220893490430400, -0.3953504938292995400 ) ) ;
#79 = CARTESIAN_POINT ( 'NONE',  ( -12.75194922144740400, 12.85220893490430200, -0.7852897259841007400 ) ) ;
#80 = CC_DESIGN_DATE_AND_TIME_ASSIGNMENT ( #120, #122, ( #45 ) ) ;
#81 = DATE_AND_TIME ( #156, #22 ) ;
#82 = PERSON_AND_ORGANIZATION_ROLE ( 'creator' ) ;
#83 = DIRECTION ( 'NONE',  ( 1.000000000000000000, 0.0000000000000000000, 0.0000000000000000000 ) ) ;
#84 = ORIENTED_EDGE ( 'NONE', *, *, #25, .T. ) ;
#85 = SECURITY_CLASSIFICATION_LEVEL ( 'unclassified' ) ;
#86 = PRODUCT_DEFINITION_FORMATION_WITH_SPECIFIED_SOURCE ( 'ANY', '', #102, .NOT_KNOWN. ) ;
#87 = CIRCLE ( 'NONE', #212, 12.69999999999999900 ) ;
#88 = EDGE_CURVE ( 'NONE', #152, #14, #121, .T. ) ;
#89 = ADVANCED_FACE ( 'NONE', ( #149 ), #134, .F. ) ;
#90 = CC_DESIGN_APPROVAL ( #94, ( #86 ) ) ;
#91 = ADVANCED_BREP_SHAPE_REPRESENTATION ( '112-5230E CaF2 pl-cv 12.7 F-500', ( #35, #73 ), #65 ) ;
#92 = PERSON_AND_ORGANIZATION ( #57, #1 ) ;
#93 = EDGE_LOOP ( 'NONE', ( #30, #161 ) ) ;
#94 = APPROVAL ( #103, 'UNSPECIFIED' ) ;
#95 = CYLINDRICAL_SURFACE ( 'NONE', #200, 12.69999999999999900 ) ;
#96 = CARTESIAN_POINT ( 'NONE',  ( -12.69999999999999900, 3.997792089092478900E-015, -0.3860330500136340800 ) ) ;
#97 = DIRECTION ( 'NONE',  ( 0.0000000000000000000, 0.0000000000000000000, 1.000000000000000000 ) ) ;
#98 = APPROVAL ( #15, 'UNSPECIFIED' ) ;
#99 = CARTESIAN_POINT ( 'NONE',  ( 4.263256414560599900E-014, -2.842170943040400100E-014, -209.0999999999999900 ) ) ;
#100 = COORDINATED_UNIVERSAL_TIME_OFFSET ( 2, 0, .AHEAD. ) ;
#101 = CARTESIAN_POINT ( 'NONE',  ( 8.527426238124252900, 4.289476457133230400, 0.001601075969155988100 ) ) ;
#102 = PRODUCT ( '112-5230E CaF2 pl-cv 12.7 F-500', '112-5230E CaF2 pl-cv 12.7 F-500', '', ( #183 ) ) ;
#103 = APPROVAL_STATUS ( 'not_yet_approved' ) ;
#104 = CALENDAR_DATE ( 2019, 18, 1 ) ;
#105 = ORIENTED_EDGE ( 'NONE', *, *, #204, .F. ) ;
#106 = DIRECTION ( 'NONE',  ( 0.0000000000000000000, 0.0000000000000000000, 1.000000000000000000 ) ) ;
#107 = APPLICATION_PROTOCOL_DEFINITION ( 'international standard', 'config_control_design', 1994, #127 ) ;
#108 = CARTESIAN_POINT ( 'NONE',  ( -8.527426238124313300, 4.289476457133230400, 0.001601075969145796800 ) ) ;
#109 = ADVANCED_FACE ( 'NONE', ( #112 ), #95, .T. ) ;
#110 = AXIS2_PLACEMENT_3D ( 'NONE', #117, #26, #174 ) ;
#111 = APPROVAL_PERSON_ORGANIZATION ( #92, #98, #179 ) ;
#112 = FACE_OUTER_BOUND ( 'NONE', #38, .T. ) ;
#113 = DESIGN_CONTEXT ( 'detailed design', #127, 'design' ) ;
#114 = DIRECTION ( 'NONE',  ( 0.0000000000000000000, 0.0000000000000000000, 1.000000000000000000 ) ) ;
#115 = DIRECTION ( 'NONE',  ( 0.0000000000000000000, 0.0000000000000000000, 1.000000000000000000 ) ) ;
#116 = CARTESIAN_POINT ( 'NONE',  ( 4.263256414560600500E-014, 4.289476457133230400, 0.1319498184464508200 ) ) ;
#117 = CARTESIAN_POINT ( 'NONE',  ( 4.996003610813200500E-016, 2.442490654175340100E-015, -0.3860330500136340800 ) ) ;
#118 = EDGE_CURVE ( 'NONE', #2, #14, #171, .T. ) ;
#119 = DIRECTION ( 'NONE',  ( -0.0000000000000000000, -0.0000000000000000000, -1.000000000000000000 ) ) ;
#120 = DATE_AND_TIME ( #170, #145 ) ;
#121 = LINE ( 'NONE', #60, #217 ) ;
#122 = DATE_TIME_ROLE ( 'classification_date' ) ;
#123 = DIRECTION ( 'NONE',  ( 0.0000000000000000000, 0.0000000000000000000, 1.000000000000000000 ) ) ;
#124 = CARTESIAN_POINT ( 'NONE',  ( -5.204170427930421300E-015, -4.289476457133268600, 0.1319498184464752400 ) ) ;
#125 = CARTESIAN_POINT ( 'NONE',  ( -4.253961565805442800, -12.85220893490434300, -0.3953504938292754000 ) ) ;
#126 = ORIENTED_EDGE ( 'NONE', *, *, #3, .T. ) ;
#127 = APPLICATION_CONTEXT ( 'configuration controlled 3d designs of mechanical parts and assemblies' ) ;
#128 = PRODUCT_DEFINITION ( 'UNKNOWN', '', #86, #113 ) ;
#129 = CIRCLE ( 'NONE', #195, 12.69999999999999900 ) ;
#130 = CC_DESIGN_PERSON_AND_ORGANIZATION_ASSIGNMENT ( #28, #48, ( #86 ) ) ;
#131 = SHAPE_DEFINITION_REPRESENTATION ( #214, #91 ) ;
#132 = CALENDAR_DATE ( 2019, 18, 1 ) ;
#133 = ORIENTED_EDGE ( 'NONE', *, *, #232, .T. ) ;
#134 =( BOUNDED_SURFACE ( )  B_SPLINE_SURFACE ( 3, 3, ( 
 ( #29, #78, #176, #135 ),
 ( #116, #173, #101, #9 ),
 ( #47, #137, #196, #213 ),
 ( #27, #190, #77, #44 ) ),
 .UNSPECIFIED., .F., .F., .F. ) 
 B_SPLINE_SURFACE_WITH_KNOTS ( ( 4, 4 ),
 ( 4, 4 ),
 ( 0.0000000000000000000, 1.000000000000000000 ),
 ( 0.0000000000000000000, 1.000000000000000000 ),
 .UNSPECIFIED. ) 
 GEOMETRIC_REPRESENTATION_ITEM ( )  RATIONAL_B_SPLINE_SURFACE ( (
 ( 1.000000000000000000, 0.9996885308617633500, 0.9996885308617633500, 1.000000000000000000),
 ( 0.9987395169971966500, 0.9984284404605146000, 0.9984284404605146000, 0.9987395169971966500),
 ( 0.9987395169971966500, 0.9984284404605146000, 0.9984284404605146000, 0.9987395169971966500),
 ( 1.000000000000000000, 0.9996885308617633500, 0.9996885308617633500, 1.000000000000000000) ) ) 
 REPRESENTATION_ITEM ( '' )  SURFACE ( )  );
#135 = CARTESIAN_POINT ( 'NONE',  ( 12.75194922144730100, 12.85220893490430200, -0.7852897259840839700 ) ) ;
#136 = CC_DESIGN_PERSON_AND_ORGANIZATION_ASSIGNMENT ( #222, #199, ( #86 ) ) ;
#137 = CARTESIAN_POINT ( 'NONE',  ( 4.264709363074760300, -4.289476457133266900, 0.1319498184464778800 ) ) ;
#138 = CARTESIAN_POINT ( 'NONE',  ( 4.996003610813200500E-016, 2.442490654175340100E-015, -0.3860330500136340800 ) ) ;
#139 = ORIENTED_EDGE ( 'NONE', *, *, #18, .T. ) ;
#140 = DIRECTION ( 'NONE',  ( 0.0000000000000000000, 1.000000000000000000, 7.964297163738569400E-016 ) ) ;
#141 = CARTESIAN_POINT ( 'NONE',  ( -12.75194922144740600, -12.85220893490434000, -0.7852897259840729800 ) ) ;
#142 = ORIENTED_EDGE ( 'NONE', *, *, #31, .F. ) ;
#143 = CARTESIAN_POINT ( 'NONE',  ( -4.264709363074768300, 4.289476457133229600, 0.1319498184464471000 ) ) ;
#144 = CARTESIAN_POINT ( 'NONE',  ( -12.78416751089377500, 4.289476457133230400, -0.2589746101539988600 ) ) ;
#145 = LOCAL_TIME ( 10, 49, 41.00000000000000000, #100 ) ;
#146 = ORIENTED_EDGE ( 'NONE', *, *, #204, .T. ) ;
#147 = ADVANCED_FACE ( 'NONE', ( #41 ), #150, .F. ) ;
#148 = APPROVAL_DATE_TIME ( #4, #98 ) ;
#149 = FACE_OUTER_BOUND ( 'NONE', #49, .T. ) ;
#150 =( BOUNDED_SURFACE ( )  B_SPLINE_SURFACE ( 3, 3, ( 
 ( #79, #11, #62, #58 ),
 ( #144, #108, #143, #19 ),
 ( #32, #164, #198, #124 ),
 ( #141, #216, #125, #17 ) ),
 .UNSPECIFIED., .F., .F., .T. ) 
 B_SPLINE_SURFACE_WITH_KNOTS ( ( 4, 4 ),
 ( 4, 4 ),
 ( 0.0000000000000000000, 1.000000000000000000 ),
 ( 0.0000000000000000000, 1.000000000000000000 ),
 .UNSPECIFIED. ) 
 GEOMETRIC_REPRESENTATION_ITEM ( )  RATIONAL_B_SPLINE_SURFACE ( (
 ( 1.000000000000000000, 0.9996885308617633500, 0.9996885308617633500, 1.000000000000000000),
 ( 0.9987395169971966500, 0.9984284404605146000, 0.9984284404605146000, 0.9987395169971966500),
 ( 0.9987395169971966500, 0.9984284404605146000, 0.9984284404605146000, 0.9987395169971966500),
 ( 1.000000000000000000, 0.9996885308617633500, 0.9996885308617633500, 1.000000000000000000) ) ) 
 REPRESENTATION_ITEM ( '' )  SURFACE ( )  );
#151 = LOCAL_TIME ( 10, 49, 41.00000000000000000, #46 ) ;
#152 = VERTEX_POINT ( 'NONE', #178 ) ;
#153 = AXIS2_PLACEMENT_3D ( 'NONE', #209, #97, #229 ) ;
#154 = PLANE ( 'NONE',  #205 ) ;
#155 = DIRECTION ( 'NONE',  ( 1.000000000000000000, 0.0000000000000000000, 0.0000000000000000000 ) ) ;
#156 = CALENDAR_DATE ( 2019, 18, 1 ) ;
#157 = CC_DESIGN_APPROVAL ( #76, ( #128 ) ) ;
#158 = DIRECTION ( 'NONE',  ( 1.000000000000000000, 0.0000000000000000000, 0.0000000000000000000 ) ) ;
#159 = LOCAL_TIME ( 10, 49, 41.00000000000000000, #215 ) ;
#160 = CARTESIAN_POINT ( 'NONE',  ( 4.263256414560599900E-014, -12.70000000000004200, -0.3860330500136370200 ) ) ;
#161 = ORIENTED_EDGE ( 'NONE', *, *, #118, .F. ) ;
#162 = APPROVAL_ROLE ( '' ) ;
#163 =( NAMED_UNIT ( * ) SI_UNIT ( $, .STERADIAN. ) SOLID_ANGLE_UNIT ( ) );
#164 = CARTESIAN_POINT ( 'NONE',  ( -8.527426238124315100, -4.289476457133266900, 0.001601075969172955800 ) ) ;
#165 = DIRECTION ( 'NONE',  ( 1.000000000000000000, 0.0000000000000000000, 0.0000000000000000000 ) ) ;
#166 = CC_DESIGN_APPROVAL ( #98, ( #45 ) ) ;
#167 = PERSON_AND_ORGANIZATION ( #57, #1 ) ;
#168 = AXIS2_PLACEMENT_3D ( 'NONE', #99, #7, #140 ) ;
#169 = CARTESIAN_POINT ( 'NONE',  ( -12.69999999999999900, 3.997792089092478900E-015, -0.3860330500136340800 ) ) ;
#170 = CALENDAR_DATE ( 2019, 18, 1 ) ;
#171 = CIRCLE ( 'NONE', #189, 12.69999999999999900 ) ;
#172 = UNCERTAINTY_MEASURE_WITH_UNIT (LENGTH_MEASURE( 1.000000000000000100E-005 ), #16, 'distance_accuracy_value', 'NONE');
#173 = CARTESIAN_POINT ( 'NONE',  ( 4.264709363074759500, 4.289476457133230400, 0.1319498184464508200 ) ) ;
#174 = DIRECTION ( 'NONE',  ( 1.000000000000000000, 0.0000000000000000000, 0.0000000000000000000 ) ) ;
#175 = CC_DESIGN_SECURITY_CLASSIFICATION ( #45, ( #86 ) ) ;
#176 = CARTESIAN_POINT ( 'NONE',  ( 8.505935664996330900, 12.85220893490430400, -0.5253707351734134800 ) ) ;
#177 = ORIENTED_EDGE ( 'NONE', *, *, #31, .T. ) ;
#178 = CARTESIAN_POINT ( 'NONE',  ( 12.69999999999999900, 2.442490654175340100E-015, -0.3860330500136340800 ) ) ;
#179 = APPROVAL_ROLE ( '' ) ;
#180 = DIRECTION ( 'NONE',  ( 0.0000000000000000000, 0.0000000000000000000, 1.000000000000000000 ) ) ;
#181 = CIRCLE ( 'NONE', #54, 12.69999999999999900 ) ;
#182 = APPLICATION_PROTOCOL_DEFINITION ( 'international standard', 'config_control_design', 1994, #233 ) ;
#183 = MECHANICAL_CONTEXT ( 'NONE', #233, 'mechanical' ) ;
#184 = PERSON_AND_ORGANIZATION ( #57, #1 ) ;
#185 = FACE_OUTER_BOUND ( 'NONE', #203, .T. ) ;
#186 = PRODUCT_RELATED_PRODUCT_CATEGORY ( 'detail', '', ( #102 ) ) ;
#187 = VERTEX_POINT ( 'NONE', #221 ) ;
#188 = ORIENTED_EDGE ( 'NONE', *, *, #118, .T. ) ;
#189 = AXIS2_PLACEMENT_3D ( 'NONE', #61, #119, #158 ) ;
#190 = CARTESIAN_POINT ( 'NONE',  ( 4.253961565805434800, -12.85220893490434300, -0.3953504938292717900 ) ) ;
#191 = DIRECTION ( 'NONE',  ( 1.000000000000000000, 0.0000000000000000000, 0.0000000000000000000 ) ) ;
#192 = PERSON_AND_ORGANIZATION ( #57, #1 ) ;
#193 = EDGE_LOOP ( 'NONE', ( #223, #177, #74 ) ) ;
#194 = CARTESIAN_POINT ( 'NONE',  ( 4.996003610813200500E-016, 2.442490654175340100E-015, -0.3860330500136340800 ) ) ;
#195 = AXIS2_PLACEMENT_3D ( 'NONE', #75, #40, #208 ) ;
#196 = CARTESIAN_POINT ( 'NONE',  ( 8.527426238124256500, -4.289476457133266900, 0.001601075969183093100 ) ) ;
#197 = CYLINDRICAL_SURFACE ( 'NONE', #110, 12.69999999999999900 ) ;
#198 = CARTESIAN_POINT ( 'NONE',  ( -4.264709363074769200, -4.289476457133267800, 0.1319498184464743000 ) ) ;
#199 = PERSON_AND_ORGANIZATION_ROLE ( 'design_supplier' ) ;
#200 = AXIS2_PLACEMENT_3D ( 'NONE', #194, #231, #191 ) ;
#201 = COORDINATED_UNIVERSAL_TIME_OFFSET ( 2, 0, .AHEAD. ) ;
#202 = LOCAL_TIME ( 10, 49, 41.00000000000000000, #201 ) ;
#203 = EDGE_LOOP ( 'NONE', ( #64, #21, #139, #228, #126 ) ) ;
#204 = EDGE_CURVE ( 'NONE', #152, #187, #43, .T. ) ;
#205 = AXIS2_PLACEMENT_3D ( 'NONE', #211, #114, #6 ) ;
#206 = PERSON_AND_ORGANIZATION ( #57, #1 ) ;
#207 = ORIENTED_EDGE ( 'NONE', *, *, #18, .F. ) ;
#208 = DIRECTION ( 'NONE',  ( 1.000000000000000000, 0.0000000000000000000, 0.0000000000000000000 ) ) ;
#209 = CARTESIAN_POINT ( 'NONE',  ( 4.996003610813200500E-016, 2.442490654175340100E-015, -0.3860330500136340800 ) ) ;
#210 = APPROVAL_PERSON_ORGANIZATION ( #8, #76, #162 ) ;
#211 = CARTESIAN_POINT ( 'NONE',  ( 0.0000000000000000000, 26.11199999999999800, 2.600000000000000500 ) ) ;
#212 = AXIS2_PLACEMENT_3D ( 'NONE', #138, #24, #155 ) ;
#213 = CARTESIAN_POINT ( 'NONE',  ( 12.78416751089367800, -4.289476457133266900, -0.2589746101539549500 ) ) ;
#214 = PRODUCT_DEFINITION_SHAPE ( 'NONE', 'NONE',  #128 ) ;
#215 = COORDINATED_UNIVERSAL_TIME_OFFSET ( 2, 0, .AHEAD. ) ;
#216 = CARTESIAN_POINT ( 'NONE',  ( -8.505935664996389500, -12.85220893490434300, -0.5253707351733958300 ) ) ;
#217 = VECTOR ( 'NONE', #10, 1000.000000000000000 ) ;
#218 = PERSON_AND_ORGANIZATION_ROLE ( 'design_owner' ) ;
#219 = CC_DESIGN_PERSON_AND_ORGANIZATION_ASSIGNMENT ( #206, #82, ( #128 ) ) ;
#220 = VERTEX_POINT ( 'NONE', #160 ) ;
#221 = CARTESIAN_POINT ( 'NONE',  ( 4.263256414560599900E-014, 12.70000000000001700, -0.3860330500136370200 ) ) ;
#222 = PERSON_AND_ORGANIZATION ( #57, #1 ) ;
#223 = ORIENTED_EDGE ( 'NONE', *, *, #232, .F. ) ;
#224 = FACE_OUTER_BOUND ( 'NONE', #93, .T. ) ;
#225 = DATE_AND_TIME ( #132, #202 ) ;
#226 = CLOSED_SHELL ( 'NONE', ( #147, #109, #89, #70, #52 ) ) ;
#227 = CARTESIAN_POINT ( 'NONE',  ( 12.69999999999999900, 2.442490654175340100E-015, 2.600000000000000500 ) ) ;
#228 = ORIENTED_EDGE ( 'NONE', *, *, #88, .T. ) ;
#229 = DIRECTION ( 'NONE',  ( 1.000000000000000000, 0.0000000000000000000, 0.0000000000000000000 ) ) ;
#230 = CC_DESIGN_DATE_AND_TIME_ASSIGNMENT ( #13, #51, ( #128 ) ) ;
#231 = DIRECTION ( 'NONE',  ( 0.0000000000000000000, 0.0000000000000000000, 1.000000000000000000 ) ) ;
#232 = EDGE_CURVE ( 'NONE', #187, #23, #181, .T. ) ;
#233 = APPLICATION_CONTEXT ( 'configuration controlled 3d designs of mechanical parts and assemblies' ) ;
#234 = PERSON_AND_ORGANIZATION_ROLE ( 'classification_officer' ) ;
#235 = CARTESIAN_POINT ( 'NONE',  ( 4.996003610813200500E-016, 2.442490654175340100E-015, -0.3860330500136340800 ) ) ;
ENDSEC;
END-ISO-10303-21;
