ISO-10303-21;
HEADER;
FILE_DESCRIPTION (( 'STEP AP203' ),
    '1' );
FILE_NAME ('112-5228E CaF2 pl-cv 25.4 F-400.STEP',
    '2019-01-18T13:11:26',
    ( '' ),
    ( '' ),
    'SwSTEP 2.0',
    'SolidWorks 2017',
    '' );
FILE_SCHEMA (( 'CONFIG_CONTROL_DESIGN' ));
ENDSEC;

DATA;
#1 = COORDINATED_UNIVERSAL_TIME_OFFSET ( 2, 0, .AHEAD. ) ;
#2 = CYLINDRICAL_SURFACE ( 'NONE', #65, 12.69999999999999900 ) ;
#3 = EDGE_LOOP ( 'NONE', ( #119, #221, #49, #35, #181 ) ) ;
#4 = DIRECTION ( 'NONE',  ( 1.000000000000000000, 0.0000000000000000000, 0.0000000000000000000 ) ) ;
#5 = DIRECTION ( 'NONE',  ( 0.0000000000000000000, 0.0000000000000000000, 1.000000000000000000 ) ) ;
#6 = COORDINATED_UNIVERSAL_TIME_OFFSET ( 2, 0, .AHEAD. ) ;
#7 = PERSON_AND_ORGANIZATION_ROLE ( 'design_owner' ) ;
#8 = CARTESIAN_POINT ( 'NONE',  ( 12.73829777343127000, 12.85210128437012300, -0.9814825029645580800 ) ) ;
#9 = CARTESIAN_POINT ( 'NONE',  ( -5.454122806832292800E-014, 12.85210128437011800, -0.4943841095981227300 ) ) ;
#10 = CARTESIAN_POINT ( 'NONE',  ( -8.533044335085559600, 4.292490182803511800, 0.002032512706893877800 ) ) ;
#11 = AXIS2_PLACEMENT_3D ( 'NONE', #200, #199, #41 ) ;
#12 = FACE_OUTER_BOUND ( 'NONE', #185, .T. ) ;
#13 = PERSON_AND_ORGANIZATION ( #194, #156 ) ;
#14 = APPROVAL ( #46, 'UNSPECIFIED' ) ;
#15 = ORIENTED_EDGE ( 'NONE', *, *, #139, .F. ) ;
#16 = APPROVAL ( #78, 'UNSPECIFIED' ) ;
#17 = ADVANCED_FACE ( 'NONE', ( #196 ), #2, .T. ) ;
#18 =( LENGTH_UNIT ( ) NAMED_UNIT ( * ) SI_UNIT ( .MILLI., .METRE. ) );
#19 = PERSON_AND_ORGANIZATION_ROLE ( 'creator' ) ;
#20 =( GEOMETRIC_REPRESENTATION_CONTEXT ( 3 ) GLOBAL_UNCERTAINTY_ASSIGNED_CONTEXT ( ( #174 ) ) GLOBAL_UNIT_ASSIGNED_CONTEXT ( ( #18, #98, #97 ) ) REPRESENTATION_CONTEXT ( 'NONE', 'WORKASPACE' ) );
#21 = ADVANCED_FACE ( 'NONE', ( #42 ), #132, .F. ) ;
#22 = DIRECTION ( 'NONE',  ( 0.0000000000000000000, 0.0000000000000000000, 1.000000000000000000 ) ) ;
#23 = PERSON_AND_ORGANIZATION ( #194, #156 ) ;
#24 = DATE_TIME_ROLE ( 'creation_date' ) ;
#25 = DIRECTION ( 'NONE',  ( -0.0000000000000000000, -0.0000000000000000000, -1.000000000000000000 ) ) ;
#26 = CIRCLE ( 'NONE', #160, 167.3000000000000100 ) ;
#27 = CARTESIAN_POINT ( 'NONE',  ( 4.996003610813200500E-016, 2.442490654175340100E-015, -0.4827347065058730200 ) ) ;
#28 = CARTESIAN_POINT ( 'NONE',  ( -4.566836338319999000E-014, -12.69999999999989300, -0.4827347065058696400 ) ) ;
#29 = CC_DESIGN_DATE_AND_TIME_ASSIGNMENT ( #115, #205, ( #117 ) ) ;
#30 = ORIENTED_EDGE ( 'NONE', *, *, #135, .T. ) ;
#31 = DIRECTION ( 'NONE',  ( -3.473828569973949900E-016, 1.000000000000000000, 0.0000000000000000000 ) ) ;
#32 = CC_DESIGN_APPROVAL ( #14, ( #81 ) ) ;
#33 = CARTESIAN_POINT ( 'NONE',  ( -12.69999999999999900, 3.997792089092478900E-015, -0.4827347065058730200 ) ) ;
#34 = CARTESIAN_POINT ( 'NONE',  ( -12.69999999999999900, 3.997792089092478900E-015, -0.4827347065058730200 ) ) ;
#35 = ORIENTED_EDGE ( 'NONE', *, *, #168, .T. ) ;
#36 = APPROVAL ( #99, 'UNSPECIFIED' ) ;
#37 = ORIENTED_EDGE ( 'NONE', *, *, #40, .F. ) ;
#38 = DESIGN_CONTEXT ( 'detailed design', #153, 'design' ) ;
#39 = VERTEX_POINT ( 'NONE', #28 ) ;
#40 = EDGE_CURVE ( 'NONE', #39, #92, #67, .T. ) ;
#41 = DIRECTION ( 'NONE',  ( 1.000000000000000000, 0.0000000000000000000, 0.0000000000000000000 ) ) ;
#42 = FACE_OUTER_BOUND ( 'NONE', #142, .T. ) ;
#43 = CARTESIAN_POINT ( 'NONE',  ( 4.996003610813200500E-016, 2.442490654175340100E-015, -0.4827347065058730200 ) ) ;
#44 = SECURITY_CLASSIFICATION_LEVEL ( 'unclassified' ) ;
#45 = CC_DESIGN_PERSON_AND_ORGANIZATION_ASSIGNMENT ( #218, #19, ( #81 ) ) ;
#46 = APPROVAL_STATUS ( 'not_yet_approved' ) ;
#47 = PRODUCT_DEFINITION_SHAPE ( 'NONE', 'NONE',  #81 ) ;
#48 = CARTESIAN_POINT ( 'NONE',  ( -9.367506770274757000E-014, 4.292490182803516200, 0.1651199978920884200 ) ) ;
#49 = ORIENTED_EDGE ( 'NONE', *, *, #40, .T. ) ;
#50 = CARTESIAN_POINT ( 'NONE',  ( 8.499439857995273700, 12.85210128437012100, -0.6568293304935350900 ) ) ;
#51 = COORDINATED_UNIVERSAL_TIME_OFFSET ( 2, 0, .AHEAD. ) ;
#52 = CARTESIAN_POINT ( 'NONE',  ( -5.449188795093373900E-014, 12.69999999999989300, -0.4827347065058696400 ) ) ;
#53 = CARTESIAN_POINT ( 'NONE',  ( 4.996003610813200500E-016, 2.442490654175340100E-015, -0.4827347065058730200 ) ) ;
#54 = CIRCLE ( 'NONE', #229, 12.69999999999999900 ) ;
#55 = CYLINDRICAL_SURFACE ( 'NONE', #219, 12.69999999999999900 ) ;
#56 = PERSON_AND_ORGANIZATION ( #194, #156 ) ;
#57 = PERSON_AND_ORGANIZATION_ROLE ( 'design_supplier' ) ;
#58 = CARTESIAN_POINT ( 'NONE',  ( 12.69999999999999900, 2.442490654175340100E-015, 3.499999999999999600 ) ) ;
#59 = DIRECTION ( 'NONE',  ( 1.000000000000000000, 0.0000000000000000000, 0.0000000000000000000 ) ) ;
#60 = LOCAL_TIME ( 15, 11, 26.00000000000000000, #162 ) ;
#61 = CALENDAR_DATE ( 2019, 18, 1 ) ;
#62 = DIRECTION ( 'NONE',  ( 1.000000000000000000, 0.0000000000000000000, 0.0000000000000000000 ) ) ;
#63 = DIRECTION ( 'NONE',  ( 0.0000000000000000000, 0.0000000000000000000, 1.000000000000000000 ) ) ;
#64 = CARTESIAN_POINT ( 'NONE',  ( 4.268080669220419800, 4.292490182803517100, 0.1651199978920797300 ) ) ;
#65 = AXIS2_PLACEMENT_3D ( 'NONE', #177, #157, #208 ) ;
#66 = LINE ( 'NONE', #34, #137 ) ;
#67 = CIRCLE ( 'NONE', #91, 12.69999999999999900 ) ;
#68 = APPROVAL_DATE_TIME ( #213, #36 ) ;
#69 = CC_DESIGN_PERSON_AND_ORGANIZATION_ASSIGNMENT ( #23, #151, ( #222 ) ) ;
#70 = CARTESIAN_POINT ( 'NONE',  ( -12.69999999999999900, 3.997792089092478900E-015, 3.499999999999999600 ) ) ;
#71 = PRODUCT ( '112-5228E CaF2 pl-cv 25.4 F-400', '112-5228E CaF2 pl-cv 25.4 F-400', '', ( #82 ) ) ;
#72 = ORIENTED_EDGE ( 'NONE', *, *, #122, .F. ) ;
#73 = MANIFOLD_SOLID_BREP ( 'Imported1', #212 ) ;
#74 = CIRCLE ( 'NONE', #171, 12.69999999999999900 ) ;
#75 = CALENDAR_DATE ( 2019, 18, 1 ) ;
#76 = ORIENTED_EDGE ( 'NONE', *, *, #87, .T. ) ;
#77 = ADVANCED_FACE ( 'NONE', ( #175 ), #223, .F. ) ;
#78 = APPROVAL_STATUS ( 'not_yet_approved' ) ;
#79 = CARTESIAN_POINT ( 'NONE',  ( 4.996003610813200500E-016, 2.442490654175340100E-015, -0.4827347065058730200 ) ) ;
#80 = CARTESIAN_POINT ( 'NONE',  ( 4.996003610813200500E-016, 2.442490654175340100E-015, 3.499999999999999600 ) ) ;
#81 = PRODUCT_DEFINITION ( 'UNKNOWN', '', #222, #38 ) ;
#82 = MECHANICAL_CONTEXT ( 'NONE', #187, 'mechanical' ) ;
#83 = ORIENTED_EDGE ( 'NONE', *, *, #122, .T. ) ;
#84 = CARTESIAN_POINT ( 'NONE',  ( 8.533044335085522300, 4.292490182803518000, 0.002032512706877126500 ) ) ;
#85 = CC_DESIGN_SECURITY_CLASSIFICATION ( #117, ( #222 ) ) ;
#86 = DIRECTION ( 'NONE',  ( 1.000000000000000000, 0.0000000000000000000, 0.0000000000000000000 ) ) ;
#87 = EDGE_CURVE ( 'NONE', #107, #39, #26, .T. ) ;
#88 = CARTESIAN_POINT ( 'NONE',  ( 0.0000000000000000000, 26.11199999999999800, 3.500000000000000000 ) ) ;
#89 = DIRECTION ( 'NONE',  ( 0.0000000000000000000, 0.0000000000000000000, 1.000000000000000000 ) ) ;
#90 = SHAPE_DEFINITION_REPRESENTATION ( #47, #166 ) ;
#91 = AXIS2_PLACEMENT_3D ( 'NONE', #27, #192, #86 ) ;
#92 = VERTEX_POINT ( 'NONE', #179 ) ;
#93 = APPROVAL_PERSON_ORGANIZATION ( #56, #36, #228 ) ;
#94 = CC_DESIGN_APPROVAL ( #16, ( #222 ) ) ;
#95 = PERSON_AND_ORGANIZATION ( #194, #156 ) ;
#96 = DIRECTION ( 'NONE',  ( 1.000000000000000000, 0.0000000000000000000, 0.0000000000000000000 ) ) ;
#97 =( NAMED_UNIT ( * ) SI_UNIT ( $, .STERADIAN. ) SOLID_ANGLE_UNIT ( ) );
#98 =( NAMED_UNIT ( * ) PLANE_ANGLE_UNIT ( ) SI_UNIT ( $, .RADIAN. ) );
#99 = APPROVAL_STATUS ( 'not_yet_approved' ) ;
#100 = CARTESIAN_POINT ( 'NONE',  ( 12.78866154361471200, 4.292490182803521600, -0.3239042502452664200 ) ) ;
#101 = EDGE_LOOP ( 'NONE', ( #164, #83, #145, #30, #178 ) ) ;
#102 = CARTESIAN_POINT ( 'NONE',  ( -4.251272293049494200, 12.85210128437011600, -0.4943841095981151800 ) ) ;
#103 = CARTESIAN_POINT ( 'NONE',  ( 12.73829777343127700, -12.85210128437012900, -0.9814825029645580800 ) ) ;
#104 = APPROVAL_PERSON_ORGANIZATION ( #152, #14, #133 ) ;
#105 = DATE_AND_TIME ( #210, #146 ) ;
#106 = CC_DESIGN_PERSON_AND_ORGANIZATION_ASSIGNMENT ( #110, #57, ( #222 ) ) ;
#107 = VERTEX_POINT ( 'NONE', #52 ) ;
#108 = APPROVAL_DATE_TIME ( #191, #14 ) ;
#109 = CC_DESIGN_APPROVAL ( #36, ( #117 ) ) ;
#110 = PERSON_AND_ORGANIZATION ( #194, #156 ) ;
#111 = VERTEX_POINT ( 'NONE', #33 ) ;
#112 = PERSON_AND_ORGANIZATION ( #194, #156 ) ;
#113 = ADVANCED_FACE ( 'NONE', ( #12 ), #127, .T. ) ;
#114 = CIRCLE ( 'NONE', #184, 12.69999999999999900 ) ;
#115 = DATE_AND_TIME ( #61, #203 ) ;
#116 = APPLICATION_PROTOCOL_DEFINITION ( 'international standard', 'config_control_design', 1994, #153 ) ;
#117 = SECURITY_CLASSIFICATION ( '', '', #44 ) ;
#118 = CARTESIAN_POINT ( 'NONE',  ( -12.78866154361469800, 4.292490182803511800, -0.3239042502452451600 ) ) ;
#119 = ORIENTED_EDGE ( 'NONE', *, *, #143, .F. ) ;
#120 = CARTESIAN_POINT ( 'NONE',  ( -12.73829777343126300, 12.85210128437011300, -0.9814825029645368700 ) ) ;
#121 = CARTESIAN_POINT ( 'NONE',  ( -4.268080669220511300, -4.292490182803535800, 0.1651199978920872000 ) ) ;
#122 = EDGE_CURVE ( 'NONE', #107, #111, #201, .T. ) ;
#123 = CARTESIAN_POINT ( 'NONE',  ( 12.78866154361471500, -4.292490182803530500, -0.3239042502452653700 ) ) ;
#124 = COORDINATED_UNIVERSAL_TIME_OFFSET ( 2, 0, .AHEAD. ) ;
#125 = CARTESIAN_POINT ( 'NONE',  ( 8.499439857995280800, -12.85210128437013200, -0.6568293304935352000 ) ) ;
#126 = CARTESIAN_POINT ( 'NONE',  ( 0.0000000000000000000, 0.0000000000000000000, -167.3000000000000100 ) ) ;
#127 = PLANE ( 'NONE',  #197 ) ;
#128 = ORIENTED_EDGE ( 'NONE', *, *, #135, .F. ) ;
#129 = AXIS2_PLACEMENT_3D ( 'NONE', #53, #195, #4 ) ;
#130 = VERTEX_POINT ( 'NONE', #70 ) ;
#131 = CC_DESIGN_PERSON_AND_ORGANIZATION_ASSIGNMENT ( #112, #172, ( #117 ) ) ;
#132 =( BOUNDED_SURFACE ( )  B_SPLINE_SURFACE ( 3, 3, ( 
 ( #120, #206, #102, #231 ),
 ( #118, #10, #141, #48 ),
 ( #176, #193, #121, #155 ),
 ( #140, #158, #159, #190 ) ),
 .UNSPECIFIED., .F., .F., .T. ) 
 B_SPLINE_SURFACE_WITH_KNOTS ( ( 4, 4 ),
 ( 4, 4 ),
 ( 0.0000000000000000000, 1.000000000000000000 ),
 ( 0.0000000000000000000, 1.000000000000000000 ),
 .UNSPECIFIED. ) 
 GEOMETRIC_REPRESENTATION_ITEM ( )  RATIONAL_B_SPLINE_SURFACE ( (
 ( 1.000000000000000000, 0.9995131295779148300, 0.9995131295779148300, 1.000000000000000000),
 ( 0.9980299497525477700, 0.9975440384896581100, 0.9975440384896581100, 0.9980299497525477700),
 ( 0.9980299497525477700, 0.9975440384896581100, 0.9975440384896581100, 0.9980299497525477700),
 ( 1.000000000000000000, 0.9995131295779148300, 0.9995131295779148300, 1.000000000000000000) ) ) 
 REPRESENTATION_ITEM ( '' )  SURFACE ( )  );
#133 = APPROVAL_ROLE ( '' ) ;
#134 = CIRCLE ( 'NONE', #154, 12.69999999999999900 ) ;
#135 = EDGE_CURVE ( 'NONE', #130, #217, #74, .T. ) ;
#136 = DIRECTION ( 'NONE',  ( 1.000000000000000000, 0.0000000000000000000, 0.0000000000000000000 ) ) ;
#137 = VECTOR ( 'NONE', #188, 1000.000000000000000 ) ;
#138 = CARTESIAN_POINT ( 'NONE',  ( -5.176575529897896200E-014, 4.292490182803517100, 0.1651199978920784600 ) ) ;
#139 = EDGE_CURVE ( 'NONE', #111, #39, #114, .T. ) ;
#140 = CARTESIAN_POINT ( 'NONE',  ( -12.73829777343125300, -12.85210128437013900, -0.9814825029645368700 ) ) ;
#141 = CARTESIAN_POINT ( 'NONE',  ( -4.268080669220514900, 4.292490182803512700, 0.1651199978920860300 ) ) ;
#142 = EDGE_LOOP ( 'NONE', ( #72, #76, #15 ) ) ;
#143 = EDGE_CURVE ( 'NONE', #111, #130, #66, .T. ) ;
#144 = LOCAL_TIME ( 15, 11, 26.00000000000000000, #51 ) ;
#145 = ORIENTED_EDGE ( 'NONE', *, *, #143, .T. ) ;
#146 = LOCAL_TIME ( 15, 11, 26.00000000000000000, #6 ) ;
#147 = ORIENTED_EDGE ( 'NONE', *, *, #189, .F. ) ;
#148 = DIRECTION ( 'NONE',  ( 0.0000000000000000000, 0.0000000000000000000, 1.000000000000000000 ) ) ;
#149 = CARTESIAN_POINT ( 'NONE',  ( 4.996003610813200500E-016, 2.442490654175340100E-015, 3.499999999999999600 ) ) ;
#150 = CARTESIAN_POINT ( 'NONE',  ( 12.69999999999999900, 2.442490654175340100E-015, -0.4827347065058730200 ) ) ;
#151 = PERSON_AND_ORGANIZATION_ROLE ( 'creator' ) ;
#152 = PERSON_AND_ORGANIZATION ( #194, #156 ) ;
#153 = APPLICATION_CONTEXT ( 'configuration controlled 3d designs of mechanical parts and assemblies' ) ;
#154 = AXIS2_PLACEMENT_3D ( 'NONE', #149, #227, #225 ) ;
#155 = CARTESIAN_POINT ( 'NONE',  ( -9.020562075079398200E-014, -4.292490182803534900, 0.1651199978920895300 ) ) ;
#156 = ORGANIZATION ( 'UNSPECIFIED', 'UNSPECIFIED', '' ) ;
#157 = DIRECTION ( 'NONE',  ( 0.0000000000000000000, 0.0000000000000000000, 1.000000000000000000 ) ) ;
#158 = CARTESIAN_POINT ( 'NONE',  ( -8.499439857995307400, -12.85210128437013900, -0.6568293304935184400 ) ) ;
#159 = CARTESIAN_POINT ( 'NONE',  ( -4.251272293049483500, -12.85210128437013700, -0.4943841095981151800 ) ) ;
#160 = AXIS2_PLACEMENT_3D ( 'NONE', #126, #235, #31 ) ;
#161 = CARTESIAN_POINT ( 'NONE',  ( -4.561202874315415500E-014, -12.85210128437013400, -0.4943841095981227300 ) ) ;
#162 = COORDINATED_UNIVERSAL_TIME_OFFSET ( 2, 0, .AHEAD. ) ;
#163 = DATE_AND_TIME ( #224, #186 ) ;
#164 = ORIENTED_EDGE ( 'NONE', *, *, #211, .T. ) ;
#165 = APPROVAL_DATE_TIME ( #163, #16 ) ;
#166 = ADVANCED_BREP_SHAPE_REPRESENTATION ( '112-5228E CaF2 pl-cv 25.4 F-400', ( #73, #11 ), #20 ) ;
#167 = CALENDAR_DATE ( 2019, 18, 1 ) ;
#168 = EDGE_CURVE ( 'NONE', #92, #217, #233, .T. ) ;
#169 = ORIENTED_EDGE ( 'NONE', *, *, #87, .F. ) ;
#170 = APPROVAL_PERSON_ORGANIZATION ( #13, #16, #173 ) ;
#171 = AXIS2_PLACEMENT_3D ( 'NONE', #80, #25, #62 ) ;
#172 = PERSON_AND_ORGANIZATION_ROLE ( 'classification_officer' ) ;
#173 = APPROVAL_ROLE ( '' ) ;
#174 = UNCERTAINTY_MEASURE_WITH_UNIT (LENGTH_MEASURE( 1.000000000000000100E-005 ), #18, 'distance_accuracy_value', 'NONE');
#175 = FACE_OUTER_BOUND ( 'NONE', #207, .T. ) ;
#176 = CARTESIAN_POINT ( 'NONE',  ( -12.78866154361469400, -4.292490182803539300, -0.3239042502452443300 ) ) ;
#177 = CARTESIAN_POINT ( 'NONE',  ( 4.996003610813200500E-016, 2.442490654175340100E-015, -0.4827347065058730200 ) ) ;
#178 = ORIENTED_EDGE ( 'NONE', *, *, #168, .F. ) ;
#179 = CARTESIAN_POINT ( 'NONE',  ( 12.69999999999999900, 2.442490654175340100E-015, -0.4827347065058730200 ) ) ;
#180 = CARTESIAN_POINT ( 'NONE',  ( 8.533044335085525800, -4.292490182803530500, 0.002032512706878102700 ) ) ;
#181 = ORIENTED_EDGE ( 'NONE', *, *, #189, .T. ) ;
#182 = PRODUCT_RELATED_PRODUCT_CATEGORY ( 'detail', '', ( #71 ) ) ;
#183 = VECTOR ( 'NONE', #148, 1000.000000000000000 ) ;
#184 = AXIS2_PLACEMENT_3D ( 'NONE', #204, #63, #96 ) ;
#185 = EDGE_LOOP ( 'NONE', ( #147, #128 ) ) ;
#186 = LOCAL_TIME ( 15, 11, 26.00000000000000000, #1 ) ;
#187 = APPLICATION_CONTEXT ( 'configuration controlled 3d designs of mechanical parts and assemblies' ) ;
#188 = DIRECTION ( 'NONE',  ( 0.0000000000000000000, 0.0000000000000000000, 1.000000000000000000 ) ) ;
#189 = EDGE_CURVE ( 'NONE', #217, #130, #134, .T. ) ;
#190 = CARTESIAN_POINT ( 'NONE',  ( -8.673617379884035500E-014, -12.85210128437013400, -0.4943841095981127400 ) ) ;
#191 = DATE_AND_TIME ( #167, #60 ) ;
#192 = DIRECTION ( 'NONE',  ( 0.0000000000000000000, 0.0000000000000000000, 1.000000000000000000 ) ) ;
#193 = CARTESIAN_POINT ( 'NONE',  ( -8.533044335085556000, -4.292490182803536700, 0.002032512706894745200 ) ) ;
#194 = PERSON ( 'UNSPECIFIED', 'UNSPECIFIED', 'UNSPECIFIED', ('UNSPECIFIED'), ('UNSPECIFIED'), ('UNSPECIFIED') ) ;
#195 = DIRECTION ( 'NONE',  ( 0.0000000000000000000, 0.0000000000000000000, 1.000000000000000000 ) ) ;
#196 = FACE_OUTER_BOUND ( 'NONE', #3, .T. ) ;
#197 = AXIS2_PLACEMENT_3D ( 'NONE', #88, #89, #215 ) ;
#198 = FACE_OUTER_BOUND ( 'NONE', #101, .T. ) ;
#199 = DIRECTION ( 'NONE',  ( 0.0000000000000000000, 0.0000000000000000000, 1.000000000000000000 ) ) ;
#200 = CARTESIAN_POINT ( 'NONE',  ( 0.0000000000000000000, 0.0000000000000000000, 0.0000000000000000000 ) ) ;
#201 = CIRCLE ( 'NONE', #129, 12.69999999999999900 ) ;
#202 = CC_DESIGN_PERSON_AND_ORGANIZATION_ASSIGNMENT ( #95, #7, ( #71 ) ) ;
#203 = LOCAL_TIME ( 15, 11, 26.00000000000000000, #124 ) ;
#204 = CARTESIAN_POINT ( 'NONE',  ( 4.996003610813200500E-016, 2.442490654175340100E-015, -0.4827347065058730200 ) ) ;
#205 = DATE_TIME_ROLE ( 'classification_date' ) ;
#206 = CARTESIAN_POINT ( 'NONE',  ( -8.499439857995318100, 12.85210128437011400, -0.6568293304935184400 ) ) ;
#207 = EDGE_LOOP ( 'NONE', ( #169, #216, #37 ) ) ;
#208 = DIRECTION ( 'NONE',  ( 1.000000000000000000, 0.0000000000000000000, 0.0000000000000000000 ) ) ;
#209 = CC_DESIGN_DATE_AND_TIME_ASSIGNMENT ( #105, #24, ( #81 ) ) ;
#210 = CALENDAR_DATE ( 2019, 18, 1 ) ;
#211 = EDGE_CURVE ( 'NONE', #92, #107, #54, .T. ) ;
#212 = CLOSED_SHELL ( 'NONE', ( #21, #220, #77, #17, #113 ) ) ;
#213 = DATE_AND_TIME ( #75, #144 ) ;
#214 = CARTESIAN_POINT ( 'NONE',  ( 4.251272293049404500, -12.85210128437013400, -0.4943841095981215700 ) ) ;
#215 = DIRECTION ( 'NONE',  ( 1.000000000000000000, 0.0000000000000000000, -0.0000000000000000000 ) ) ;
#216 = ORIENTED_EDGE ( 'NONE', *, *, #211, .F. ) ;
#217 = VERTEX_POINT ( 'NONE', #58 ) ;
#218 = PERSON_AND_ORGANIZATION ( #194, #156 ) ;
#219 = AXIS2_PLACEMENT_3D ( 'NONE', #79, #5, #59 ) ;
#220 = ADVANCED_FACE ( 'NONE', ( #198 ), #55, .T. ) ;
#221 = ORIENTED_EDGE ( 'NONE', *, *, #139, .T. ) ;
#222 = PRODUCT_DEFINITION_FORMATION_WITH_SPECIFIED_SOURCE ( 'ANY', '', #71, .NOT_KNOWN. ) ;
#223 =( BOUNDED_SURFACE ( )  B_SPLINE_SURFACE ( 3, 3, ( 
 ( #9, #232, #50, #8 ),
 ( #138, #64, #84, #100 ),
 ( #230, #234, #180, #123 ),
 ( #161, #214, #125, #103 ) ),
 .UNSPECIFIED., .F., .F., .T. ) 
 B_SPLINE_SURFACE_WITH_KNOTS ( ( 4, 4 ),
 ( 4, 4 ),
 ( 0.0000000000000000000, 1.000000000000000000 ),
 ( 0.0000000000000000000, 1.000000000000000000 ),
 .UNSPECIFIED. ) 
 GEOMETRIC_REPRESENTATION_ITEM ( )  RATIONAL_B_SPLINE_SURFACE ( (
 ( 1.000000000000000000, 0.9995131295779148300, 0.9995131295779148300, 1.000000000000000000),
 ( 0.9980299497525477700, 0.9975440384896581100, 0.9975440384896581100, 0.9980299497525477700),
 ( 0.9980299497525477700, 0.9975440384896581100, 0.9975440384896581100, 0.9980299497525477700),
 ( 1.000000000000000000, 0.9995131295779148300, 0.9995131295779148300, 1.000000000000000000) ) ) 
 REPRESENTATION_ITEM ( '' )  SURFACE ( )  );
#224 = CALENDAR_DATE ( 2019, 18, 1 ) ;
#225 = DIRECTION ( 'NONE',  ( 1.000000000000000000, 0.0000000000000000000, 0.0000000000000000000 ) ) ;
#226 = APPLICATION_PROTOCOL_DEFINITION ( 'international standard', 'config_control_design', 1994, #187 ) ;
#227 = DIRECTION ( 'NONE',  ( -0.0000000000000000000, -0.0000000000000000000, -1.000000000000000000 ) ) ;
#228 = APPROVAL_ROLE ( '' ) ;
#229 = AXIS2_PLACEMENT_3D ( 'NONE', #43, #22, #136 ) ;
#230 = CARTESIAN_POINT ( 'NONE',  ( -4.878348029230784500E-014, -4.292490182803534000, 0.1651199978920794300 ) ) ;
#231 = CARTESIAN_POINT ( 'NONE',  ( -9.714451465470119700E-014, 12.85210128437011800, -0.4943841095981126300 ) ) ;
#232 = CARTESIAN_POINT ( 'NONE',  ( 4.251272293049395600, 12.85210128437012000, -0.4943841095981215700 ) ) ;
#233 = LINE ( 'NONE', #150, #183 ) ;
#234 = CARTESIAN_POINT ( 'NONE',  ( 4.268080669220423400, -4.292490182803531300, 0.1651199978920807300 ) ) ;
#235 = DIRECTION ( 'NONE',  ( 1.000000000000000000, 3.473828569973949900E-016, 3.002094871832189900E-016 ) ) ;
ENDSEC;
END-ISO-10303-21;
