ISO-10303-21;
HEADER;
FILE_DESCRIPTION (( 'STEP AP203' ),
    '1' );
FILE_NAME ('112-5225E CaF2 pl-cv 25.4 F-300.STEP',
    '2019-01-18T13:04:57',
    ( '' ),
    ( '' ),
    'SwSTEP 2.0',
    'SolidWorks 2017',
    '' );
FILE_SCHEMA (( 'CONFIG_CONTROL_DESIGN' ));
ENDSEC;

DATA;
#1 = DIRECTION ( 'NONE',  ( 1.000000000000000000, 0.0000000000000000000, 0.0000000000000000000 ) ) ;
#2 = PERSON_AND_ORGANIZATION ( #169, #136 ) ;
#3 = PLANE ( 'NONE',  #60 ) ;
#4 = CALENDAR_DATE ( 2019, 18, 1 ) ;
#5 = ORIENTED_EDGE ( 'NONE', *, *, #111, .T. ) ;
#6 = EDGE_CURVE ( 'NONE', #104, #85, #39, .T. ) ;
#7 = SECURITY_CLASSIFICATION_LEVEL ( 'unclassified' ) ;
#8 = VECTOR ( 'NONE', #135, 1000.000000000000000 ) ;
#9 = CIRCLE ( 'NONE', #120, 12.69999999999999900 ) ;
#10 = ADVANCED_FACE ( 'NONE', ( #213 ), #52, .F. ) ;
#11 = CARTESIAN_POINT ( 'NONE',  ( -12.79840395203221900, -4.299023413930829200, -0.4324356069041330700 ) ) ;
#12 = VERTEX_POINT ( 'NONE', #79 ) ;
#13 = CARTESIAN_POINT ( 'NONE',  ( 1.421085471520200100E-014, -2.842170943040400100E-014, -125.5000000000000000 ) ) ;
#14 = CARTESIAN_POINT ( 'NONE',  ( -1.387778780781445500E-014, 4.299023413930814100, 0.2207015846657441900 ) ) ;
#15 = ORIENTED_EDGE ( 'NONE', *, *, #6, .F. ) ;
#16 = CARTESIAN_POINT ( 'NONE',  ( 4.996003610813200500E-016, 2.442490654175340100E-015, -0.6442432244311779900 ) ) ;
#17 = CARTESIAN_POINT ( 'NONE',  ( 12.69999999999999900, 2.442490654175340100E-015, 3.399999999999999900 ) ) ;
#18 = CARTESIAN_POINT ( 'NONE',  ( 4.996003610813200500E-016, 2.442490654175340100E-015, -0.6442432244311779900 ) ) ;
#19 = FACE_OUTER_BOUND ( 'NONE', #27, .T. ) ;
#20 = CARTESIAN_POINT ( 'NONE',  ( 4.245447824180244500, -12.85186820706394600, -0.6597841895959467600 ) ) ;
#21 = AXIS2_PLACEMENT_3D ( 'NONE', #214, #31, #1 ) ;
#22 = PERSON_AND_ORGANIZATION_ROLE ( 'classification_officer' ) ;
#23 = CC_DESIGN_PERSON_AND_ORGANIZATION_ASSIGNMENT ( #141, #106, ( #45 ) ) ;
#24 = CC_DESIGN_PERSON_AND_ORGANIZATION_ASSIGNMENT ( #46, #144, ( #188 ) ) ;
#25 = COORDINATED_UNIVERSAL_TIME_OFFSET ( 2, 0, .AHEAD. ) ;
#26 = CARTESIAN_POINT ( 'NONE',  ( 12.69999999999999900, 2.442490654175340100E-015, -0.6442432244311779900 ) ) ;
#27 = EDGE_LOOP ( 'NONE', ( #142, #15 ) ) ;
#28 = CARTESIAN_POINT ( 'NONE',  ( -12.79840395203222100, 4.299023413930810600, -0.4324356069041301900 ) ) ;
#29 = EDGE_CURVE ( 'NONE', #216, #85, #32, .T. ) ;
#30 = DIRECTION ( 'NONE',  ( 0.0000000000000000000, 0.0000000000000000000, 1.000000000000000000 ) ) ;
#31 = DIRECTION ( 'NONE',  ( 0.0000000000000000000, 0.0000000000000000000, 1.000000000000000000 ) ) ;
#32 = LINE ( 'NONE', #26, #203 ) ;
#33 = AXIS2_PLACEMENT_3D ( 'NONE', #81, #100, #66 ) ;
#34 = CARTESIAN_POINT ( 'NONE',  ( 4.996003610813200500E-016, 2.442490654175340100E-015, -0.6442432244311779900 ) ) ;
#35 = ORIENTED_EDGE ( 'NONE', *, *, #124, .T. ) ;
#36 = APPROVAL_ROLE ( '' ) ;
#37 = APPLICATION_CONTEXT ( 'configuration controlled 3d designs of mechanical parts and assemblies' ) ;
#38 = PRODUCT_DEFINITION_FORMATION_WITH_SPECIFIED_SOURCE ( 'ANY', '', #45, .NOT_KNOWN. ) ;
#39 = CIRCLE ( 'NONE', #234, 12.69999999999999900 ) ;
#40 = PERSON_AND_ORGANIZATION ( #169, #136 ) ;
#41 = ORIENTED_EDGE ( 'NONE', *, *, #218, .F. ) ;
#42 = CC_DESIGN_PERSON_AND_ORGANIZATION_ASSIGNMENT ( #228, #22, ( #128 ) ) ;
#43 = EDGE_CURVE ( 'NONE', #153, #121, #90, .T. ) ;
#44 = COORDINATED_UNIVERSAL_TIME_OFFSET ( 2, 0, .AHEAD. ) ;
#45 = PRODUCT ( '112-5225E CaF2 pl-cv 25.4 F-300', '112-5225E CaF2 pl-cv 25.4 F-300', '', ( #165 ) ) ;
#46 = PERSON_AND_ORGANIZATION ( #169, #136 ) ;
#47 = CARTESIAN_POINT ( 'NONE',  ( -12.70877024436929200, 12.85186820706393400, -1.308347130477033300 ) ) ;
#48 = ORIENTED_EDGE ( 'NONE', *, *, #29, .T. ) ;
#49 = DIRECTION ( 'NONE',  ( 0.0000000000000000000, 0.0000000000000000000, 1.000000000000000000 ) ) ;
#50 = CARTESIAN_POINT ( 'NONE',  ( 2.138567898930948300E-014, -12.70000000000004200, -0.6442432244311883100 ) ) ;
#51 = AXIS2_PLACEMENT_3D ( 'NONE', #202, #84, #118 ) ;
#52 =( BOUNDED_SURFACE ( )  B_SPLINE_SURFACE ( 3, 3, ( 
 ( #47, #174, #194, #209 ),
 ( #28, #172, #226, #14 ),
 ( #11, #196, #193, #195 ),
 ( #133, #156, #208, #96 ) ),
 .UNSPECIFIED., .F., .F., .F. ) 
 B_SPLINE_SURFACE_WITH_KNOTS ( ( 4, 4 ),
 ( 4, 4 ),
 ( 0.0000000000000000000, 1.000000000000000000 ),
 ( 0.0000000000000000000, 1.000000000000000000 ),
 .UNSPECIFIED. ) 
 GEOMETRIC_REPRESENTATION_ITEM ( )  RATIONAL_B_SPLINE_SURFACE ( (
 ( 1.000000000000000000, 0.9991335795963500700, 0.9991335795963500700, 1.000000000000000000),
 ( 0.9964951703075911600, 0.9956317865598980400, 0.9956317865598980400, 0.9964951703075911600),
 ( 0.9964951703075911600, 0.9956317865598980400, 0.9956317865598980400, 0.9964951703075911600),
 ( 1.000000000000000000, 0.9991335795963500700, 0.9991335795963500700, 1.000000000000000000) ) ) 
 REPRESENTATION_ITEM ( '' )  SURFACE ( )  );
#53 = APPROVAL_PERSON_ORGANIZATION ( #40, #55, #166 ) ;
#54 = DATE_TIME_ROLE ( 'creation_date' ) ;
#55 = APPROVAL ( #88, 'UNSPECIFIED' ) ;
#56 = LOCAL_TIME ( 15, 4, 57.00000000000000000, #93 ) ;
#57 = CYLINDRICAL_SURFACE ( 'NONE', #146, 12.69999999999999900 ) ;
#58 = ORIENTED_EDGE ( 'NONE', *, *, #43, .F. ) ;
#59 = CARTESIAN_POINT ( 'NONE',  ( 1.946982927510380300E-014, -4.299023413930826500, 0.2207015846657410200 ) ) ;
#60 = AXIS2_PLACEMENT_3D ( 'NONE', #123, #139, #65 ) ;
#61 = APPROVAL_DATE_TIME ( #176, #55 ) ;
#62 = DIRECTION ( 'NONE',  ( 1.000000000000000000, 0.0000000000000000000, 0.0000000000000000000 ) ) ;
#63 = CC_DESIGN_APPROVAL ( #55, ( #188 ) ) ;
#64 = CARTESIAN_POINT ( 'NONE',  ( 8.485378134434213800, -12.85186820706394400, -0.8761593083740573100 ) ) ;
#65 = DIRECTION ( 'NONE',  ( 1.000000000000000000, 0.0000000000000000000, -0.0000000000000000000 ) ) ;
#66 = DIRECTION ( 'NONE',  ( 1.000000000000000000, 0.0000000000000000000, 0.0000000000000000000 ) ) ;
#67 = EDGE_LOOP ( 'NONE', ( #157, #130, #126, #48, #71 ) ) ;
#68 = DATE_TIME_ROLE ( 'classification_date' ) ;
#69 = CIRCLE ( 'NONE', #204, 12.69999999999999900 ) ;
#70 =( BOUNDED_SURFACE ( )  B_SPLINE_SURFACE ( 3, 3, ( 
 ( #230, #95, #115, #80 ),
 ( #235, #117, #190, #152 ),
 ( #59, #158, #171, #76 ),
 ( #207, #20, #64, #211 ) ),
 .UNSPECIFIED., .F., .F., .T. ) 
 B_SPLINE_SURFACE_WITH_KNOTS ( ( 4, 4 ),
 ( 4, 4 ),
 ( 0.0000000000000000000, 1.000000000000000000 ),
 ( 0.0000000000000000000, 1.000000000000000000 ),
 .UNSPECIFIED. ) 
 GEOMETRIC_REPRESENTATION_ITEM ( )  RATIONAL_B_SPLINE_SURFACE ( (
 ( 1.000000000000000000, 0.9991335795963500700, 0.9991335795963500700, 1.000000000000000000),
 ( 0.9964951703075911600, 0.9956317865598980400, 0.9956317865598980400, 0.9964951703075911600),
 ( 0.9964951703075911600, 0.9956317865598980400, 0.9956317865598980400, 0.9964951703075911600),
 ( 1.000000000000000000, 0.9991335795963500700, 0.9991335795963500700, 1.000000000000000000) ) ) 
 REPRESENTATION_ITEM ( '' )  SURFACE ( )  );
#71 = ORIENTED_EDGE ( 'NONE', *, *, #132, .T. ) ;
#72 = ADVANCED_FACE ( 'NONE', ( #151 ), #70, .F. ) ;
#73 = ADVANCED_FACE ( 'NONE', ( #131 ), #94, .T. ) ;
#74 = DATE_AND_TIME ( #222, #186 ) ;
#75 = CC_DESIGN_DATE_AND_TIME_ASSIGNMENT ( #167, #54, ( #188 ) ) ;
#76 = CARTESIAN_POINT ( 'NONE',  ( 12.79840395203229700, -4.299023413930823900, -0.4324356069041346300 ) ) ;
#77 = CIRCLE ( 'NONE', #150, 12.69999999999999900 ) ;
#78 = ORIENTED_EDGE ( 'NONE', *, *, #205, .F. ) ;
#79 = CARTESIAN_POINT ( 'NONE',  ( -12.69999999999999900, 3.997792089092478900E-015, -0.6442432244311779900 ) ) ;
#80 = CARTESIAN_POINT ( 'NONE',  ( 12.70877024436936200, 12.85186820706394100, -1.308347130477035100 ) ) ;
#81 = CARTESIAN_POINT ( 'NONE',  ( 0.0000000000000000000, 0.0000000000000000000, 0.0000000000000000000 ) ) ;
#82 =( NAMED_UNIT ( * ) PLANE_ANGLE_UNIT ( ) SI_UNIT ( $, .RADIAN. ) );
#83 = COORDINATED_UNIVERSAL_TIME_OFFSET ( 2, 0, .AHEAD. ) ;
#84 = DIRECTION ( 'NONE',  ( 0.0000000000000000000, 0.0000000000000000000, 1.000000000000000000 ) ) ;
#85 = VERTEX_POINT ( 'NONE', #17 ) ;
#86 = APPLICATION_PROTOCOL_DEFINITION ( 'international standard', 'config_control_design', 1994, #122 ) ;
#87 = APPLICATION_PROTOCOL_DEFINITION ( 'international standard', 'config_control_design', 1994, #37 ) ;
#88 = APPROVAL_STATUS ( 'not_yet_approved' ) ;
#89 =( GEOMETRIC_REPRESENTATION_CONTEXT ( 3 ) GLOBAL_UNCERTAINTY_ASSIGNED_CONTEXT ( ( #112 ) ) GLOBAL_UNIT_ASSIGNED_CONTEXT ( ( #197, #82, #212 ) ) REPRESENTATION_CONTEXT ( 'NONE', 'WORKASPACE' ) );
#90 = CIRCLE ( 'NONE', #134, 125.5000000000000000 ) ;
#91 = APPROVAL ( #219, 'UNSPECIFIED' ) ;
#92 = ORIENTED_EDGE ( 'NONE', *, *, #29, .F. ) ;
#93 = COORDINATED_UNIVERSAL_TIME_OFFSET ( 2, 0, .AHEAD. ) ;
#94 = CYLINDRICAL_SURFACE ( 'NONE', #21, 12.69999999999999900 ) ;
#95 = CARTESIAN_POINT ( 'NONE',  ( 4.245447824180238200, 12.85186820706393700, -0.6597841895959467600 ) ) ;
#96 = CARTESIAN_POINT ( 'NONE',  ( -1.040834085586084300E-014, -12.85186820706395000, -0.6597841895959463100 ) ) ;
#97 = CARTESIAN_POINT ( 'NONE',  ( 4.996003610813200500E-016, 2.442490654175340100E-015, 3.399999999999999900 ) ) ;
#98 = DIRECTION ( 'NONE',  ( -2.315424381500570500E-016, 1.000000000000000000, -4.423199301295444400E-016 ) ) ;
#99 = LINE ( 'NONE', #138, #8 ) ;
#100 = DIRECTION ( 'NONE',  ( 0.0000000000000000000, 0.0000000000000000000, 1.000000000000000000 ) ) ;
#101 = PRODUCT_RELATED_PRODUCT_CATEGORY ( 'detail', '', ( #45 ) ) ;
#102 = CARTESIAN_POINT ( 'NONE',  ( -12.69999999999999900, 3.997792089092478900E-015, 3.399999999999999900 ) ) ;
#103 = CALENDAR_DATE ( 2019, 18, 1 ) ;
#104 = VERTEX_POINT ( 'NONE', #102 ) ;
#105 = CC_DESIGN_PERSON_AND_ORGANIZATION_ASSIGNMENT ( #184, #183, ( #38 ) ) ;
#106 = PERSON_AND_ORGANIZATION_ROLE ( 'design_owner' ) ;
#107 = ORIENTED_EDGE ( 'NONE', *, *, #43, .T. ) ;
#108 = APPROVAL_ROLE ( '' ) ;
#109 = APPROVAL_DATE_TIME ( #74, #91 ) ;
#110 = DATE_AND_TIME ( #119, #129 ) ;
#111 = EDGE_CURVE ( 'NONE', #153, #12, #69, .T. ) ;
#112 = UNCERTAINTY_MEASURE_WITH_UNIT (LENGTH_MEASURE( 1.000000000000000100E-005 ), #197, 'distance_accuracy_value', 'NONE');
#113 = SHAPE_DEFINITION_REPRESENTATION ( #229, #155 ) ;
#114 = CC_DESIGN_APPROVAL ( #185, ( #128 ) ) ;
#115 = CARTESIAN_POINT ( 'NONE',  ( 8.485378134434210300, 12.85186820706393900, -0.8761593083740574200 ) ) ;
#116 = DIRECTION ( 'NONE',  ( -0.0000000000000000000, -0.0000000000000000000, -1.000000000000000000 ) ) ;
#117 = CARTESIAN_POINT ( 'NONE',  ( 4.275390550490791400, 4.299023413930815000, 0.2207015846657438300 ) ) ;
#118 = DIRECTION ( 'NONE',  ( 1.000000000000000000, 0.0000000000000000000, 0.0000000000000000000 ) ) ;
#119 = CALENDAR_DATE ( 2019, 18, 1 ) ;
#120 = AXIS2_PLACEMENT_3D ( 'NONE', #34, #30, #180 ) ;
#121 = VERTEX_POINT ( 'NONE', #50 ) ;
#122 = APPLICATION_CONTEXT ( 'configuration controlled 3d designs of mechanical parts and assemblies' ) ;
#123 = CARTESIAN_POINT ( 'NONE',  ( 0.0000000000000000000, 26.11199999999999800, 3.399999999999999900 ) ) ;
#124 = EDGE_CURVE ( 'NONE', #12, #104, #99, .T. ) ;
#125 = LOCAL_TIME ( 15, 4, 57.00000000000000000, #83 ) ;
#126 = ORIENTED_EDGE ( 'NONE', *, *, #227, .T. ) ;
#127 = CC_DESIGN_APPROVAL ( #91, ( #38 ) ) ;
#128 = SECURITY_CLASSIFICATION ( '', '', #7 ) ;
#129 = LOCAL_TIME ( 15, 4, 57.00000000000000000, #25 ) ;
#130 = ORIENTED_EDGE ( 'NONE', *, *, #205, .T. ) ;
#131 = FACE_OUTER_BOUND ( 'NONE', #187, .T. ) ;
#132 = EDGE_CURVE ( 'NONE', #85, #104, #77, .T. ) ;
#133 = CARTESIAN_POINT ( 'NONE',  ( -12.70877024436928500, -12.85186820706395300, -1.308347130477033300 ) ) ;
#134 = AXIS2_PLACEMENT_3D ( 'NONE', #13, #210, #98 ) ;
#135 = DIRECTION ( 'NONE',  ( 0.0000000000000000000, 0.0000000000000000000, 1.000000000000000000 ) ) ;
#136 = ORGANIZATION ( 'UNSPECIFIED', 'UNSPECIFIED', '' ) ;
#137 = DIRECTION ( 'NONE',  ( 0.0000000000000000000, 0.0000000000000000000, 1.000000000000000000 ) ) ;
#138 = CARTESIAN_POINT ( 'NONE',  ( -12.69999999999999900, 3.997792089092478900E-015, -0.6442432244311779900 ) ) ;
#139 = DIRECTION ( 'NONE',  ( 0.0000000000000000000, 0.0000000000000000000, 1.000000000000000000 ) ) ;
#140 = CC_DESIGN_PERSON_AND_ORGANIZATION_ASSIGNMENT ( #2, #217, ( #38 ) ) ;
#141 = PERSON_AND_ORGANIZATION ( #169, #136 ) ;
#142 = ORIENTED_EDGE ( 'NONE', *, *, #132, .F. ) ;
#143 = DIRECTION ( 'NONE',  ( -0.0000000000000000000, -0.0000000000000000000, -1.000000000000000000 ) ) ;
#144 = PERSON_AND_ORGANIZATION_ROLE ( 'creator' ) ;
#145 = LOCAL_TIME ( 15, 4, 57.00000000000000000, #225 ) ;
#146 = AXIS2_PLACEMENT_3D ( 'NONE', #18, #49, #215 ) ;
#147 = ORIENTED_EDGE ( 'NONE', *, *, #111, .F. ) ;
#148 = ADVANCED_FACE ( 'NONE', ( #19 ), #3, .T. ) ;
#149 = CIRCLE ( 'NONE', #154, 12.69999999999999900 ) ;
#150 = AXIS2_PLACEMENT_3D ( 'NONE', #198, #143, #159 ) ;
#151 = FACE_OUTER_BOUND ( 'NONE', #231, .T. ) ;
#152 = CARTESIAN_POINT ( 'NONE',  ( 12.79840395203229500, 4.299023413930816800, -0.4324356069041316900 ) ) ;
#153 = VERTEX_POINT ( 'NONE', #178 ) ;
#154 = AXIS2_PLACEMENT_3D ( 'NONE', #16, #175, #160 ) ;
#155 = ADVANCED_BREP_SHAPE_REPRESENTATION ( '112-5225E CaF2 pl-cv 25.4 F-300', ( #164, #33 ), #89 ) ;
#156 = CARTESIAN_POINT ( 'NONE',  ( -8.485378134434153500, -12.85186820706395000, -0.8761593083740597500 ) ) ;
#157 = ORIENTED_EDGE ( 'NONE', *, *, #124, .F. ) ;
#158 = CARTESIAN_POINT ( 'NONE',  ( 4.275390550490793200, -4.299023413930825700, 0.2207015846657409400 ) ) ;
#159 = DIRECTION ( 'NONE',  ( 1.000000000000000000, 0.0000000000000000000, 0.0000000000000000000 ) ) ;
#160 = DIRECTION ( 'NONE',  ( 1.000000000000000000, 0.0000000000000000000, 0.0000000000000000000 ) ) ;
#161 = APPROVAL_PERSON_ORGANIZATION ( #206, #91, #36 ) ;
#162 = ORIENTED_EDGE ( 'NONE', *, *, #6, .T. ) ;
#163 = CARTESIAN_POINT ( 'NONE',  ( 12.69999999999999900, 2.442490654175340100E-015, -0.6442432244311779900 ) ) ;
#164 = MANIFOLD_SOLID_BREP ( 'Imported1', #177 ) ;
#165 = MECHANICAL_CONTEXT ( 'NONE', #122, 'mechanical' ) ;
#166 = APPROVAL_ROLE ( '' ) ;
#167 = DATE_AND_TIME ( #4, #56 ) ;
#168 = DESIGN_CONTEXT ( 'detailed design', #37, 'design' ) ;
#169 = PERSON ( 'UNSPECIFIED', 'UNSPECIFIED', 'UNSPECIFIED', ('UNSPECIFIED'), ('UNSPECIFIED'), ('UNSPECIFIED') ) ;
#170 = DATE_AND_TIME ( #221, #125 ) ;
#171 = CARTESIAN_POINT ( 'NONE',  ( 8.545224672571791300, -4.299023413930824800, 0.002800393437726477000 ) ) ;
#172 = CARTESIAN_POINT ( 'NONE',  ( -8.545224672571736200, 4.299023413930812300, 0.002800393437727018700 ) ) ;
#173 = DIRECTION ( 'NONE',  ( 0.0000000000000000000, 0.0000000000000000000, 1.000000000000000000 ) ) ;
#174 = CARTESIAN_POINT ( 'NONE',  ( -8.485378134434160600, 12.85186820706393500, -0.8761593083740597500 ) ) ;
#175 = DIRECTION ( 'NONE',  ( 0.0000000000000000000, 0.0000000000000000000, 1.000000000000000000 ) ) ;
#176 = DATE_AND_TIME ( #103, #145 ) ;
#177 = CLOSED_SHELL ( 'NONE', ( #10, #73, #72, #224, #148 ) ) ;
#178 = CARTESIAN_POINT ( 'NONE',  ( 1.550450106029802000E-014, 12.70000000000001500, -0.6442432244311883100 ) ) ;
#179 = CARTESIAN_POINT ( 'NONE',  ( 4.996003610813200500E-016, 2.442490654175340100E-015, -0.6442432244311779900 ) ) ;
#180 = DIRECTION ( 'NONE',  ( 1.000000000000000000, 0.0000000000000000000, 0.0000000000000000000 ) ) ;
#181 = APPROVAL_PERSON_ORGANIZATION ( #200, #185, #108 ) ;
#182 = CC_DESIGN_SECURITY_CLASSIFICATION ( #128, ( #38 ) ) ;
#183 = PERSON_AND_ORGANIZATION_ROLE ( 'design_supplier' ) ;
#184 = PERSON_AND_ORGANIZATION ( #169, #136 ) ;
#185 = APPROVAL ( #220, 'UNSPECIFIED' ) ;
#186 = LOCAL_TIME ( 15, 4, 57.00000000000000000, #44 ) ;
#187 = EDGE_LOOP ( 'NONE', ( #192, #5, #35, #162, #92 ) ) ;
#188 = PRODUCT_DEFINITION ( 'UNKNOWN', '', #38, #168 ) ;
#189 = FACE_OUTER_BOUND ( 'NONE', #67, .T. ) ;
#190 = CARTESIAN_POINT ( 'NONE',  ( 8.545224672571787700, 4.299023413930815900, 0.002800393437729403100 ) ) ;
#191 = CIRCLE ( 'NONE', #51, 12.69999999999999900 ) ;
#192 = ORIENTED_EDGE ( 'NONE', *, *, #218, .T. ) ;
#193 = CARTESIAN_POINT ( 'NONE',  ( -4.275390550490762100, -4.299023413930826500, 0.2207015846657405800 ) ) ;
#194 = CARTESIAN_POINT ( 'NONE',  ( -4.245447824180216900, 12.85186820706393500, -0.6597841895959475300 ) ) ;
#195 = CARTESIAN_POINT ( 'NONE',  ( -1.214306433183764800E-014, -4.299023413930825700, 0.2207015846657414700 ) ) ;
#196 = CARTESIAN_POINT ( 'NONE',  ( -8.545224672571734500, -4.299023413930828300, 0.002800393437723982500 ) ) ;
#197 =( LENGTH_UNIT ( ) NAMED_UNIT ( * ) SI_UNIT ( .MILLI., .METRE. ) );
#198 = CARTESIAN_POINT ( 'NONE',  ( 4.996003610813200500E-016, 2.442490654175340100E-015, 3.399999999999999900 ) ) ;
#199 = APPROVAL_DATE_TIME ( #110, #185 ) ;
#200 = PERSON_AND_ORGANIZATION ( #169, #136 ) ;
#201 = EDGE_LOOP ( 'NONE', ( #147, #107, #78 ) ) ;
#202 = CARTESIAN_POINT ( 'NONE',  ( 4.996003610813200500E-016, 2.442490654175340100E-015, -0.6442432244311779900 ) ) ;
#203 = VECTOR ( 'NONE', #173, 1000.000000000000000 ) ;
#204 = AXIS2_PLACEMENT_3D ( 'NONE', #179, #137, #62 ) ;
#205 = EDGE_CURVE ( 'NONE', #12, #121, #9, .T. ) ;
#206 = PERSON_AND_ORGANIZATION ( #169, #136 ) ;
#207 = CARTESIAN_POINT ( 'NONE',  ( 2.142031588324621800E-014, -12.85186820706395000, -0.6597841895959466500 ) ) ;
#208 = CARTESIAN_POINT ( 'NONE',  ( -4.245447824180209800, -12.85186820706395000, -0.6597841895959473100 ) ) ;
#209 = CARTESIAN_POINT ( 'NONE',  ( -1.734723475976807100E-014, 12.85186820706393700, -0.6597841895959465400 ) ) ;
#210 = DIRECTION ( 'NONE',  ( 1.000000000000000000, 2.315424381500570000E-016, -3.391301625933749800E-017 ) ) ;
#211 = CARTESIAN_POINT ( 'NONE',  ( 12.70877024436936700, -12.85186820706394600, -1.308347130477034900 ) ) ;
#212 =( NAMED_UNIT ( * ) SI_UNIT ( $, .STERADIAN. ) SOLID_ANGLE_UNIT ( ) );
#213 = FACE_OUTER_BOUND ( 'NONE', #201, .T. ) ;
#214 = CARTESIAN_POINT ( 'NONE',  ( 4.996003610813200500E-016, 2.442490654175340100E-015, -0.6442432244311779900 ) ) ;
#215 = DIRECTION ( 'NONE',  ( 1.000000000000000000, 0.0000000000000000000, 0.0000000000000000000 ) ) ;
#216 = VERTEX_POINT ( 'NONE', #163 ) ;
#217 = PERSON_AND_ORGANIZATION_ROLE ( 'creator' ) ;
#218 = EDGE_CURVE ( 'NONE', #216, #153, #191, .T. ) ;
#219 = APPROVAL_STATUS ( 'not_yet_approved' ) ;
#220 = APPROVAL_STATUS ( 'not_yet_approved' ) ;
#221 = CALENDAR_DATE ( 2019, 18, 1 ) ;
#222 = CALENDAR_DATE ( 2019, 18, 1 ) ;
#223 = ORIENTED_EDGE ( 'NONE', *, *, #227, .F. ) ;
#224 = ADVANCED_FACE ( 'NONE', ( #189 ), #57, .T. ) ;
#225 = COORDINATED_UNIVERSAL_TIME_OFFSET ( 2, 0, .AHEAD. ) ;
#226 = CARTESIAN_POINT ( 'NONE',  ( -4.275390550490763900, 4.299023413930813200, 0.2207015846657432700 ) ) ;
#227 = EDGE_CURVE ( 'NONE', #121, #216, #149, .T. ) ;
#228 = PERSON_AND_ORGANIZATION ( #169, #136 ) ;
#229 = PRODUCT_DEFINITION_SHAPE ( 'NONE', 'NONE',  #188 ) ;
#230 = CARTESIAN_POINT ( 'NONE',  ( 1.546881008435264300E-014, 12.85186820706393700, -0.6597841895959466500 ) ) ;
#231 = EDGE_LOOP ( 'NONE', ( #58, #41, #223 ) ) ;
#232 = CC_DESIGN_DATE_AND_TIME_ASSIGNMENT ( #170, #68, ( #128 ) ) ;
#233 = DIRECTION ( 'NONE',  ( 1.000000000000000000, 0.0000000000000000000, 0.0000000000000000000 ) ) ;
#234 = AXIS2_PLACEMENT_3D ( 'NONE', #97, #116, #233 ) ;
#235 = CARTESIAN_POINT ( 'NONE',  ( 1.747901654925235600E-014, 4.299023413930814100, 0.2207015846657439900 ) ) ;
ENDSEC;
END-ISO-10303-21;
