ISO-10303-21;
HEADER;
FILE_DESCRIPTION (( 'STEP AP203' ),
    '1' );
FILE_NAME ('112-5223E CaF2 pl-cv 12.7 F-250.STEP',
    '2019-01-18T08:39:22',
    ( '' ),
    ( '' ),
    'SwSTEP 2.0',
    'SolidWorks 2017',
    '' );
FILE_SCHEMA (( 'CONFIG_CONTROL_DESIGN' ));
ENDSEC;

DATA;
#1 = ORIENTED_EDGE ( 'NONE', *, *, #136, .T. ) ;
#2 = AXIS2_PLACEMENT_3D ( 'NONE', #174, #160, #49 ) ;
#3 = CARTESIAN_POINT ( 'NONE',  ( -12.80824930132945400, 4.305625555928874500, -0.5196272868001339300 ) ) ;
#4 = CARTESIAN_POINT ( 'NONE',  ( -12.67902327658330300, -12.85163307389535900, -1.569723400905984200 ) ) ;
#5 = CC_DESIGN_PERSON_AND_ORGANIZATION_ASSIGNMENT ( #170, #8, ( #225 ) ) ;
#6 = CARTESIAN_POINT ( 'NONE',  ( 0.0000000000000000000, 0.0000000000000000000, 0.0000000000000000000 ) ) ;
#7 =( BOUNDED_SURFACE ( )  B_SPLINE_SURFACE ( 3, 3, ( 
 ( #86, #180, #88, #78 ),
 ( #37, #218, #22, #89 ),
 ( #219, #164, #163, #33 ),
 ( #103, #223, #143, #144 ) ),
 .UNSPECIFIED., .F., .F., .T. ) 
 B_SPLINE_SURFACE_WITH_KNOTS ( ( 4, 4 ),
 ( 4, 4 ),
 ( 0.0000000000000000000, 1.000000000000000000 ),
 ( 0.0000000000000000000, 1.000000000000000000 ),
 .UNSPECIFIED. ) 
 GEOMETRIC_REPRESENTATION_ITEM ( )  RATIONAL_B_SPLINE_SURFACE ( (
 ( 1.000000000000000000, 0.9987509816368461700, 0.9987509816368461700, 1.000000000000000000),
 ( 0.9949489651740663900, 0.9937062556461631100, 0.9937062556461631100, 0.9949489651740663900),
 ( 0.9949489651740663900, 0.9937062556461631100, 0.9937062556461631100, 0.9949489651740663900),
 ( 1.000000000000000000, 0.9987509816368461700, 0.9987509816368461700, 1.000000000000000000) ) ) 
 REPRESENTATION_ITEM ( '' )  SURFACE ( )  );
#8 = PERSON_AND_ORGANIZATION_ROLE ( 'classification_officer' ) ;
#9 = APPROVAL_ROLE ( '' ) ;
#10 = SECURITY_CLASSIFICATION_LEVEL ( 'unclassified' ) ;
#11 = APPROVAL_STATUS ( 'not_yet_approved' ) ;
#12 = EDGE_CURVE ( 'NONE', #156, #48, #227, .T. ) ;
#13 = PERSON_AND_ORGANIZATION ( #135, #172 ) ;
#14 = EDGE_LOOP ( 'NONE', ( #94, #69, #134, #1, #84 ) ) ;
#15 = AXIS2_PLACEMENT_3D ( 'NONE', #101, #18, #31 ) ;
#16 = DATE_AND_TIME ( #106, #155 ) ;
#17 = ORIENTED_EDGE ( 'NONE', *, *, #23, .F. ) ;
#18 = DIRECTION ( 'NONE',  ( 0.0000000000000000000, 0.0000000000000000000, 1.000000000000000000 ) ) ;
#19 = CYLINDRICAL_SURFACE ( 'NONE', #15, 12.69999999999999900 ) ;
#20 = CARTESIAN_POINT ( 'NONE',  ( -12.67902327658329600, 12.85163307389535000, -1.569723400905984200 ) ) ;
#21 = CARTESIAN_POINT ( 'NONE',  ( -1.214306433183765100E-014, 4.305625555928871000, 0.2655102227782347200 ) ) ;
#22 = CARTESIAN_POINT ( 'NONE',  ( 8.557535269768369100, 4.305625555928868300, 0.003470427068715995500 ) ) ;
#23 = EDGE_CURVE ( 'NONE', #48, #52, #182, .T. ) ;
#24 = APPROVAL_PERSON_ORGANIZATION ( #68, #64, #114 ) ;
#25 = CARTESIAN_POINT ( 'NONE',  ( -4.239569421452074500, -12.85163307389535900, -0.7925073641889669500 ) ) ;
#26 = PERSON_AND_ORGANIZATION_ROLE ( 'creator' ) ;
#27 = DIRECTION ( 'NONE',  ( 1.000000000000000000, 0.0000000000000000000, 0.0000000000000000000 ) ) ;
#28 = PRODUCT_DEFINITION_SHAPE ( 'NONE', 'NONE',  #199 ) ;
#29 = CALENDAR_DATE ( 2019, 18, 1 ) ;
#30 = COORDINATED_UNIVERSAL_TIME_OFFSET ( 2, 0, .AHEAD. ) ;
#31 = DIRECTION ( 'NONE',  ( 1.000000000000000000, 0.0000000000000000000, 0.0000000000000000000 ) ) ;
#32 = PRODUCT ( '112-5223E CaF2 pl-cv 12.7 F-250', '112-5223E CaF2 pl-cv 12.7 F-250', '', ( #40 ) ) ;
#33 = CARTESIAN_POINT ( 'NONE',  ( 12.80824930132943800, -4.305625555928890500, -0.5196272868001425800 ) ) ;
#34 = AXIS2_PLACEMENT_3D ( 'NONE', #145, #142, #127 ) ;
#35 = ORIENTED_EDGE ( 'NONE', *, *, #136, .F. ) ;
#36 = CARTESIAN_POINT ( 'NONE',  ( 12.69999999999999900, 2.442490654175340100E-015, -0.7738472252775801000 ) ) ;
#37 = CARTESIAN_POINT ( 'NONE',  ( 1.216154440515456900E-014, 4.305625555928871000, 0.2655102227782195600 ) ) ;
#38 = PERSON_AND_ORGANIZATION ( #135, #172 ) ;
#39 = DIRECTION ( 'NONE',  ( 0.0000000000000000000, 0.0000000000000000000, 1.000000000000000000 ) ) ;
#40 = MECHANICAL_CONTEXT ( 'NONE', #168, 'mechanical' ) ;
#41 = APPROVAL_ROLE ( '' ) ;
#42 = CC_DESIGN_PERSON_AND_ORGANIZATION_ASSIGNMENT ( #191, #165, ( #231 ) ) ;
#43 = ORIENTED_EDGE ( 'NONE', *, *, #23, .T. ) ;
#44 = DIRECTION ( 'NONE',  ( 1.000000000000000000, 0.0000000000000000000, 0.0000000000000000000 ) ) ;
#45 = CC_DESIGN_PERSON_AND_ORGANIZATION_ASSIGNMENT ( #212, #26, ( #199 ) ) ;
#46 = AXIS2_PLACEMENT_3D ( 'NONE', #235, #215, #122 ) ;
#47 = CARTESIAN_POINT ( 'NONE',  ( 7.187737991352406500E-015, -12.70000000000003500, -0.7738472252775882000 ) ) ;
#48 = VERTEX_POINT ( 'NONE', #139 ) ;
#49 = DIRECTION ( 'NONE',  ( 1.000000000000000000, 0.0000000000000000000, -0.0000000000000000000 ) ) ;
#50 = DIRECTION ( 'NONE',  ( 1.000000000000000000, 0.0000000000000000000, 0.0000000000000000000 ) ) ;
#51 = DIRECTION ( 'NONE',  ( 1.000000000000000000, -2.778066538033659800E-016, -2.400814875991999800E-016 ) ) ;
#52 = VERTEX_POINT ( 'NONE', #99 ) ;
#53 = CARTESIAN_POINT ( 'NONE',  ( -1.561251128379126400E-014, -12.85163307389536200, -0.7925073641889670600 ) ) ;
#54 = CC_DESIGN_DATE_AND_TIME_ASSIGNMENT ( #118, #205, ( #225 ) ) ;
#55 = DIRECTION ( 'NONE',  ( 1.000000000000000000, 0.0000000000000000000, 0.0000000000000000000 ) ) ;
#56 = VECTOR ( 'NONE', #183, 1000.000000000000000 ) ;
#57 = VERTEX_POINT ( 'NONE', #47 ) ;
#58 = CARTESIAN_POINT ( 'NONE',  ( 12.69999999999999900, 2.442490654175340100E-015, -0.7738472252775801000 ) ) ;
#59 = ADVANCED_FACE ( 'NONE', ( #233 ), #169, .T. ) ;
#60 = CARTESIAN_POINT ( 'NONE',  ( -12.69999999999999900, 3.997792089092478900E-015, -0.7738472252775801000 ) ) ;
#61 = VECTOR ( 'NONE', #77, 1000.000000000000000 ) ;
#62 = APPLICATION_PROTOCOL_DEFINITION ( 'international standard', 'config_control_design', 1994, #112 ) ;
#63 = APPLICATION_PROTOCOL_DEFINITION ( 'international standard', 'config_control_design', 1994, #168 ) ;
#64 = APPROVAL ( #90, 'UNSPECIFIED' ) ;
#65 = ADVANCED_FACE ( 'NONE', ( #138 ), #19, .T. ) ;
#66 = DATE_AND_TIME ( #119, #220 ) ;
#67 = APPROVAL ( #186, 'UNSPECIFIED' ) ;
#68 = PERSON_AND_ORGANIZATION ( #135, #172 ) ;
#69 = ORIENTED_EDGE ( 'NONE', *, *, #130, .T. ) ;
#70 = CIRCLE ( 'NONE', #132, 12.69999999999999900 ) ;
#71 = DIRECTION ( 'NONE',  ( 0.0000000000000000000, 0.0000000000000000000, 1.000000000000000000 ) ) ;
#72 = CARTESIAN_POINT ( 'NONE',  ( 4.996003610813200500E-016, 2.442490654175340100E-015, -0.7738472252775801000 ) ) ;
#73 = APPROVAL_DATE_TIME ( #66, #157 ) ;
#74 = CARTESIAN_POINT ( 'NONE',  ( -4.282779587646929000, 4.305625555928871900, 0.2655102227782348800 ) ) ;
#75 = EDGE_LOOP ( 'NONE', ( #189, #43, #97, #234, #35 ) ) ;
#76 = CARTESIAN_POINT ( 'NONE',  ( -1.387778780781445700E-014, -4.305625555928887000, 0.2655102227782335500 ) ) ;
#77 = DIRECTION ( 'NONE',  ( 0.0000000000000000000, 0.0000000000000000000, 1.000000000000000000 ) ) ;
#78 = CARTESIAN_POINT ( 'NONE',  ( 12.67902327658328700, 12.85163307389534300, -1.569723400905991900 ) ) ;
#79 = LOCAL_TIME ( 10, 39, 22.00000000000000000, #121 ) ;
#80 = PERSON_AND_ORGANIZATION_ROLE ( 'creator' ) ;
#81 = APPROVAL_PERSON_ORGANIZATION ( #126, #157, #41 ) ;
#82 = CARTESIAN_POINT ( 'NONE',  ( 4.996003610813200500E-016, 2.442490654175340100E-015, 3.200000000000000600 ) ) ;
#83 =( GEOMETRIC_REPRESENTATION_CONTEXT ( 3 ) GLOBAL_UNCERTAINTY_ASSIGNED_CONTEXT ( ( #194 ) ) GLOBAL_UNIT_ASSIGNED_CONTEXT ( ( #185, #149, #115 ) ) REPRESENTATION_CONTEXT ( 'NONE', 'WORKASPACE' ) );
#84 = ORIENTED_EDGE ( 'NONE', *, *, #104, .T. ) ;
#85 = MANIFOLD_SOLID_BREP ( 'Imported1', #107 ) ;
#86 = CARTESIAN_POINT ( 'NONE',  ( 1.428167172091404300E-014, 12.85163307389534600, -0.7925073641889823800 ) ) ;
#87 = AXIS2_PLACEMENT_3D ( 'NONE', #72, #204, #224 ) ;
#88 = CARTESIAN_POINT ( 'NONE',  ( 8.471195892815229600, 12.85163307389534500, -1.051903366798572000 ) ) ;
#89 = CARTESIAN_POINT ( 'NONE',  ( 12.80824930132944100, 4.305625555928867400, -0.5196272868001414700 ) ) ;
#90 = APPROVAL_STATUS ( 'not_yet_approved' ) ;
#91 = ADVANCED_FACE ( 'NONE', ( #197 ), #123, .T. ) ;
#92 = AXIS2_PLACEMENT_3D ( 'NONE', #125, #39, #55 ) ;
#93 = AXIS2_PLACEMENT_3D ( 'NONE', #217, #71, #50 ) ;
#94 = ORIENTED_EDGE ( 'NONE', *, *, #188, .F. ) ;
#95 = EDGE_CURVE ( 'NONE', #48, #57, #206, .T. ) ;
#96 = LOCAL_TIME ( 10, 39, 22.00000000000000000, #161 ) ;
#97 = ORIENTED_EDGE ( 'NONE', *, *, #188, .T. ) ;
#98 = CARTESIAN_POINT ( 'NONE',  ( 4.996003610813200500E-016, 2.442490654175340100E-015, -0.7738472252775801000 ) ) ;
#99 = CARTESIAN_POINT ( 'NONE',  ( -12.69999999999999900, 3.997792089092478900E-015, -0.7738472252775801000 ) ) ;
#100 = LINE ( 'NONE', #58, #61 ) ;
#101 = CARTESIAN_POINT ( 'NONE',  ( 4.996003610813200500E-016, 2.442490654175340100E-015, -0.7738472252775801000 ) ) ;
#102 = CC_DESIGN_APPROVAL ( #64, ( #231 ) ) ;
#103 = CARTESIAN_POINT ( 'NONE',  ( 7.141133360578971400E-015, -12.85163307389536200, -0.7925073641889823800 ) ) ;
#104 = EDGE_CURVE ( 'NONE', #190, #192, #159, .T. ) ;
#105 = CARTESIAN_POINT ( 'NONE',  ( -8.557535269768378000, -4.305625555928883400, 0.003470427068722284300 ) ) ;
#106 = CALENDAR_DATE ( 2019, 18, 1 ) ;
#107 = CLOSED_SHELL ( 'NONE', ( #109, #65, #111, #59, #91 ) ) ;
#108 = CARTESIAN_POINT ( 'NONE',  ( -8.471195892815245500, -12.85163307389535900, -1.051903366798564400 ) ) ;
#109 = ADVANCED_FACE ( 'NONE', ( #153 ), #152, .F. ) ;
#110 = CARTESIAN_POINT ( 'NONE',  ( -12.80824930132945600, -4.305625555928883400, -0.5196272868001350400 ) ) ;
#111 = ADVANCED_FACE ( 'NONE', ( #187 ), #7, .F. ) ;
#112 = APPLICATION_CONTEXT ( 'configuration controlled 3d designs of mechanical parts and assemblies' ) ;
#113 = CIRCLE ( 'NONE', #87, 12.69999999999999900 ) ;
#114 = APPROVAL_ROLE ( '' ) ;
#115 =( NAMED_UNIT ( * ) SI_UNIT ( $, .STERADIAN. ) SOLID_ANGLE_UNIT ( ) );
#116 = CC_DESIGN_APPROVAL ( #67, ( #225 ) ) ;
#117 = DATE_AND_TIME ( #29, #96 ) ;
#118 = DATE_AND_TIME ( #216, #79 ) ;
#119 = CALENDAR_DATE ( 2019, 18, 1 ) ;
#120 = DIRECTION ( 'NONE',  ( 1.000000000000000000, 0.0000000000000000000, 0.0000000000000000000 ) ) ;
#121 = COORDINATED_UNIVERSAL_TIME_OFFSET ( 2, 0, .AHEAD. ) ;
#122 = DIRECTION ( 'NONE',  ( 1.000000000000000000, 0.0000000000000000000, 0.0000000000000000000 ) ) ;
#123 = PLANE ( 'NONE',  #2 ) ;
#124 = DESIGN_CONTEXT ( 'detailed design', #112, 'design' ) ;
#125 = CARTESIAN_POINT ( 'NONE',  ( 4.996003610813200500E-016, 2.442490654175340100E-015, -0.7738472252775801000 ) ) ;
#126 = PERSON_AND_ORGANIZATION ( #135, #172 ) ;
#127 = DIRECTION ( 'NONE',  ( 1.000000000000000000, 0.0000000000000000000, 0.0000000000000000000 ) ) ;
#128 = PRODUCT_RELATED_PRODUCT_CATEGORY ( 'detail', '', ( #32 ) ) ;
#129 = CARTESIAN_POINT ( 'NONE',  ( -4.282779587646930800, -4.305625555928885200, 0.2655102227782336100 ) ) ;
#130 = EDGE_CURVE ( 'NONE', #52, #57, #113, .T. ) ;
#131 = ORIENTED_EDGE ( 'NONE', *, *, #12, .F. ) ;
#132 = AXIS2_PLACEMENT_3D ( 'NONE', #82, #207, #27 ) ;
#133 = LINE ( 'NONE', #60, #56 ) ;
#134 = ORIENTED_EDGE ( 'NONE', *, *, #151, .T. ) ;
#135 = PERSON ( 'UNSPECIFIED', 'UNSPECIFIED', 'UNSPECIFIED', ('UNSPECIFIED'), ('UNSPECIFIED'), ('UNSPECIFIED') ) ;
#136 = EDGE_CURVE ( 'NONE', #156, #190, #100, .T. ) ;
#137 = COORDINATED_UNIVERSAL_TIME_OFFSET ( 2, 0, .AHEAD. ) ;
#138 = FACE_OUTER_BOUND ( 'NONE', #75, .T. ) ;
#139 = CARTESIAN_POINT ( 'NONE',  ( 1.424402699795791900E-014, 12.70000000000002200, -0.7738472252775882000 ) ) ;
#140 = CC_DESIGN_PERSON_AND_ORGANIZATION_ASSIGNMENT ( #166, #184, ( #32 ) ) ;
#141 = ORIENTED_EDGE ( 'NONE', *, *, #95, .F. ) ;
#142 = DIRECTION ( 'NONE',  ( -0.0000000000000000000, -0.0000000000000000000, -1.000000000000000000 ) ) ;
#143 = CARTESIAN_POINT ( 'NONE',  ( 8.471195892815222500, -12.85163307389536200, -1.051903366798572000 ) ) ;
#144 = CARTESIAN_POINT ( 'NONE',  ( 12.67902327658328000, -12.85163307389536400, -1.569723400905991900 ) ) ;
#145 = CARTESIAN_POINT ( 'NONE',  ( 4.996003610813200500E-016, 2.442490654175340100E-015, 3.200000000000000600 ) ) ;
#146 = CC_DESIGN_DATE_AND_TIME_ASSIGNMENT ( #117, #208, ( #199 ) ) ;
#147 = CARTESIAN_POINT ( 'NONE',  ( -8.557535269768374400, 4.305625555928873600, 0.003470427068723368900 ) ) ;
#148 = APPROVAL_DATE_TIME ( #232, #67 ) ;
#149 =( NAMED_UNIT ( * ) PLANE_ANGLE_UNIT ( ) SI_UNIT ( $, .RADIAN. ) );
#150 = EDGE_LOOP ( 'NONE', ( #210, #175 ) ) ;
#151 = EDGE_CURVE ( 'NONE', #57, #156, #196, .T. ) ;
#152 =( BOUNDED_SURFACE ( )  B_SPLINE_SURFACE ( 3, 3, ( 
 ( #20, #158, #222, #198 ),
 ( #3, #147, #74, #21 ),
 ( #110, #105, #129, #76 ),
 ( #4, #108, #25, #53 ) ),
 .UNSPECIFIED., .F., .F., .F. ) 
 B_SPLINE_SURFACE_WITH_KNOTS ( ( 4, 4 ),
 ( 4, 4 ),
 ( 0.0000000000000000000, 1.000000000000000000 ),
 ( 0.0000000000000000000, 1.000000000000000000 ),
 .UNSPECIFIED. ) 
 GEOMETRIC_REPRESENTATION_ITEM ( )  RATIONAL_B_SPLINE_SURFACE ( (
 ( 1.000000000000000000, 0.9987509816368461700, 0.9987509816368461700, 1.000000000000000000),
 ( 0.9949489651740663900, 0.9937062556461631100, 0.9937062556461631100, 0.9949489651740663900),
 ( 0.9949489651740663900, 0.9937062556461631100, 0.9937062556461631100, 0.9949489651740663900),
 ( 1.000000000000000000, 0.9987509816368461700, 0.9987509816368461700, 1.000000000000000000) ) ) 
 REPRESENTATION_ITEM ( '' )  SURFACE ( )  );
#153 = FACE_OUTER_BOUND ( 'NONE', #162, .T. ) ;
#154 = AXIS2_PLACEMENT_3D ( 'NONE', #176, #51, #177 ) ;
#155 = LOCAL_TIME ( 10, 39, 22.00000000000000000, #209 ) ;
#156 = VERTEX_POINT ( 'NONE', #36 ) ;
#157 = APPROVAL ( #11, 'UNSPECIFIED' ) ;
#158 = CARTESIAN_POINT ( 'NONE',  ( -8.471195892815236700, 12.85163307389534800, -1.051903366798564400 ) ) ;
#159 = CIRCLE ( 'NONE', #34, 12.69999999999999900 ) ;
#160 = DIRECTION ( 'NONE',  ( 0.0000000000000000000, 0.0000000000000000000, 1.000000000000000000 ) ) ;
#161 = COORDINATED_UNIVERSAL_TIME_OFFSET ( 2, 0, .AHEAD. ) ;
#162 = EDGE_LOOP ( 'NONE', ( #17, #230, #214 ) ) ;
#163 = CARTESIAN_POINT ( 'NONE',  ( 8.557535269768365500, -4.305625555928888700, 0.003470427068714803300 ) ) ;
#164 = CARTESIAN_POINT ( 'NONE',  ( 4.282779587646921000, -4.305625555928887000, 0.2655102227782174500 ) ) ;
#165 = PERSON_AND_ORGANIZATION_ROLE ( 'design_supplier' ) ;
#166 = PERSON_AND_ORGANIZATION ( #135, #172 ) ;
#167 = CC_DESIGN_APPROVAL ( #157, ( #199 ) ) ;
#168 = APPLICATION_CONTEXT ( 'configuration controlled 3d designs of mechanical parts and assemblies' ) ;
#169 = CYLINDRICAL_SURFACE ( 'NONE', #93, 12.69999999999999900 ) ;
#170 = PERSON_AND_ORGANIZATION ( #135, #172 ) ;
#171 = LOCAL_TIME ( 10, 39, 22.00000000000000000, #137 ) ;
#172 = ORGANIZATION ( 'UNSPECIFIED', 'UNSPECIFIED', '' ) ;
#173 = AXIS2_PLACEMENT_3D ( 'NONE', #98, #195, #120 ) ;
#174 = CARTESIAN_POINT ( 'NONE',  ( 0.0000000000000000000, 26.11199999999999800, 3.200000000000000200 ) ) ;
#175 = ORIENTED_EDGE ( 'NONE', *, *, #203, .F. ) ;
#176 = CARTESIAN_POINT ( 'NONE',  ( -1.421085471520200100E-014, -1.421085471520200100E-014, -104.5999999999999900 ) ) ;
#177 = DIRECTION ( 'NONE',  ( 2.778066538033659800E-016, 1.000000000000000000, 0.0000000000000000000 ) ) ;
#178 = DIRECTION ( 'NONE',  ( 0.0000000000000000000, 0.0000000000000000000, 1.000000000000000000 ) ) ;
#179 = CARTESIAN_POINT ( 'NONE',  ( -12.69999999999999900, 3.997792089092478900E-015, 3.200000000000000600 ) ) ;
#180 = CARTESIAN_POINT ( 'NONE',  ( 4.239569421452068300, 12.85163307389534500, -0.7925073641889833800 ) ) ;
#181 = APPROVAL_PERSON_ORGANIZATION ( #38, #67, #9 ) ;
#182 = CIRCLE ( 'NONE', #46, 12.69999999999999900 ) ;
#183 = DIRECTION ( 'NONE',  ( 0.0000000000000000000, 0.0000000000000000000, 1.000000000000000000 ) ) ;
#184 = PERSON_AND_ORGANIZATION_ROLE ( 'design_owner' ) ;
#185 =( LENGTH_UNIT ( ) NAMED_UNIT ( * ) SI_UNIT ( .MILLI., .METRE. ) );
#186 = APPROVAL_STATUS ( 'not_yet_approved' ) ;
#187 = FACE_OUTER_BOUND ( 'NONE', #221, .T. ) ;
#188 = EDGE_CURVE ( 'NONE', #52, #192, #133, .T. ) ;
#189 = ORIENTED_EDGE ( 'NONE', *, *, #12, .T. ) ;
#190 = VERTEX_POINT ( 'NONE', #201 ) ;
#191 = PERSON_AND_ORGANIZATION ( #135, #172 ) ;
#192 = VERTEX_POINT ( 'NONE', #179 ) ;
#193 = AXIS2_PLACEMENT_3D ( 'NONE', #6, #178, #44 ) ;
#194 = UNCERTAINTY_MEASURE_WITH_UNIT (LENGTH_MEASURE( 1.000000000000000100E-005 ), #185, 'distance_accuracy_value', 'NONE');
#195 = DIRECTION ( 'NONE',  ( 0.0000000000000000000, 0.0000000000000000000, 1.000000000000000000 ) ) ;
#196 = CIRCLE ( 'NONE', #92, 12.69999999999999900 ) ;
#197 = FACE_OUTER_BOUND ( 'NONE', #150, .T. ) ;
#198 = CARTESIAN_POINT ( 'NONE',  ( -8.673617379884035500E-015, 12.85163307389534600, -0.7925073641889670600 ) ) ;
#199 = PRODUCT_DEFINITION ( 'UNKNOWN', '', #231, #124 ) ;
#200 = APPROVAL_DATE_TIME ( #16, #64 ) ;
#201 = CARTESIAN_POINT ( 'NONE',  ( 12.69999999999999900, 2.442490654175340100E-015, 3.200000000000000600 ) ) ;
#202 = ORIENTED_EDGE ( 'NONE', *, *, #151, .F. ) ;
#203 = EDGE_CURVE ( 'NONE', #192, #190, #70, .T. ) ;
#204 = DIRECTION ( 'NONE',  ( 0.0000000000000000000, 0.0000000000000000000, 1.000000000000000000 ) ) ;
#205 = DATE_TIME_ROLE ( 'classification_date' ) ;
#206 = CIRCLE ( 'NONE', #154, 104.5999999999999900 ) ;
#207 = DIRECTION ( 'NONE',  ( -0.0000000000000000000, -0.0000000000000000000, -1.000000000000000000 ) ) ;
#208 = DATE_TIME_ROLE ( 'creation_date' ) ;
#209 = COORDINATED_UNIVERSAL_TIME_OFFSET ( 2, 0, .AHEAD. ) ;
#210 = ORIENTED_EDGE ( 'NONE', *, *, #104, .F. ) ;
#211 = CC_DESIGN_SECURITY_CLASSIFICATION ( #225, ( #231 ) ) ;
#212 = PERSON_AND_ORGANIZATION ( #135, #172 ) ;
#213 = CC_DESIGN_PERSON_AND_ORGANIZATION_ASSIGNMENT ( #13, #80, ( #231 ) ) ;
#214 = ORIENTED_EDGE ( 'NONE', *, *, #130, .F. ) ;
#215 = DIRECTION ( 'NONE',  ( 0.0000000000000000000, 0.0000000000000000000, 1.000000000000000000 ) ) ;
#216 = CALENDAR_DATE ( 2019, 18, 1 ) ;
#217 = CARTESIAN_POINT ( 'NONE',  ( 4.996003610813200500E-016, 2.442490654175340100E-015, -0.7738472252775801000 ) ) ;
#218 = CARTESIAN_POINT ( 'NONE',  ( 4.282779587646923700, 4.305625555928870100, 0.2655102227782185600 ) ) ;
#219 = CARTESIAN_POINT ( 'NONE',  ( 9.769281548708846700E-015, -4.305625555928887000, 0.2655102227782184500 ) ) ;
#220 = LOCAL_TIME ( 10, 39, 22.00000000000000000, #30 ) ;
#221 = EDGE_LOOP ( 'NONE', ( #141, #131, #202 ) ) ;
#222 = CARTESIAN_POINT ( 'NONE',  ( -4.239569421452067400, 12.85163307389534800, -0.7925073641889669500 ) ) ;
#223 = CARTESIAN_POINT ( 'NONE',  ( 4.239569421452061200, -12.85163307389536200, -0.7925073641889833800 ) ) ;
#224 = DIRECTION ( 'NONE',  ( 1.000000000000000000, 0.0000000000000000000, 0.0000000000000000000 ) ) ;
#225 = SECURITY_CLASSIFICATION ( '', '', #10 ) ;
#226 = CALENDAR_DATE ( 2019, 18, 1 ) ;
#227 = CIRCLE ( 'NONE', #173, 12.69999999999999900 ) ;
#228 = ADVANCED_BREP_SHAPE_REPRESENTATION ( '112-5223E CaF2 pl-cv 12.7 F-250', ( #85, #193 ), #83 ) ;
#229 = SHAPE_DEFINITION_REPRESENTATION ( #28, #228 ) ;
#230 = ORIENTED_EDGE ( 'NONE', *, *, #95, .T. ) ;
#231 = PRODUCT_DEFINITION_FORMATION_WITH_SPECIFIED_SOURCE ( 'ANY', '', #32, .NOT_KNOWN. ) ;
#232 = DATE_AND_TIME ( #226, #171 ) ;
#233 = FACE_OUTER_BOUND ( 'NONE', #14, .T. ) ;
#234 = ORIENTED_EDGE ( 'NONE', *, *, #203, .T. ) ;
#235 = CARTESIAN_POINT ( 'NONE',  ( 4.996003610813200500E-016, 2.442490654175340100E-015, -0.7738472252775801000 ) ) ;
ENDSEC;
END-ISO-10303-21;
