ISO-10303-21;
HEADER;
FILE_DESCRIPTION (( 'STEP AP203' ),
    '1' );
FILE_NAME ('112-5219E CaF2 pl-cv 12.7 F-200.STEP',
    '2019-01-18T08:20:51',
    ( '' ),
    ( '' ),
    'SwSTEP 2.0',
    'SolidWorks 2017',
    '' );
FILE_SCHEMA (( 'CONFIG_CONTROL_DESIGN' ));
ENDSEC;

DATA;
#1 = CARTESIAN_POINT ( 'NONE',  ( -12.69999999999999900, 3.997792089092478900E-015, 3.000000000000000000 ) ) ;
#2 = CARTESIAN_POINT ( 'NONE',  ( 4.996003610813200500E-016, 2.442490654175340100E-015, -0.9696970252285529400 ) ) ;
#3 = CARTESIAN_POINT ( 'NONE',  ( -12.69999999999999900, 3.997792089092478900E-015, -0.9696970252285529400 ) ) ;
#4 = DATE_AND_TIME ( #211, #195 ) ;
#5 = CIRCLE ( 'NONE', #120, 12.69999999999999900 ) ;
#6 = DATE_AND_TIME ( #148, #171 ) ;
#7 = PRODUCT_DEFINITION_FORMATION_WITH_SPECIFIED_SOURCE ( 'ANY', '', #183, .NOT_KNOWN. ) ;
#8 =( LENGTH_UNIT ( ) NAMED_UNIT ( * ) SI_UNIT ( .MILLI., .METRE. ) );
#9 = CARTESIAN_POINT ( 'NONE',  ( -4.683753385137379200E-014, 4.317906020355729300, 0.3336617277543712000 ) ) ;
#10 = CARTESIAN_POINT ( 'NONE',  ( -4.228655164328024800, 12.85119678140680000, -0.9930629572716333000 ) ) ;
#11 = LINE ( 'NONE', #44, #220 ) ;
#12 = PERSON_AND_ORGANIZATION_ROLE ( 'design_supplier' ) ;
#13 = APPROVAL_STATUS ( 'not_yet_approved' ) ;
#14 = DIRECTION ( 'NONE',  ( 1.000000000000000000, 0.0000000000000000000, 0.0000000000000000000 ) ) ;
#15 = DIRECTION ( 'NONE',  ( 1.000000000000000000, 0.0000000000000000000, 0.0000000000000000000 ) ) ;
#16 = APPROVAL_DATE_TIME ( #4, #33 ) ;
#17 = CC_DESIGN_APPROVAL ( #175, ( #7 ) ) ;
#18 = SHAPE_DEFINITION_REPRESENTATION ( #52, #59 ) ;
#19 = CC_DESIGN_DATE_AND_TIME_ASSIGNMENT ( #143, #168, ( #196 ) ) ;
#20 = ORIENTED_EDGE ( 'NONE', *, *, #100, .T. ) ;
#21 = DIRECTION ( 'NONE',  ( 0.0000000000000000000, 0.0000000000000000000, 1.000000000000000000 ) ) ;
#22 = DIRECTION ( 'NONE',  ( 0.0000000000000000000, 0.0000000000000000000, 1.000000000000000000 ) ) ;
#23 = CARTESIAN_POINT ( 'NONE',  ( -2.671265854865550000E-014, 4.317906020355730200, 0.3336617277543624800 ) ) ;
#24 = VERTEX_POINT ( 'NONE', #3 ) ;
#25 =( NAMED_UNIT ( * ) SI_UNIT ( $, .STERADIAN. ) SOLID_ANGLE_UNIT ( ) );
#26 = CARTESIAN_POINT ( 'NONE',  ( -12.82656284812801300, -4.317906020355726700, -0.6515980713791297300 ) ) ;
#27 = CARTESIAN_POINT ( 'NONE',  ( -2.371272548946064700E-014, -4.317906020355721400, 0.3336617277543615900 ) ) ;
#28 = CARTESIAN_POINT ( 'NONE',  ( 8.444889902097470400, -12.85119678140679000, -1.316928878330977400 ) ) ;
#29 = CARTESIAN_POINT ( 'NONE',  ( -8.580438644844246500, -4.317906020355726700, 0.004597441893708972100 ) ) ;
#30 = ORIENTED_EDGE ( 'NONE', *, *, #63, .F. ) ;
#31 = DIRECTION ( 'NONE',  ( -0.0000000000000000000, -0.0000000000000000000, -1.000000000000000000 ) ) ;
#32 = PERSON_AND_ORGANIZATION ( #182, #71 ) ;
#33 = APPROVAL ( #154, 'UNSPECIFIED' ) ;
#34 = ADVANCED_FACE ( 'NONE', ( #90 ), #192, .T. ) ;
#35 = UNCERTAINTY_MEASURE_WITH_UNIT (LENGTH_MEASURE( 1.000000000000000100E-005 ), #8, 'distance_accuracy_value', 'NONE');
#36 = AXIS2_PLACEMENT_3D ( 'NONE', #2, #21, #41 ) ;
#37 = EDGE_LOOP ( 'NONE', ( #225, #177, #213, #162, #68 ) ) ;
#38 = CIRCLE ( 'NONE', #74, 12.69999999999999900 ) ;
#39 = DATE_AND_TIME ( #83, #77 ) ;
#40 = VERTEX_POINT ( 'NONE', #197 ) ;
#41 = DIRECTION ( 'NONE',  ( 1.000000000000000000, 0.0000000000000000000, 0.0000000000000000000 ) ) ;
#42 = CC_DESIGN_PERSON_AND_ORGANIZATION_ASSIGNMENT ( #60, #124, ( #7 ) ) ;
#43 = EDGE_CURVE ( 'NONE', #94, #159, #11, .T. ) ;
#44 = CARTESIAN_POINT ( 'NONE',  ( 12.69999999999999900, 2.442490654175340100E-015, -0.9696970252285529400 ) ) ;
#45 = FACE_OUTER_BOUND ( 'NONE', #65, .T. ) ;
#46 = CARTESIAN_POINT ( 'NONE',  ( 4.296529215698591900, 4.317906020355732000, 0.3336617277543638100 ) ) ;
#47 = CARTESIAN_POINT ( 'NONE',  ( 4.296529215698595500, -4.317906020355721400, 0.3336617277543629200 ) ) ;
#48 = DIRECTION ( 'NONE',  ( 1.000000000000000000, 0.0000000000000000000, 0.0000000000000000000 ) ) ;
#49 = CARTESIAN_POINT ( 'NONE',  ( -4.296529215698641700, -4.317906020355725800, 0.3336617277543680300 ) ) ;
#50 = CARTESIAN_POINT ( 'NONE',  ( 4.996003610813200500E-016, 2.442490654175340100E-015, -0.9696970252285529400 ) ) ;
#51 = CALENDAR_DATE ( 2019, 18, 1 ) ;
#52 = PRODUCT_DEFINITION_SHAPE ( 'NONE', 'NONE',  #114 ) ;
#53 = AXIS2_PLACEMENT_3D ( 'NONE', #91, #110, #172 ) ;
#54 = AXIS2_PLACEMENT_3D ( 'NONE', #199, #161, #81 ) ;
#55 = ORIENTED_EDGE ( 'NONE', *, *, #127, .T. ) ;
#56 = CARTESIAN_POINT ( 'NONE',  ( 12.69999999999999900, 2.442490654175340100E-015, -0.9696970252285529400 ) ) ;
#57 = AXIS2_PLACEMENT_3D ( 'NONE', #151, #104, #48 ) ;
#58 = AXIS2_PLACEMENT_3D ( 'NONE', #78, #130, #75 ) ;
#59 = ADVANCED_BREP_SHAPE_REPRESENTATION ( '112-5219E CaF2 pl-cv 12.7 F-200', ( #79, #57 ), #190 ) ;
#60 = PERSON_AND_ORGANIZATION ( #182, #71 ) ;
#61 = AXIS2_PLACEMENT_3D ( 'NONE', #86, #203, #87 ) ;
#62 = APPLICATION_CONTEXT ( 'configuration controlled 3d designs of mechanical parts and assemblies' ) ;
#63 = EDGE_CURVE ( 'NONE', #125, #94, #147, .T. ) ;
#64 = APPLICATION_PROTOCOL_DEFINITION ( 'international standard', 'config_control_design', 1994, #163 ) ;
#65 = EDGE_LOOP ( 'NONE', ( #131, #123 ) ) ;
#66 = APPLICATION_PROTOCOL_DEFINITION ( 'international standard', 'config_control_design', 1994, #62 ) ;
#67 = CARTESIAN_POINT ( 'NONE',  ( -8.580438644844250000, 4.317906020355727600, 0.004597441893709839500 ) ) ;
#68 = ORIENTED_EDGE ( 'NONE', *, *, #43, .F. ) ;
#69 = CARTESIAN_POINT ( 'NONE',  ( -12.62393632286632100, 12.85119678140679500, -1.962758199326022800 ) ) ;
#70 = CC_DESIGN_APPROVAL ( #33, ( #196 ) ) ;
#71 = ORGANIZATION ( 'UNSPECIFIED', 'UNSPECIFIED', '' ) ;
#72 = ADVANCED_FACE ( 'NONE', ( #138 ), #102, .T. ) ;
#73 = EDGE_LOOP ( 'NONE', ( #208, #20, #82 ) ) ;
#74 = AXIS2_PLACEMENT_3D ( 'NONE', #194, #210, #92 ) ;
#75 = DIRECTION ( 'NONE',  ( -3.473828569973949900E-016, 1.000000000000000000, 0.0000000000000000000 ) ) ;
#76 = ORIENTED_EDGE ( 'NONE', *, *, #115, .F. ) ;
#77 = LOCAL_TIME ( 10, 20, 51.00000000000000000, #98 ) ;
#78 = CARTESIAN_POINT ( 'NONE',  ( 0.0000000000000000000, 0.0000000000000000000, -83.65000000000000600 ) ) ;
#79 = MANIFOLD_SOLID_BREP ( 'Imported1', #229 ) ;
#80 = APPROVAL ( #184, 'UNSPECIFIED' ) ;
#81 = DIRECTION ( 'NONE',  ( 1.000000000000000000, 0.0000000000000000000, 0.0000000000000000000 ) ) ;
#82 = ORIENTED_EDGE ( 'NONE', *, *, #127, .F. ) ;
#83 = CALENDAR_DATE ( 2019, 18, 1 ) ;
#84 = CC_DESIGN_SECURITY_CLASSIFICATION ( #196, ( #7 ) ) ;
#85 = APPROVAL_PERSON_ORGANIZATION ( #233, #33, #206 ) ;
#86 = CARTESIAN_POINT ( 'NONE',  ( 4.996003610813200500E-016, 2.442490654175340100E-015, 3.000000000000000000 ) ) ;
#87 = DIRECTION ( 'NONE',  ( 1.000000000000000000, 0.0000000000000000000, 0.0000000000000000000 ) ) ;
#88 = PERSON_AND_ORGANIZATION_ROLE ( 'creator' ) ;
#89 = CARTESIAN_POINT ( 'NONE',  ( -3.989863994746656300E-014, -12.85119678140679200, -0.9930629572716314100 ) ) ;
#90 = FACE_OUTER_BOUND ( 'NONE', #37, .T. ) ;
#91 = CARTESIAN_POINT ( 'NONE',  ( 0.0000000000000000000, 26.11199999999999800, 3.000000000000000000 ) ) ;
#92 = DIRECTION ( 'NONE',  ( 1.000000000000000000, 0.0000000000000000000, 0.0000000000000000000 ) ) ;
#93 = CARTESIAN_POINT ( 'NONE',  ( -8.444889902097498800, 12.85119678140679900, -1.316928878330969400 ) ) ;
#94 = VERTEX_POINT ( 'NONE', #56 ) ;
#95 = AXIS2_PLACEMENT_3D ( 'NONE', #117, #132, #101 ) ;
#96 = EDGE_CURVE ( 'NONE', #40, #24, #186, .T. ) ;
#97 = ORIENTED_EDGE ( 'NONE', *, *, #100, .F. ) ;
#98 = COORDINATED_UNIVERSAL_TIME_OFFSET ( 2, 0, .AHEAD. ) ;
#99 = VERTEX_POINT ( 'NONE', #1 ) ;
#100 = EDGE_CURVE ( 'NONE', #40, #125, #107, .T. ) ;
#101 = DIRECTION ( 'NONE',  ( 1.000000000000000000, 0.0000000000000000000, 0.0000000000000000000 ) ) ;
#102 = CYLINDRICAL_SURFACE ( 'NONE', #95, 12.69999999999999900 ) ;
#103 = LOCAL_TIME ( 10, 20, 51.00000000000000000, #145 ) ;
#104 = DIRECTION ( 'NONE',  ( 0.0000000000000000000, 0.0000000000000000000, 1.000000000000000000 ) ) ;
#105 = PERSON_AND_ORGANIZATION_ROLE ( 'design_owner' ) ;
#106 = LOCAL_TIME ( 10, 20, 51.00000000000000000, #121 ) ;
#107 = CIRCLE ( 'NONE', #58, 83.65000000000000600 ) ;
#108 = DATE_TIME_ROLE ( 'creation_date' ) ;
#109 = PERSON_AND_ORGANIZATION ( #182, #71 ) ;
#110 = DIRECTION ( 'NONE',  ( 0.0000000000000000000, 0.0000000000000000000, 1.000000000000000000 ) ) ;
#111 = CARTESIAN_POINT ( 'NONE',  ( 8.580438644844219800, -4.317906020355720500, 0.004597441893701382700 ) ) ;
#112 = PERSON_AND_ORGANIZATION ( #182, #71 ) ;
#113 = CARTESIAN_POINT ( 'NONE',  ( -12.69999999999999900, 3.997792089092478900E-015, -0.9696970252285529400 ) ) ;
#114 = PRODUCT_DEFINITION ( 'UNKNOWN', '', #7, #219 ) ;
#115 = EDGE_CURVE ( 'NONE', #94, #40, #38, .T. ) ;
#116 = COORDINATED_UNIVERSAL_TIME_OFFSET ( 2, 0, .AHEAD. ) ;
#117 = CARTESIAN_POINT ( 'NONE',  ( 4.996003610813200500E-016, 2.442490654175340100E-015, -0.9696970252285529400 ) ) ;
#118 = EDGE_LOOP ( 'NONE', ( #178, #55, #149, #158, #202 ) ) ;
#119 = CIRCLE ( 'NONE', #61, 12.69999999999999900 ) ;
#120 = AXIS2_PLACEMENT_3D ( 'NONE', #50, #155, #15 ) ;
#121 = COORDINATED_UNIVERSAL_TIME_OFFSET ( 2, 0, .AHEAD. ) ;
#122 = CARTESIAN_POINT ( 'NONE',  ( -4.296529215698645200, 4.317906020355727600, 0.3336617277543688600 ) ) ;
#123 = ORIENTED_EDGE ( 'NONE', *, *, #165, .F. ) ;
#124 = PERSON_AND_ORGANIZATION_ROLE ( 'creator' ) ;
#125 = VERTEX_POINT ( 'NONE', #141 ) ;
#126 = CARTESIAN_POINT ( 'NONE',  ( -2.035011122797227700E-014, -12.85119678140679200, -0.9930629572716398500 ) ) ;
#127 = EDGE_CURVE ( 'NONE', #24, #125, #5, .T. ) ;
#128 = APPROVAL_DATE_TIME ( #170, #175 ) ;
#129 = CARTESIAN_POINT ( 'NONE',  ( 4.228655164327965300, 12.85119678140680400, -0.9930629572716382900 ) ) ;
#130 = DIRECTION ( 'NONE',  ( 1.000000000000000000, 3.473828569973949900E-016, 3.002094871832189900E-016 ) ) ;
#131 = ORIENTED_EDGE ( 'NONE', *, *, #222, .F. ) ;
#132 = DIRECTION ( 'NONE',  ( 0.0000000000000000000, 0.0000000000000000000, 1.000000000000000000 ) ) ;
#133 = VECTOR ( 'NONE', #207, 1000.000000000000000 ) ;
#134 = CARTESIAN_POINT ( 'NONE',  ( 12.62393632286630300, 12.85119678140680600, -1.962758199326033200 ) ) ;
#135 = SECURITY_CLASSIFICATION_LEVEL ( 'unclassified' ) ;
#136 = CARTESIAN_POINT ( 'NONE',  ( -5.030698080332740600E-014, 12.85119678140680000, -0.9930629572716311900 ) ) ;
#137 = PERSON_AND_ORGANIZATION_ROLE ( 'classification_officer' ) ;
#138 = FACE_OUTER_BOUND ( 'NONE', #118, .T. ) ;
#139 = APPROVAL_PERSON_ORGANIZATION ( #179, #80, #223 ) ;
#140 = CC_DESIGN_PERSON_AND_ORGANIZATION_ASSIGNMENT ( #188, #88, ( #114 ) ) ;
#141 = CARTESIAN_POINT ( 'NONE',  ( -2.040964907234240600E-014, -12.69999999999997400, -0.9696970252285430600 ) ) ;
#142 = ADVANCED_FACE ( 'NONE', ( #144 ), #205, .F. ) ;
#143 = DATE_AND_TIME ( #231, #106 ) ;
#144 = FACE_OUTER_BOUND ( 'NONE', #217, .T. ) ;
#145 = COORDINATED_UNIVERSAL_TIME_OFFSET ( 2, 0, .AHEAD. ) ;
#146 = DIRECTION ( 'NONE',  ( 1.000000000000000000, 0.0000000000000000000, 0.0000000000000000000 ) ) ;
#147 = CIRCLE ( 'NONE', #164, 12.69999999999999900 ) ;
#148 = CALENDAR_DATE ( 2019, 18, 1 ) ;
#149 = ORIENTED_EDGE ( 'NONE', *, *, #63, .T. ) ;
#150 = CARTESIAN_POINT ( 'NONE',  ( -4.228655164328015000, -12.85119678140679500, -0.9930629572716333000 ) ) ;
#151 = CARTESIAN_POINT ( 'NONE',  ( 0.0000000000000000000, 0.0000000000000000000, 0.0000000000000000000 ) ) ;
#152 = CARTESIAN_POINT ( 'NONE',  ( -4.336808689942017100E-014, -4.317906020355722200, 0.3336617277543703100 ) ) ;
#153 = MECHANICAL_CONTEXT ( 'NONE', #62, 'mechanical' ) ;
#154 = APPROVAL_STATUS ( 'not_yet_approved' ) ;
#155 = DIRECTION ( 'NONE',  ( 0.0000000000000000000, 0.0000000000000000000, 1.000000000000000000 ) ) ;
#156 =( BOUNDED_SURFACE ( )  B_SPLINE_SURFACE ( 3, 3, ( 
 ( #69, #93, #10, #136 ),
 ( #187, #67, #122, #9 ),
 ( #26, #29, #49, #152 ),
 ( #166, #185, #150, #89 ) ),
 .UNSPECIFIED., .F., .F., .F. ) 
 B_SPLINE_SURFACE_WITH_KNOTS ( ( 4, 4 ),
 ( 4, 4 ),
 ( 0.0000000000000000000, 1.000000000000000000 ),
 ( 0.0000000000000000000, 1.000000000000000000 ),
 .UNSPECIFIED. ) 
 GEOMETRIC_REPRESENTATION_ITEM ( )  RATIONAL_B_SPLINE_SURFACE ( (
 ( 1.000000000000000000, 0.9980418634174327300, 0.9980418634174327300, 1.000000000000000000),
 ( 0.9920855711713756400, 0.9901429321214277900, 0.9901429321214277900, 0.9920855711713756400),
 ( 0.9920855711713756400, 0.9901429321214277900, 0.9901429321214277900, 0.9920855711713756400),
 ( 1.000000000000000000, 0.9980418634174327300, 0.9980418634174327300, 1.000000000000000000) ) ) 
 REPRESENTATION_ITEM ( '' )  SURFACE ( )  );
#157 = EDGE_CURVE ( 'NONE', #24, #99, #173, .T. ) ;
#158 = ORIENTED_EDGE ( 'NONE', *, *, #43, .T. ) ;
#159 = VERTEX_POINT ( 'NONE', #226 ) ;
#160 = AXIS2_PLACEMENT_3D ( 'NONE', #230, #31, #14 ) ;
#161 = DIRECTION ( 'NONE',  ( 0.0000000000000000000, 0.0000000000000000000, 1.000000000000000000 ) ) ;
#162 = ORIENTED_EDGE ( 'NONE', *, *, #165, .T. ) ;
#163 = APPLICATION_CONTEXT ( 'configuration controlled 3d designs of mechanical parts and assemblies' ) ;
#164 = AXIS2_PLACEMENT_3D ( 'NONE', #218, #180, #146 ) ;
#165 = EDGE_CURVE ( 'NONE', #99, #159, #234, .T. ) ;
#166 = CARTESIAN_POINT ( 'NONE',  ( -12.62393632286631000, -12.85119678140679700, -1.962758199326022800 ) ) ;
#167 = CARTESIAN_POINT ( 'NONE',  ( 12.82656284812800800, 4.317906020355734700, -0.6515980713791390500 ) ) ;
#168 = DATE_TIME_ROLE ( 'classification_date' ) ;
#169 = CARTESIAN_POINT ( 'NONE',  ( 12.62393632286631200, -12.85119678140678600, -1.962758199326033200 ) ) ;
#170 = DATE_AND_TIME ( #51, #103 ) ;
#171 = LOCAL_TIME ( 10, 20, 51.00000000000000000, #221 ) ;
#172 = DIRECTION ( 'NONE',  ( 1.000000000000000000, 0.0000000000000000000, -0.0000000000000000000 ) ) ;
#173 = LINE ( 'NONE', #113, #133 ) ;
#174 = CARTESIAN_POINT ( 'NONE',  ( -2.927868213549392200E-014, 12.85119678140680000, -0.9930629572716398500 ) ) ;
#175 = APPROVAL ( #13, 'UNSPECIFIED' ) ;
#176 = PRODUCT_RELATED_PRODUCT_CATEGORY ( 'detail', '', ( #183 ) ) ;
#177 = ORIENTED_EDGE ( 'NONE', *, *, #96, .T. ) ;
#178 = ORIENTED_EDGE ( 'NONE', *, *, #157, .F. ) ;
#179 = PERSON_AND_ORGANIZATION ( #182, #71 ) ;
#180 = DIRECTION ( 'NONE',  ( 0.0000000000000000000, 0.0000000000000000000, 1.000000000000000000 ) ) ;
#181 = CC_DESIGN_PERSON_AND_ORGANIZATION_ASSIGNMENT ( #216, #12, ( #7 ) ) ;
#182 = PERSON ( 'UNSPECIFIED', 'UNSPECIFIED', 'UNSPECIFIED', ('UNSPECIFIED'), ('UNSPECIFIED'), ('UNSPECIFIED') ) ;
#183 = PRODUCT ( '112-5219E CaF2 pl-cv 12.7 F-200', '112-5219E CaF2 pl-cv 12.7 F-200', '', ( #153 ) ) ;
#184 = APPROVAL_STATUS ( 'not_yet_approved' ) ;
#185 = CARTESIAN_POINT ( 'NONE',  ( -8.444889902097488100, -12.85119678140679700, -1.316928878330969400 ) ) ;
#186 = CIRCLE ( 'NONE', #36, 12.69999999999999900 ) ;
#187 = CARTESIAN_POINT ( 'NONE',  ( -12.82656284812801700, 4.317906020355724900, -0.6515980713791288400 ) ) ;
#188 = PERSON_AND_ORGANIZATION ( #182, #71 ) ;
#189 = PLANE ( 'NONE',  #53 ) ;
#190 =( GEOMETRIC_REPRESENTATION_CONTEXT ( 3 ) GLOBAL_UNCERTAINTY_ASSIGNED_CONTEXT ( ( #35 ) ) GLOBAL_UNIT_ASSIGNED_CONTEXT ( ( #8, #204, #25 ) ) REPRESENTATION_CONTEXT ( 'NONE', 'WORKASPACE' ) );
#191 = CARTESIAN_POINT ( 'NONE',  ( 4.228655164327975100, -12.85119678140679200, -0.9930629572716382900 ) ) ;
#192 = CYLINDRICAL_SURFACE ( 'NONE', #54, 12.69999999999999900 ) ;
#193 = APPROVAL_DATE_TIME ( #39, #80 ) ;
#194 = CARTESIAN_POINT ( 'NONE',  ( 4.996003610813200500E-016, 2.442490654175340100E-015, -0.9696970252285529400 ) ) ;
#195 = LOCAL_TIME ( 10, 20, 51.00000000000000000, #116 ) ;
#196 = SECURITY_CLASSIFICATION ( '', '', #135 ) ;
#197 = CARTESIAN_POINT ( 'NONE',  ( -2.923317364007622500E-014, 12.69999999999997800, -0.9696970252285430600 ) ) ;
#198 = CC_DESIGN_PERSON_AND_ORGANIZATION_ASSIGNMENT ( #109, #105, ( #183 ) ) ;
#199 = CARTESIAN_POINT ( 'NONE',  ( 4.996003610813200500E-016, 2.442490654175340100E-015, -0.9696970252285529400 ) ) ;
#200 = CARTESIAN_POINT ( 'NONE',  ( 8.444889902097459700, 12.85119678140680600, -1.316928878330977400 ) ) ;
#201 = CARTESIAN_POINT ( 'NONE',  ( 8.580438644844218000, 4.317906020355732900, 0.004597441893702358500 ) ) ;
#202 = ORIENTED_EDGE ( 'NONE', *, *, #222, .T. ) ;
#203 = DIRECTION ( 'NONE',  ( -0.0000000000000000000, -0.0000000000000000000, -1.000000000000000000 ) ) ;
#204 =( NAMED_UNIT ( * ) PLANE_ANGLE_UNIT ( ) SI_UNIT ( $, .RADIAN. ) );
#205 =( BOUNDED_SURFACE ( )  B_SPLINE_SURFACE ( 3, 3, ( 
 ( #174, #129, #200, #134 ),
 ( #23, #46, #201, #167 ),
 ( #27, #47, #111, #228 ),
 ( #126, #191, #28, #169 ) ),
 .UNSPECIFIED., .F., .F., .F. ) 
 B_SPLINE_SURFACE_WITH_KNOTS ( ( 4, 4 ),
 ( 4, 4 ),
 ( 0.0000000000000000000, 1.000000000000000000 ),
 ( 0.0000000000000000000, 1.000000000000000000 ),
 .UNSPECIFIED. ) 
 GEOMETRIC_REPRESENTATION_ITEM ( )  RATIONAL_B_SPLINE_SURFACE ( (
 ( 1.000000000000000000, 0.9980418634174327300, 0.9980418634174327300, 1.000000000000000000),
 ( 0.9920855711713756400, 0.9901429321214277900, 0.9901429321214277900, 0.9920855711713756400),
 ( 0.9920855711713756400, 0.9901429321214277900, 0.9901429321214277900, 0.9920855711713756400),
 ( 1.000000000000000000, 0.9980418634174327300, 0.9980418634174327300, 1.000000000000000000) ) ) 
 REPRESENTATION_ITEM ( '' )  SURFACE ( )  );
#206 = APPROVAL_ROLE ( '' ) ;
#207 = DIRECTION ( 'NONE',  ( 0.0000000000000000000, 0.0000000000000000000, 1.000000000000000000 ) ) ;
#208 = ORIENTED_EDGE ( 'NONE', *, *, #96, .F. ) ;
#209 = CC_DESIGN_PERSON_AND_ORGANIZATION_ASSIGNMENT ( #112, #137, ( #196 ) ) ;
#210 = DIRECTION ( 'NONE',  ( 0.0000000000000000000, 0.0000000000000000000, 1.000000000000000000 ) ) ;
#211 = CALENDAR_DATE ( 2019, 18, 1 ) ;
#212 = ADVANCED_FACE ( 'NONE', ( #45 ), #189, .T. ) ;
#213 = ORIENTED_EDGE ( 'NONE', *, *, #157, .T. ) ;
#214 = CC_DESIGN_APPROVAL ( #80, ( #114 ) ) ;
#215 = APPROVAL_PERSON_ORGANIZATION ( #32, #175, #224 ) ;
#216 = PERSON_AND_ORGANIZATION ( #182, #71 ) ;
#217 = EDGE_LOOP ( 'NONE', ( #97, #76, #30 ) ) ;
#218 = CARTESIAN_POINT ( 'NONE',  ( 4.996003610813200500E-016, 2.442490654175340100E-015, -0.9696970252285529400 ) ) ;
#219 = DESIGN_CONTEXT ( 'detailed design', #163, 'design' ) ;
#220 = VECTOR ( 'NONE', #22, 1000.000000000000000 ) ;
#221 = COORDINATED_UNIVERSAL_TIME_OFFSET ( 2, 0, .AHEAD. ) ;
#222 = EDGE_CURVE ( 'NONE', #159, #99, #119, .T. ) ;
#223 = APPROVAL_ROLE ( '' ) ;
#224 = APPROVAL_ROLE ( '' ) ;
#225 = ORIENTED_EDGE ( 'NONE', *, *, #115, .T. ) ;
#226 = CARTESIAN_POINT ( 'NONE',  ( 12.69999999999999900, 2.442490654175340100E-015, 3.000000000000000000 ) ) ;
#227 = CC_DESIGN_DATE_AND_TIME_ASSIGNMENT ( #6, #108, ( #114 ) ) ;
#228 = CARTESIAN_POINT ( 'NONE',  ( 12.82656284812801000, -4.317906020355716900, -0.6515980713791399400 ) ) ;
#229 = CLOSED_SHELL ( 'NONE', ( #232, #34, #142, #72, #212 ) ) ;
#230 = CARTESIAN_POINT ( 'NONE',  ( 4.996003610813200500E-016, 2.442490654175340100E-015, 3.000000000000000000 ) ) ;
#231 = CALENDAR_DATE ( 2019, 18, 1 ) ;
#232 = ADVANCED_FACE ( 'NONE', ( #235 ), #156, .F. ) ;
#233 = PERSON_AND_ORGANIZATION ( #182, #71 ) ;
#234 = CIRCLE ( 'NONE', #160, 12.69999999999999900 ) ;
#235 = FACE_OUTER_BOUND ( 'NONE', #73, .T. ) ;
ENDSEC;
END-ISO-10303-21;
