ISO-10303-21;
HEADER;
FILE_DESCRIPTION (( 'STEP AP203' ),
    '1' );
FILE_NAME ('112-5217E CaF2 pl-cv 12.7 F-150.STEP',
    '2019-01-18T08:06:23',
    ( '' ),
    ( '' ),
    'SwSTEP 2.0',
    'SolidWorks 2017',
    '' );
FILE_SCHEMA (( 'CONFIG_CONTROL_DESIGN' ));
ENDSEC;

DATA;
#1 = ORIENTED_EDGE ( 'NONE', *, *, #35, .F. ) ;
#2 = APPROVAL ( #217, 'UNSPECIFIED' ) ;
#3 = CC_DESIGN_PERSON_AND_ORGANIZATION_ASSIGNMENT ( #146, #177, ( #206 ) ) ;
#4 = DIRECTION ( 'NONE',  ( 0.0000000000000000000, 0.0000000000000000000, 1.000000000000000000 ) ) ;
#5 = CARTESIAN_POINT ( 'NONE',  ( 4.996003610813200500E-016, 2.442490654175340100E-015, -1.298828136175660200 ) ) ;
#6 = CARTESIAN_POINT ( 'NONE',  ( 12.69999999999999900, 2.442490654175340100E-015, 2.700000000000000200 ) ) ;
#7 = PERSON_AND_ORGANIZATION ( #108, #155 ) ;
#8 = CARTESIAN_POINT ( 'NONE',  ( 4.996003610813200500E-016, 2.442490654175340100E-015, -1.298828136175660200 ) ) ;
#9 = DATE_AND_TIME ( #151, #75 ) ;
#10 = CARTESIAN_POINT ( 'NONE',  ( 12.50430193665803800, 12.85024539458808200, -2.616616642309979000 ) ) ;
#11 = COORDINATED_UNIVERSAL_TIME_OFFSET ( 2, 0, .AHEAD. ) ;
#12 = CARTESIAN_POINT ( 'NONE',  ( -7.105427357601000300E-015, 12.85024539458808200, -1.330075775174029100 ) ) ;
#13 = CARTESIAN_POINT ( 'NONE',  ( -4.326689436755730300, -4.344821375919632800, 0.4497144982151773400 ) ) ;
#14 = CARTESIAN_POINT ( 'NONE',  ( -4.326689436755731100, 4.344821375919637200, 0.4497144982151711200 ) ) ;
#15 = COORDINATED_UNIVERSAL_TIME_OFFSET ( 2, 0, .AHEAD. ) ;
#16 = CALENDAR_DATE ( 2019, 18, 1 ) ;
#17 = CARTESIAN_POINT ( 'NONE',  ( -12.86670321370421100, 4.344821375919638100, -0.8741130607796199200 ) ) ;
#18 = CARTESIAN_POINT ( 'NONE',  ( 0.0000000000000000000, 0.0000000000000000000, 0.0000000000000000000 ) ) ;
#19 = EDGE_LOOP ( 'NONE', ( #1, #47, #66 ) ) ;
#20 = FACE_OUTER_BOUND ( 'NONE', #165, .T. ) ;
#21 = CARTESIAN_POINT ( 'NONE',  ( 12.86670321370421300, 4.344821375919638100, -0.8741130607796280300 ) ) ;
#22 = APPROVAL_PERSON_ORGANIZATION ( #72, #103, #105 ) ;
#23 =( LENGTH_UNIT ( ) NAMED_UNIT ( * ) SI_UNIT ( .MILLI., .METRE. ) );
#24 = PRODUCT_DEFINITION_SHAPE ( 'NONE', 'NONE',  #195 ) ;
#25 = APPROVAL_DATE_TIME ( #61, #2 ) ;
#26 = VECTOR ( 'NONE', #27, 1000.000000000000000 ) ;
#27 = DIRECTION ( 'NONE',  ( 0.0000000000000000000, 0.0000000000000000000, 1.000000000000000000 ) ) ;
#28 = LOCAL_TIME ( 10, 6, 23.00000000000000000, #126 ) ;
#29 = APPROVAL_DATE_TIME ( #9, #183 ) ;
#30 = DIRECTION ( 'NONE',  ( 0.0000000000000000000, 0.0000000000000000000, 1.000000000000000000 ) ) ;
#31 = FACE_OUTER_BOUND ( 'NONE', #214, .T. ) ;
#32 = ORIENTED_EDGE ( 'NONE', *, *, #35, .T. ) ;
#33 = DIRECTION ( 'NONE',  ( 1.000000000000000000, 0.0000000000000000000, 0.0000000000000000000 ) ) ;
#34 = CARTESIAN_POINT ( 'NONE',  ( -8.387568545133072800, -12.85024539458807300, -1.760429341370815400 ) ) ;
#35 = EDGE_CURVE ( 'NONE', #194, #159, #36, .T. ) ;
#36 = CIRCLE ( 'NONE', #141, 12.69999999999999900 ) ;
#37 = MECHANICAL_CONTEXT ( 'NONE', #197, 'mechanical' ) ;
#38 = APPROVAL_DATE_TIME ( #96, #103 ) ;
#39 = APPLICATION_CONTEXT ( 'configuration controlled 3d designs of mechanical parts and assemblies' ) ;
#40 = DATE_TIME_ROLE ( 'creation_date' ) ;
#41 = ADVANCED_FACE ( 'NONE', ( #20 ), #46, .T. ) ;
#42 = ADVANCED_FACE ( 'NONE', ( #31 ), #45, .T. ) ;
#43 = CC_DESIGN_PERSON_AND_ORGANIZATION_ASSIGNMENT ( #221, #58, ( #195 ) ) ;
#44 = DATE_AND_TIME ( #166, #52 ) ;
#45 = CYLINDRICAL_SURFACE ( 'NONE', #63, 12.69999999999999900 ) ;
#46 = PLANE ( 'NONE',  #154 ) ;
#47 = ORIENTED_EDGE ( 'NONE', *, *, #50, .T. ) ;
#48 = AXIS2_PLACEMENT_3D ( 'NONE', #89, #191, #210 ) ;
#49 = CIRCLE ( 'NONE', #143, 62.74000000000000200 ) ;
#50 = EDGE_CURVE ( 'NONE', #194, #222, #49, .T. ) ;
#51 = CARTESIAN_POINT ( 'NONE',  ( -4.204824670683221300, -12.85024539458807300, -1.330075775174020200 ) ) ;
#52 = LOCAL_TIME ( 10, 6, 23.00000000000000000, #140 ) ;
#53 = CARTESIAN_POINT ( 'NONE',  ( -7.105427357601001100E-015, 4.344821375919638100, 0.4497144982151697300 ) ) ;
#54 = ORIENTED_EDGE ( 'NONE', *, *, #122, .T. ) ;
#55 = CARTESIAN_POINT ( 'NONE',  ( 4.996003610813200500E-016, 2.442490654175340100E-015, -1.298828136175660200 ) ) ;
#56 = PERSON_AND_ORGANIZATION_ROLE ( 'classification_officer' ) ;
#57 = EDGE_CURVE ( 'NONE', #119, #194, #233, .T. ) ;
#58 = PERSON_AND_ORGANIZATION_ROLE ( 'creator' ) ;
#59 = CARTESIAN_POINT ( 'NONE',  ( 4.204824670683202600, -12.85024539458807300, -1.330075775174022000 ) ) ;
#60 = SECURITY_CLASSIFICATION_LEVEL ( 'unclassified' ) ;
#61 = DATE_AND_TIME ( #162, #28 ) ;
#62 = CYLINDRICAL_SURFACE ( 'NONE', #95, 12.69999999999999900 ) ;
#63 = AXIS2_PLACEMENT_3D ( 'NONE', #8, #110, #98 ) ;
#64 = VERTEX_POINT ( 'NONE', #6 ) ;
#65 = CARTESIAN_POINT ( 'NONE',  ( 0.0000000000000000000, 26.11199999999999800, 2.700000000000000200 ) ) ;
#66 = ORIENTED_EDGE ( 'NONE', *, *, #185, .F. ) ;
#67 = ADVANCED_BREP_SHAPE_REPRESENTATION ( '112-5217E CaF2 pl-cv 12.7 F-150', ( #215, #148 ), #169 ) ;
#68 = CC_DESIGN_PERSON_AND_ORGANIZATION_ASSIGNMENT ( #86, #158, ( #218 ) ) ;
#69 = CARTESIAN_POINT ( 'NONE',  ( 8.630658128819250800, 4.344821375919638100, 0.006888369954440703600 ) ) ;
#70 = CARTESIAN_POINT ( 'NONE',  ( -4.204824670683220400, 12.85024539458808100, -1.330075775174027500 ) ) ;
#71 = AXIS2_PLACEMENT_3D ( 'NONE', #172, #73, #118 ) ;
#72 = PERSON_AND_ORGANIZATION ( #108, #155 ) ;
#73 = DIRECTION ( 'NONE',  ( -0.0000000000000000000, -0.0000000000000000000, -1.000000000000000000 ) ) ;
#74 = CARTESIAN_POINT ( 'NONE',  ( -7.105427357601000300E-015, -12.85024539458807500, -1.330075775174022200 ) ) ;
#75 = LOCAL_TIME ( 10, 6, 23.00000000000000000, #80 ) ;
#76 =( NAMED_UNIT ( * ) PLANE_ANGLE_UNIT ( ) SI_UNIT ( $, .RADIAN. ) );
#77 = ORIENTED_EDGE ( 'NONE', *, *, #129, .F. ) ;
#78 =( BOUNDED_SURFACE ( )  B_SPLINE_SURFACE ( 3, 3, ( 
 ( #12, #225, #192, #10 ),
 ( #53, #132, #69, #21 ),
 ( #106, #199, #161, #138 ),
 ( #74, #59, #124, #123 ) ),
 .UNSPECIFIED., .F., .F., .F. ) 
 B_SPLINE_SURFACE_WITH_KNOTS ( ( 4, 4 ),
 ( 4, 4 ),
 ( 0.0000000000000000000, 1.000000000000000000 ),
 ( 0.0000000000000000000, 1.000000000000000000 ),
 .UNSPECIFIED. ) 
 GEOMETRIC_REPRESENTATION_ITEM ( )  RATIONAL_B_SPLINE_SURFACE ( (
 ( 1.000000000000000000, 0.9964991332635425600, 0.9964991332635425600, 1.000000000000000000),
 ( 0.9858667965659968500, 0.9824154082913211200, 0.9824154082913211200, 0.9858667965659968500),
 ( 0.9858667965659968500, 0.9824154082913211200, 0.9824154082913211200, 0.9858667965659968500),
 ( 1.000000000000000000, 0.9964991332635425600, 0.9964991332635425600, 1.000000000000000000) ) ) 
 REPRESENTATION_ITEM ( '' )  SURFACE ( )  );
#79 = ORIENTED_EDGE ( 'NONE', *, *, #97, .T. ) ;
#80 = COORDINATED_UNIVERSAL_TIME_OFFSET ( 2, 0, .AHEAD. ) ;
#81 = LOCAL_TIME ( 10, 6, 23.00000000000000000, #15 ) ;
#82 = DIRECTION ( 'NONE',  ( 1.000000000000000000, 0.0000000000000000000, 0.0000000000000000000 ) ) ;
#83 = AXIS2_PLACEMENT_3D ( 'NONE', #55, #133, #176 ) ;
#84 = FACE_OUTER_BOUND ( 'NONE', #109, .T. ) ;
#85 = CARTESIAN_POINT ( 'NONE',  ( -12.69999999999999900, 3.997792089092478900E-015, -1.298828136175660200 ) ) ;
#86 = PERSON_AND_ORGANIZATION ( #108, #155 ) ;
#87 = CARTESIAN_POINT ( 'NONE',  ( -7.105427357601000300E-015, 12.70000000000000300, -1.298828136175658200 ) ) ;
#88 = PERSON_AND_ORGANIZATION ( #108, #155 ) ;
#89 = CARTESIAN_POINT ( 'NONE',  ( 4.996003610813200500E-016, 2.442490654175340100E-015, 2.700000000000000200 ) ) ;
#90 = CARTESIAN_POINT ( 'NONE',  ( 12.69999999999999900, 2.442490654175340100E-015, -1.298828136175660200 ) ) ;
#91 = APPROVAL_ROLE ( '' ) ;
#92 = CALENDAR_DATE ( 2019, 18, 1 ) ;
#93 = DIRECTION ( 'NONE',  ( 0.0000000000000000000, 0.0000000000000000000, 1.000000000000000000 ) ) ;
#94 = CC_DESIGN_APPROVAL ( #103, ( #218 ) ) ;
#95 = AXIS2_PLACEMENT_3D ( 'NONE', #212, #174, #33 ) ;
#96 = DATE_AND_TIME ( #16, #198 ) ;
#97 = EDGE_CURVE ( 'NONE', #159, #201, #220, .T. ) ;
#98 = DIRECTION ( 'NONE',  ( 1.000000000000000000, 0.0000000000000000000, 0.0000000000000000000 ) ) ;
#99 = DIRECTION ( 'NONE',  ( 0.0000000000000000000, 1.000000000000000000, 2.211952152982858800E-016 ) ) ;
#100 = CARTESIAN_POINT ( 'NONE',  ( -12.86670321370421100, -4.344821375919631900, -0.8741130607796139300 ) ) ;
#101 = PERSON_AND_ORGANIZATION ( #108, #155 ) ;
#102 = CARTESIAN_POINT ( 'NONE',  ( -2.255140518769849200E-014, -4.344821375919632800, 0.4497144982151783900 ) ) ;
#103 = APPROVAL ( #164, 'UNSPECIFIED' ) ;
#104 = ORIENTED_EDGE ( 'NONE', *, *, #122, .F. ) ;
#105 = APPROVAL_ROLE ( '' ) ;
#106 = CARTESIAN_POINT ( 'NONE',  ( -7.105427357601001100E-015, -4.344821375919631900, 0.4497144982151756200 ) ) ;
#107 = EDGE_CURVE ( 'NONE', #64, #201, #203, .T. ) ;
#108 = PERSON ( 'UNSPECIFIED', 'UNSPECIFIED', 'UNSPECIFIED', ('UNSPECIFIED'), ('UNSPECIFIED'), ('UNSPECIFIED') ) ;
#109 = EDGE_LOOP ( 'NONE', ( #149, #181, #77 ) ) ;
#110 = DIRECTION ( 'NONE',  ( 0.0000000000000000000, 0.0000000000000000000, 1.000000000000000000 ) ) ;
#111 = SECURITY_CLASSIFICATION ( '', '', #60 ) ;
#112 = ORIENTED_EDGE ( 'NONE', *, *, #57, .T. ) ;
#113 = CARTESIAN_POINT ( 'NONE',  ( -8.630658128819259600, -4.344821375919631900, 0.006888369954451763400 ) ) ;
#114 = ORIENTED_EDGE ( 'NONE', *, *, #116, .T. ) ;
#115 = CARTESIAN_POINT ( 'NONE',  ( -12.69999999999999900, 3.997792089092478900E-015, -1.298828136175660200 ) ) ;
#116 = EDGE_CURVE ( 'NONE', #119, #64, #167, .T. ) ;
#117 = CARTESIAN_POINT ( 'NONE',  ( -8.387568545133072800, 12.85024539458808100, -1.760429341370822300 ) ) ;
#118 = DIRECTION ( 'NONE',  ( 1.000000000000000000, 0.0000000000000000000, 0.0000000000000000000 ) ) ;
#119 = VERTEX_POINT ( 'NONE', #189 ) ;
#120 = APPLICATION_PROTOCOL_DEFINITION ( 'international standard', 'config_control_design', 1994, #197 ) ;
#121 = CIRCLE ( 'NONE', #71, 12.69999999999999900 ) ;
#122 = EDGE_CURVE ( 'NONE', #201, #64, #121, .T. ) ;
#123 = CARTESIAN_POINT ( 'NONE',  ( 12.50430193665804200, -12.85024539458807500, -2.616616642309972800 ) ) ;
#124 = CARTESIAN_POINT ( 'NONE',  ( 8.387568545133067500, -12.85024539458807300, -1.760429341370820500 ) ) ;
#125 = ADVANCED_FACE ( 'NONE', ( #182 ), #62, .T. ) ;
#126 = COORDINATED_UNIVERSAL_TIME_OFFSET ( 2, 0, .AHEAD. ) ;
#127 = ADVANCED_FACE ( 'NONE', ( #130 ), #135, .F. ) ;
#128 = DIRECTION ( 'NONE',  ( 1.000000000000000000, 0.0000000000000000000, -0.0000000000000000000 ) ) ;
#129 = EDGE_CURVE ( 'NONE', #222, #119, #188, .T. ) ;
#130 = FACE_OUTER_BOUND ( 'NONE', #19, .T. ) ;
#131 = CARTESIAN_POINT ( 'NONE',  ( -12.50430193665803800, -12.85024539458807500, -2.616616642309964400 ) ) ;
#132 = CARTESIAN_POINT ( 'NONE',  ( 4.326689436755711600, 4.344821375919638100, 0.4497144982151697300 ) ) ;
#133 = DIRECTION ( 'NONE',  ( 0.0000000000000000000, 0.0000000000000000000, 1.000000000000000000 ) ) ;
#134 = CARTESIAN_POINT ( 'NONE',  ( -2.081668171172168500E-014, 12.85024539458808200, -1.330075775174026900 ) ) ;
#135 =( BOUNDED_SURFACE ( )  B_SPLINE_SURFACE ( 3, 3, ( 
 ( #228, #117, #70, #134 ),
 ( #17, #173, #14, #226 ),
 ( #100, #113, #13, #102 ),
 ( #131, #34, #51, #136 ) ),
 .UNSPECIFIED., .F., .F., .F. ) 
 B_SPLINE_SURFACE_WITH_KNOTS ( ( 4, 4 ),
 ( 4, 4 ),
 ( 0.0000000000000000000, 1.000000000000000000 ),
 ( 0.0000000000000000000, 1.000000000000000000 ),
 .UNSPECIFIED. ) 
 GEOMETRIC_REPRESENTATION_ITEM ( )  RATIONAL_B_SPLINE_SURFACE ( (
 ( 1.000000000000000000, 0.9964991332635425600, 0.9964991332635425600, 1.000000000000000000),
 ( 0.9858667965659968500, 0.9824154082913211200, 0.9824154082913211200, 0.9858667965659968500),
 ( 0.9858667965659968500, 0.9824154082913211200, 0.9824154082913211200, 0.9858667965659968500),
 ( 1.000000000000000000, 0.9964991332635425600, 0.9964991332635425600, 1.000000000000000000) ) ) 
 REPRESENTATION_ITEM ( '' )  SURFACE ( )  );
#136 = CARTESIAN_POINT ( 'NONE',  ( -2.081668171172168500E-014, -12.85024539458807500, -1.330075775174019300 ) ) ;
#137 = CC_DESIGN_APPROVAL ( #183, ( #195 ) ) ;
#138 = CARTESIAN_POINT ( 'NONE',  ( 12.86670321370421500, -4.344821375919631900, -0.8741130607796224700 ) ) ;
#139 = DATE_AND_TIME ( #92, #81 ) ;
#140 = COORDINATED_UNIVERSAL_TIME_OFFSET ( 2, 0, .AHEAD. ) ;
#141 = AXIS2_PLACEMENT_3D ( 'NONE', #5, #184, #82 ) ;
#142 = ORIENTED_EDGE ( 'NONE', *, *, #97, .F. ) ;
#143 = AXIS2_PLACEMENT_3D ( 'NONE', #205, #186, #99 ) ;
#144 = APPROVAL_PERSON_ORGANIZATION ( #101, #183, #91 ) ;
#145 = PRODUCT_RELATED_PRODUCT_CATEGORY ( 'detail', '', ( #206 ) ) ;
#146 = PERSON_AND_ORGANIZATION ( #108, #155 ) ;
#147 = CARTESIAN_POINT ( 'NONE',  ( 4.996003610813200500E-016, 2.442490654175340100E-015, -1.298828136175660200 ) ) ;
#148 = AXIS2_PLACEMENT_3D ( 'NONE', #18, #93, #200 ) ;
#149 = ORIENTED_EDGE ( 'NONE', *, *, #50, .F. ) ;
#150 = EDGE_LOOP ( 'NONE', ( #142, #230, #152, #114, #175 ) ) ;
#151 = CALENDAR_DATE ( 2019, 18, 1 ) ;
#152 = ORIENTED_EDGE ( 'NONE', *, *, #129, .T. ) ;
#153 = DIRECTION ( 'NONE',  ( 1.000000000000000000, 0.0000000000000000000, 0.0000000000000000000 ) ) ;
#154 = AXIS2_PLACEMENT_3D ( 'NONE', #65, #4, #128 ) ;
#155 = ORGANIZATION ( 'UNSPECIFIED', 'UNSPECIFIED', '' ) ;
#156 = PERSON_AND_ORGANIZATION ( #108, #155 ) ;
#157 = CARTESIAN_POINT ( 'NONE',  ( -12.69999999999999900, 3.997792089092478900E-015, 2.700000000000000200 ) ) ;
#158 = PERSON_AND_ORGANIZATION_ROLE ( 'design_supplier' ) ;
#159 = VERTEX_POINT ( 'NONE', #115 ) ;
#160 = UNCERTAINTY_MEASURE_WITH_UNIT (LENGTH_MEASURE( 1.000000000000000100E-005 ), #23, 'distance_accuracy_value', 'NONE');
#161 = CARTESIAN_POINT ( 'NONE',  ( 8.630658128819254300, -4.344821375919631900, 0.006888369954446560100 ) ) ;
#162 = CALENDAR_DATE ( 2019, 18, 1 ) ;
#163 = AXIS2_PLACEMENT_3D ( 'NONE', #147, #168, #208 ) ;
#164 = APPROVAL_STATUS ( 'not_yet_approved' ) ;
#165 = EDGE_LOOP ( 'NONE', ( #204, #104 ) ) ;
#166 = CALENDAR_DATE ( 2019, 18, 1 ) ;
#167 = LINE ( 'NONE', #90, #187 ) ;
#168 = DIRECTION ( 'NONE',  ( 0.0000000000000000000, 0.0000000000000000000, 1.000000000000000000 ) ) ;
#169 =( GEOMETRIC_REPRESENTATION_CONTEXT ( 3 ) GLOBAL_UNCERTAINTY_ASSIGNED_CONTEXT ( ( #160 ) ) GLOBAL_UNIT_ASSIGNED_CONTEXT ( ( #23, #76, #193 ) ) REPRESENTATION_CONTEXT ( 'NONE', 'WORKASPACE' ) );
#170 = AXIS2_PLACEMENT_3D ( 'NONE', #211, #30, #153 ) ;
#171 = CLOSED_SHELL ( 'NONE', ( #127, #42, #202, #125, #41 ) ) ;
#172 = CARTESIAN_POINT ( 'NONE',  ( 4.996003610813200500E-016, 2.442490654175340100E-015, 2.700000000000000200 ) ) ;
#173 = CARTESIAN_POINT ( 'NONE',  ( -8.630658128819261400, 4.344821375919638100, 0.006888369954445691800 ) ) ;
#174 = DIRECTION ( 'NONE',  ( 0.0000000000000000000, 0.0000000000000000000, 1.000000000000000000 ) ) ;
#175 = ORIENTED_EDGE ( 'NONE', *, *, #107, .T. ) ;
#176 = DIRECTION ( 'NONE',  ( 1.000000000000000000, 0.0000000000000000000, 0.0000000000000000000 ) ) ;
#177 = PERSON_AND_ORGANIZATION_ROLE ( 'design_owner' ) ;
#178 = APPROVAL_ROLE ( '' ) ;
#179 = CC_DESIGN_DATE_AND_TIME_ASSIGNMENT ( #139, #235, ( #111 ) ) ;
#180 = PERSON_AND_ORGANIZATION_ROLE ( 'creator' ) ;
#181 = ORIENTED_EDGE ( 'NONE', *, *, #57, .F. ) ;
#182 = FACE_OUTER_BOUND ( 'NONE', #150, .T. ) ;
#183 = APPROVAL ( #232, 'UNSPECIFIED' ) ;
#184 = DIRECTION ( 'NONE',  ( 0.0000000000000000000, 0.0000000000000000000, 1.000000000000000000 ) ) ;
#185 = EDGE_CURVE ( 'NONE', #159, #222, #196, .T. ) ;
#186 = DIRECTION ( 'NONE',  ( 1.000000000000000000, 0.0000000000000000000, 0.0000000000000000000 ) ) ;
#187 = VECTOR ( 'NONE', #231, 1000.000000000000000 ) ;
#188 = CIRCLE ( 'NONE', #83, 12.69999999999999900 ) ;
#189 = CARTESIAN_POINT ( 'NONE',  ( 12.69999999999999900, 2.442490654175340100E-015, -1.298828136175660200 ) ) ;
#190 = CC_DESIGN_APPROVAL ( #2, ( #111 ) ) ;
#191 = DIRECTION ( 'NONE',  ( -0.0000000000000000000, -0.0000000000000000000, -1.000000000000000000 ) ) ;
#192 = CARTESIAN_POINT ( 'NONE',  ( 8.387568545133063900, 12.85024539458808100, -1.760429341370827200 ) ) ;
#193 =( NAMED_UNIT ( * ) SI_UNIT ( $, .STERADIAN. ) SOLID_ANGLE_UNIT ( ) );
#194 = VERTEX_POINT ( 'NONE', #87 ) ;
#195 = PRODUCT_DEFINITION ( 'UNKNOWN', '', #218, #234 ) ;
#196 = CIRCLE ( 'NONE', #170, 12.69999999999999900 ) ;
#197 = APPLICATION_CONTEXT ( 'configuration controlled 3d designs of mechanical parts and assemblies' ) ;
#198 = LOCAL_TIME ( 10, 6, 23.00000000000000000, #11 ) ;
#199 = CARTESIAN_POINT ( 'NONE',  ( 4.326689436755713400, -4.344821375919631900, 0.4497144982151756200 ) ) ;
#200 = DIRECTION ( 'NONE',  ( 1.000000000000000000, 0.0000000000000000000, 0.0000000000000000000 ) ) ;
#201 = VERTEX_POINT ( 'NONE', #157 ) ;
#202 = ADVANCED_FACE ( 'NONE', ( #84 ), #78, .F. ) ;
#203 = CIRCLE ( 'NONE', #48, 12.69999999999999900 ) ;
#204 = ORIENTED_EDGE ( 'NONE', *, *, #107, .F. ) ;
#205 = CARTESIAN_POINT ( 'NONE',  ( -7.105427357601000300E-015, 0.0000000000000000000, -62.74000000000000200 ) ) ;
#206 = PRODUCT ( '112-5217E CaF2 pl-cv 12.7 F-150', '112-5217E CaF2 pl-cv 12.7 F-150', '', ( #37 ) ) ;
#207 = CC_DESIGN_DATE_AND_TIME_ASSIGNMENT ( #44, #40, ( #195 ) ) ;
#208 = DIRECTION ( 'NONE',  ( 1.000000000000000000, 0.0000000000000000000, 0.0000000000000000000 ) ) ;
#209 = ORIENTED_EDGE ( 'NONE', *, *, #116, .F. ) ;
#210 = DIRECTION ( 'NONE',  ( 1.000000000000000000, 0.0000000000000000000, 0.0000000000000000000 ) ) ;
#211 = CARTESIAN_POINT ( 'NONE',  ( 4.996003610813200500E-016, 2.442490654175340100E-015, -1.298828136175660200 ) ) ;
#212 = CARTESIAN_POINT ( 'NONE',  ( 4.996003610813200500E-016, 2.442490654175340100E-015, -1.298828136175660200 ) ) ;
#213 = CC_DESIGN_PERSON_AND_ORGANIZATION_ASSIGNMENT ( #88, #180, ( #218 ) ) ;
#214 = EDGE_LOOP ( 'NONE', ( #112, #32, #79, #54, #209 ) ) ;
#215 = MANIFOLD_SOLID_BREP ( 'Imported1', #171 ) ;
#216 = APPLICATION_PROTOCOL_DEFINITION ( 'international standard', 'config_control_design', 1994, #39 ) ;
#217 = APPROVAL_STATUS ( 'not_yet_approved' ) ;
#218 = PRODUCT_DEFINITION_FORMATION_WITH_SPECIFIED_SOURCE ( 'ANY', '', #206, .NOT_KNOWN. ) ;
#219 = SHAPE_DEFINITION_REPRESENTATION ( #24, #67 ) ;
#220 = LINE ( 'NONE', #85, #26 ) ;
#221 = PERSON_AND_ORGANIZATION ( #108, #155 ) ;
#222 = VERTEX_POINT ( 'NONE', #229 ) ;
#223 = CC_DESIGN_PERSON_AND_ORGANIZATION_ASSIGNMENT ( #156, #56, ( #111 ) ) ;
#224 = APPROVAL_PERSON_ORGANIZATION ( #7, #2, #178 ) ;
#225 = CARTESIAN_POINT ( 'NONE',  ( 4.204824670683202600, 12.85024539458808100, -1.330075775174029300 ) ) ;
#226 = CARTESIAN_POINT ( 'NONE',  ( -2.428612866367529900E-014, 4.344821375919637200, 0.4497144982151724000 ) ) ;
#227 = CC_DESIGN_SECURITY_CLASSIFICATION ( #111, ( #218 ) ) ;
#228 = CARTESIAN_POINT ( 'NONE',  ( -12.50430193665803600, 12.85024539458808200, -2.616616642309971000 ) ) ;
#229 = CARTESIAN_POINT ( 'NONE',  ( -7.105427357601000300E-015, -12.70000000000000300, -1.298828136175658200 ) ) ;
#230 = ORIENTED_EDGE ( 'NONE', *, *, #185, .T. ) ;
#231 = DIRECTION ( 'NONE',  ( 0.0000000000000000000, 0.0000000000000000000, 1.000000000000000000 ) ) ;
#232 = APPROVAL_STATUS ( 'not_yet_approved' ) ;
#233 = CIRCLE ( 'NONE', #163, 12.69999999999999900 ) ;
#234 = DESIGN_CONTEXT ( 'detailed design', #39, 'design' ) ;
#235 = DATE_TIME_ROLE ( 'classification_date' ) ;
ENDSEC;
END-ISO-10303-21;
