ISO-10303-21;
HEADER;
FILE_DESCRIPTION (( 'STEP AP203' ),
    '1' );
FILE_NAME ('112-5211E CaF2 pl-cv 12.7 F-100.STEP',
    '2019-01-18T07:57:06',
    ( '' ),
    ( '' ),
    'SwSTEP 2.0',
    'SolidWorks 2017',
    '' );
FILE_SCHEMA (( 'CONFIG_CONTROL_DESIGN' ));
ENDSEC;

DATA;
#1 = CARTESIAN_POINT ( 'NONE',  ( 12.98639991766672400, 4.425070006512449100, -1.334987333425437400 ) ) ;
#2 = PERSON_AND_ORGANIZATION ( #225, #203 ) ;
#3 = VECTOR ( 'NONE', #31, 1000.000000000000000 ) ;
#4 = CARTESIAN_POINT ( 'NONE',  ( -4.134501606058752700, 12.84744760734597300, -2.021810013811232500 ) ) ;
#5 = CC_DESIGN_DATE_AND_TIME_ASSIGNMENT ( #6, #50, ( #165 ) ) ;
#6 = DATE_AND_TIME ( #109, #200 ) ;
#7 = ORIENTED_EDGE ( 'NONE', *, *, #114, .T. ) ;
#8 = PERSON_AND_ORGANIZATION ( #225, #203 ) ;
#9 = DIRECTION ( 'NONE',  ( 0.0000000000000000000, 0.0000000000000000000, 1.000000000000000000 ) ) ;
#10 = CARTESIAN_POINT ( 'NONE',  ( 4.996003610813200500E-016, 2.442490654175340100E-015, -1.974524842877610300 ) ) ;
#11 = CARTESIAN_POINT ( 'NONE',  ( 4.996003610813200500E-016, 2.442490654175340100E-015, -1.974524842877610300 ) ) ;
#12 = COORDINATED_UNIVERSAL_TIME_OFFSET ( 2, 0, .AHEAD. ) ;
#13 = ORIENTED_EDGE ( 'NONE', *, *, #25, .F. ) ;
#14 = CC_DESIGN_PERSON_AND_ORGANIZATION_ASSIGNMENT ( #60, #47, ( #165 ) ) ;
#15 = AXIS2_PLACEMENT_3D ( 'NONE', #107, #162, #148 ) ;
#16 = ORIENTED_EDGE ( 'NONE', *, *, #92, .T. ) ;
#17 = APPROVAL ( #35, 'UNSPECIFIED' ) ;
#18 = ADVANCED_BREP_SHAPE_REPRESENTATION ( '112-5211E CaF2 pl-cv 12.7 F-100', ( #207, #15 ), #190 ) ;
#19 = ORIENTED_EDGE ( 'NONE', *, *, #176, .F. ) ;
#20 = CARTESIAN_POINT ( 'NONE',  ( 4.416813948665770300, -4.425070006512450000, 0.6963757412691878900 ) ) ;
#21 = CARTESIAN_POINT ( 'NONE',  ( 12.69999999999999900, 2.442490654175340100E-015, -1.974524842877610300 ) ) ;
#22 = CC_DESIGN_APPROVAL ( #164, ( #165 ) ) ;
#23 = DATE_AND_TIME ( #74, #199 ) ;
#24 = VERTEX_POINT ( 'NONE', #21 ) ;
#25 = EDGE_CURVE ( 'NONE', #181, #154, #233, .T. ) ;
#26 = LINE ( 'NONE', #97, #3 ) ;
#27 = DIRECTION ( 'NONE',  ( 0.0000000000000000000, 0.0000000000000000000, 1.000000000000000000 ) ) ;
#28 = CC_DESIGN_DATE_AND_TIME_ASSIGNMENT ( #23, #132, ( #73 ) ) ;
#29 = DIRECTION ( 'NONE',  ( 0.0000000000000000000, 1.000000000000000000, -6.635327663310761200E-016 ) ) ;
#30 = CARTESIAN_POINT ( 'NONE',  ( -12.15633982788287800, -12.84744760734597700, -3.923333146192760500 ) ) ;
#31 = DIRECTION ( 'NONE',  ( 0.0000000000000000000, 0.0000000000000000000, 1.000000000000000000 ) ) ;
#32 = AXIS2_PLACEMENT_3D ( 'NONE', #43, #68, #64 ) ;
#33 = PERSON_AND_ORGANIZATION_ROLE ( 'creator' ) ;
#34 = COORDINATED_UNIVERSAL_TIME_OFFSET ( 2, 0, .AHEAD. ) ;
#35 = APPROVAL_STATUS ( 'not_yet_approved' ) ;
#36 = FACE_OUTER_BOUND ( 'NONE', #172, .T. ) ;
#37 = EDGE_LOOP ( 'NONE', ( #110, #212, #151, #128, #169 ) ) ;
#38 = CARTESIAN_POINT ( 'NONE',  ( 8.780564511299093800, -4.425070006512450900, 0.01378766325596504100 ) ) ;
#39 = DATE_AND_TIME ( #59, #209 ) ;
#40 = ORIENTED_EDGE ( 'NONE', *, *, #80, .T. ) ;
#41 = APPROVAL_PERSON_ORGANIZATION ( #223, #17, #179 ) ;
#42 = AXIS2_PLACEMENT_3D ( 'NONE', #157, #87, #129 ) ;
#43 = CARTESIAN_POINT ( 'NONE',  ( 4.996003610813200500E-016, 2.442490654175340100E-015, 3.000000000000000400 ) ) ;
#44 = PRODUCT ( '112-5211E CaF2 pl-cv 12.7 F-100', '112-5211E CaF2 pl-cv 12.7 F-100', '', ( #130 ) ) ;
#45 = CARTESIAN_POINT ( 'NONE',  ( 12.69999999999999900, 2.442490654175340100E-015, 3.000000000000000400 ) ) ;
#46 = ADVANCED_FACE ( 'NONE', ( #127 ), #202, .T. ) ;
#47 = PERSON_AND_ORGANIZATION_ROLE ( 'creator' ) ;
#48 = CARTESIAN_POINT ( 'NONE',  ( -4.134501606058753600, -12.84744760734597900, -2.021810013811226300 ) ) ;
#49 = PERSON_AND_ORGANIZATION_ROLE ( 'design_supplier' ) ;
#50 = DATE_TIME_ROLE ( 'creation_date' ) ;
#51 = CARTESIAN_POINT ( 'NONE',  ( -8.219331512715195100, -12.84744760734597700, -2.660768669897422900 ) ) ;
#52 = LINE ( 'NONE', #144, #103 ) ;
#53 = CALENDAR_DATE ( 2019, 18, 1 ) ;
#54 = AXIS2_PLACEMENT_3D ( 'NONE', #111, #208, #226 ) ;
#55 = CARTESIAN_POINT ( 'NONE',  ( 4.134501606058756300, 12.84744760734597500, -2.021810013811229400 ) ) ;
#56 = LOCAL_TIME ( 9, 57, 6.000000000000000000, #34 ) ;
#57 = CARTESIAN_POINT ( 'NONE',  ( 8.219331512715204000, 12.84744760734597500, -2.660768669897421600 ) ) ;
#58 = CC_DESIGN_PERSON_AND_ORGANIZATION_ASSIGNMENT ( #88, #49, ( #230 ) ) ;
#59 = CALENDAR_DATE ( 2019, 18, 1 ) ;
#60 = PERSON_AND_ORGANIZATION ( #225, #203 ) ;
#61 = EDGE_LOOP ( 'NONE', ( #196, #118 ) ) ;
#62 = CARTESIAN_POINT ( 'NONE',  ( -8.780564511299090200, 4.425070006512449100, 0.01378766325595224200 ) ) ;
#63 = CC_DESIGN_APPROVAL ( #197, ( #73 ) ) ;
#64 = DIRECTION ( 'NONE',  ( 1.000000000000000000, 0.0000000000000000000, 0.0000000000000000000 ) ) ;
#65 = DIRECTION ( 'NONE',  ( 1.000000000000000000, 0.0000000000000000000, 0.0000000000000000000 ) ) ;
#66 =( NAMED_UNIT ( * ) PLANE_ANGLE_UNIT ( ) SI_UNIT ( $, .RADIAN. ) );
#67 = CIRCLE ( 'NONE', #183, 12.69999999999999900 ) ;
#68 = DIRECTION ( 'NONE',  ( -0.0000000000000000000, -0.0000000000000000000, -1.000000000000000000 ) ) ;
#69 = ADVANCED_FACE ( 'NONE', ( #123 ), #105, .F. ) ;
#70 = SECURITY_CLASSIFICATION_LEVEL ( 'unclassified' ) ;
#71 = APPLICATION_CONTEXT ( 'configuration controlled 3d designs of mechanical parts and assemblies' ) ;
#72 = ADVANCED_FACE ( 'NONE', ( #36 ), #95, .F. ) ;
#73 = SECURITY_CLASSIFICATION ( '', '', #70 ) ;
#74 = CALENDAR_DATE ( 2019, 18, 1 ) ;
#75 = CIRCLE ( 'NONE', #84, 12.69999999999999900 ) ;
#76 = EDGE_CURVE ( 'NONE', #93, #232, #82, .T. ) ;
#77 = PERSON_AND_ORGANIZATION ( #225, #203 ) ;
#78 = ORIENTED_EDGE ( 'NONE', *, *, #122, .F. ) ;
#79 = CARTESIAN_POINT ( 'NONE',  ( 7.105427357600998700E-015, 12.84744760734597300, -2.021810013811228900 ) ) ;
#80 = EDGE_CURVE ( 'NONE', #232, #93, #141, .T. ) ;
#81 = DIRECTION ( 'NONE',  ( 1.000000000000000000, 0.0000000000000000000, -0.0000000000000000000 ) ) ;
#82 = CIRCLE ( 'NONE', #32, 12.69999999999999900 ) ;
#83 = CARTESIAN_POINT ( 'NONE',  ( -4.416813948665767600, 4.425070006512449100, 0.6963757412691806700 ) ) ;
#84 = AXIS2_PLACEMENT_3D ( 'NONE', #106, #228, #125 ) ;
#85 = ORIENTED_EDGE ( 'NONE', *, *, #134, .F. ) ;
#86 = DIRECTION ( 'NONE',  ( 1.000000000000000000, 0.0000000000000000000, 0.0000000000000000000 ) ) ;
#87 = DIRECTION ( 'NONE',  ( -0.0000000000000000000, -0.0000000000000000000, -1.000000000000000000 ) ) ;
#88 = PERSON_AND_ORGANIZATION ( #225, #203 ) ;
#89 = DIRECTION ( 'NONE',  ( 0.0000000000000000000, 0.0000000000000000000, 1.000000000000000000 ) ) ;
#90 = CARTESIAN_POINT ( 'NONE',  ( 8.219331512715200500, -12.84744760734597700, -2.660768669897414000 ) ) ;
#91 = CARTESIAN_POINT ( 'NONE',  ( -12.98639991766671800, -4.425070006512452600, -1.334987333425443200 ) ) ;
#92 = EDGE_CURVE ( 'NONE', #181, #135, #104, .T. ) ;
#93 = VERTEX_POINT ( 'NONE', #45 ) ;
#94 = APPLICATION_CONTEXT ( 'configuration controlled 3d designs of mechanical parts and assemblies' ) ;
#95 =( BOUNDED_SURFACE ( )  B_SPLINE_SURFACE ( 3, 3, ( 
 ( #79, #55, #57, #186 ),
 ( #98, #187, #121, #1 ),
 ( #138, #20, #38, #149 ),
 ( #168, #108, #90, #173 ) ),
 .UNSPECIFIED., .F., .F., .F. ) 
 B_SPLINE_SURFACE_WITH_KNOTS ( ( 4, 4 ),
 ( 4, 4 ),
 ( 0.0000000000000000000, 1.000000000000000000 ),
 ( 0.0000000000000000000, 1.000000000000000000 ),
 .UNSPECIFIED. ) 
 GEOMETRIC_REPRESENTATION_ITEM ( )  RATIONAL_B_SPLINE_SURFACE ( (
 ( 1.000000000000000000, 0.9919906993820788400, 0.9919906993820788400, 1.000000000000000000),
 ( 0.9677773525569969300, 0.9600261328091520600, 0.9600261328091520600, 0.9677773525569969300),
 ( 0.9677773525569969300, 0.9600261328091520600, 0.9600261328091520600, 0.9677773525569969300),
 ( 1.000000000000000000, 0.9919906993820788400, 0.9919906993820788400, 1.000000000000000000) ) ) 
 REPRESENTATION_ITEM ( '' )  SURFACE ( )  );
#96 = CARTESIAN_POINT ( 'NONE',  ( -12.15633982788288000, 12.84744760734597200, -3.923333146192767200 ) ) ;
#97 = CARTESIAN_POINT ( 'NONE',  ( 12.69999999999999900, 2.442490654175340100E-015, -1.974524842877610300 ) ) ;
#98 = CARTESIAN_POINT ( 'NONE',  ( 7.105427357601000300E-015, 4.425070006512450900, 0.6963757412691837800 ) ) ;
#99 = CALENDAR_DATE ( 2019, 18, 1 ) ;
#100 = CYLINDRICAL_SURFACE ( 'NONE', #213, 12.69999999999999900 ) ;
#101 = CARTESIAN_POINT ( 'NONE',  ( -8.780564511299090200, -4.425070006512450900, 0.01378766325595614700 ) ) ;
#102 = AXIS2_PLACEMENT_3D ( 'NONE', #152, #188, #167 ) ;
#103 = VECTOR ( 'NONE', #27, 1000.000000000000000 ) ;
#104 = CIRCLE ( 'NONE', #224, 41.82999999999999800 ) ;
#105 =( BOUNDED_SURFACE ( )  B_SPLINE_SURFACE ( 3, 3, ( 
 ( #96, #218, #4, #222 ),
 ( #171, #62, #83, #193 ),
 ( #91, #101, #221, #161 ),
 ( #30, #51, #48, #147 ) ),
 .UNSPECIFIED., .F., .F., .F. ) 
 B_SPLINE_SURFACE_WITH_KNOTS ( ( 4, 4 ),
 ( 4, 4 ),
 ( 0.0000000000000000000, 1.000000000000000000 ),
 ( 0.0000000000000000000, 1.000000000000000000 ),
 .UNSPECIFIED. ) 
 GEOMETRIC_REPRESENTATION_ITEM ( )  RATIONAL_B_SPLINE_SURFACE ( (
 ( 1.000000000000000000, 0.9919906993820788400, 0.9919906993820788400, 1.000000000000000000),
 ( 0.9677773525569969300, 0.9600261328091520600, 0.9600261328091520600, 0.9677773525569969300),
 ( 0.9677773525569969300, 0.9600261328091520600, 0.9600261328091520600, 0.9677773525569969300),
 ( 1.000000000000000000, 0.9919906993820788400, 0.9919906993820788400, 1.000000000000000000) ) ) 
 REPRESENTATION_ITEM ( '' )  SURFACE ( )  );
#106 = CARTESIAN_POINT ( 'NONE',  ( 4.996003610813200500E-016, 2.442490654175340100E-015, -1.974524842877610300 ) ) ;
#107 = CARTESIAN_POINT ( 'NONE',  ( 0.0000000000000000000, 0.0000000000000000000, 0.0000000000000000000 ) ) ;
#108 = CARTESIAN_POINT ( 'NONE',  ( 4.134501606058755400, -12.84744760734597700, -2.021810013811222700 ) ) ;
#109 = CALENDAR_DATE ( 2019, 18, 1 ) ;
#110 = ORIENTED_EDGE ( 'NONE', *, *, #114, .F. ) ;
#111 = CARTESIAN_POINT ( 'NONE',  ( 4.996003610813200500E-016, 2.442490654175340100E-015, -1.974524842877610300 ) ) ;
#112 = ADVANCED_FACE ( 'NONE', ( #220 ), #180, .T. ) ;
#113 = APPROVAL_ROLE ( '' ) ;
#114 = EDGE_CURVE ( 'NONE', #154, #232, #52, .T. ) ;
#115 = APPROVAL_PERSON_ORGANIZATION ( #77, #197, #234 ) ;
#116 = PERSON_AND_ORGANIZATION_ROLE ( 'design_owner' ) ;
#117 = LOCAL_TIME ( 9, 57, 6.000000000000000000, #139 ) ;
#118 = ORIENTED_EDGE ( 'NONE', *, *, #80, .F. ) ;
#119 = CARTESIAN_POINT ( 'NONE',  ( 0.0000000000000000000, 26.11199999999999800, 3.000000000000000000 ) ) ;
#120 = CC_DESIGN_APPROVAL ( #17, ( #230 ) ) ;
#121 = CARTESIAN_POINT ( 'NONE',  ( 8.780564511299093800, 4.425070006512449100, 0.01378766325596070100 ) ) ;
#122 = EDGE_CURVE ( 'NONE', #135, #24, #235, .T. ) ;
#123 = FACE_OUTER_BOUND ( 'NONE', #155, .T. ) ;
#124 = CARTESIAN_POINT ( 'NONE',  ( 7.105427357600998700E-015, -12.70000000000000500, -1.974524842877611400 ) ) ;
#125 = DIRECTION ( 'NONE',  ( 1.000000000000000000, 0.0000000000000000000, 0.0000000000000000000 ) ) ;
#126 = CARTESIAN_POINT ( 'NONE',  ( 4.996003610813200500E-016, 2.442490654175340100E-015, -1.974524842877610300 ) ) ;
#127 = FACE_OUTER_BOUND ( 'NONE', #61, .T. ) ;
#128 = ORIENTED_EDGE ( 'NONE', *, *, #176, .T. ) ;
#129 = DIRECTION ( 'NONE',  ( 1.000000000000000000, 0.0000000000000000000, 0.0000000000000000000 ) ) ;
#130 = MECHANICAL_CONTEXT ( 'NONE', #94, 'mechanical' ) ;
#131 = APPROVAL_STATUS ( 'not_yet_approved' ) ;
#132 = DATE_TIME_ROLE ( 'classification_date' ) ;
#133 = DATE_AND_TIME ( #53, #117 ) ;
#134 = EDGE_CURVE ( 'NONE', #154, #135, #67, .T. ) ;
#135 = VERTEX_POINT ( 'NONE', #124 ) ;
#136 = EDGE_LOOP ( 'NONE', ( #204, #217, #7, #40, #19 ) ) ;
#137 = AXIS2_PLACEMENT_3D ( 'NONE', #10, #156, #86 ) ;
#138 = CARTESIAN_POINT ( 'NONE',  ( 7.105427357601000300E-015, -4.425070006512450900, 0.6963757412691881100 ) ) ;
#139 = COORDINATED_UNIVERSAL_TIME_OFFSET ( 2, 0, .AHEAD. ) ;
#140 = PRODUCT_RELATED_PRODUCT_CATEGORY ( 'detail', '', ( #44 ) ) ;
#141 = CIRCLE ( 'NONE', #42, 12.69999999999999900 ) ;
#142 = DIRECTION ( 'NONE',  ( 1.000000000000000000, 0.0000000000000000000, 0.0000000000000000000 ) ) ;
#143 =( LENGTH_UNIT ( ) NAMED_UNIT ( * ) SI_UNIT ( .MILLI., .METRE. ) );
#144 = CARTESIAN_POINT ( 'NONE',  ( -12.69999999999999900, 3.997792089092478900E-015, -1.974524842877610300 ) ) ;
#145 = APPROVAL_DATE_TIME ( #133, #164 ) ;
#146 = PERSON_AND_ORGANIZATION_ROLE ( 'classification_officer' ) ;
#147 = CARTESIAN_POINT ( 'NONE',  ( -5.204170427930421300E-015, -12.84744760734597700, -2.021810013811224000 ) ) ;
#148 = DIRECTION ( 'NONE',  ( 1.000000000000000000, 0.0000000000000000000, 0.0000000000000000000 ) ) ;
#149 = CARTESIAN_POINT ( 'NONE',  ( 12.98639991766672200, -4.425070006512452600, -1.334987333425433600 ) ) ;
#150 = COORDINATED_UNIVERSAL_TIME_OFFSET ( 2, 0, .AHEAD. ) ;
#151 = ORIENTED_EDGE ( 'NONE', *, *, #122, .T. ) ;
#152 = CARTESIAN_POINT ( 'NONE',  ( 4.996003610813200500E-016, 2.442490654175340100E-015, -1.974524842877610300 ) ) ;
#153 = CC_DESIGN_PERSON_AND_ORGANIZATION_ASSIGNMENT ( #189, #116, ( #44 ) ) ;
#154 = VERTEX_POINT ( 'NONE', #192 ) ;
#155 = EDGE_LOOP ( 'NONE', ( #13, #16, #85 ) ) ;
#156 = DIRECTION ( 'NONE',  ( 0.0000000000000000000, 0.0000000000000000000, 1.000000000000000000 ) ) ;
#157 = CARTESIAN_POINT ( 'NONE',  ( 4.996003610813200500E-016, 2.442490654175340100E-015, 3.000000000000000400 ) ) ;
#158 = APPROVAL_PERSON_ORGANIZATION ( #184, #164, #113 ) ;
#159 = AXIS2_PLACEMENT_3D ( 'NONE', #119, #201, #81 ) ;
#160 = APPLICATION_PROTOCOL_DEFINITION ( 'international standard', 'config_control_design', 1994, #71 ) ;
#161 = CARTESIAN_POINT ( 'NONE',  ( -6.938893903907228400E-015, -4.425070006512451700, 0.6963757412691852200 ) ) ;
#162 = DIRECTION ( 'NONE',  ( 0.0000000000000000000, 0.0000000000000000000, 1.000000000000000000 ) ) ;
#163 = APPLICATION_PROTOCOL_DEFINITION ( 'international standard', 'config_control_design', 1994, #94 ) ;
#164 = APPROVAL ( #182, 'UNSPECIFIED' ) ;
#165 = PRODUCT_DEFINITION ( 'UNKNOWN', '', #230, #227 ) ;
#166 = ORIENTED_EDGE ( 'NONE', *, *, #205, .F. ) ;
#167 = DIRECTION ( 'NONE',  ( 1.000000000000000000, 0.0000000000000000000, 0.0000000000000000000 ) ) ;
#168 = CARTESIAN_POINT ( 'NONE',  ( 7.105427357600998700E-015, -12.84744760734597500, -2.021810013811221800 ) ) ;
#169 = ORIENTED_EDGE ( 'NONE', *, *, #76, .T. ) ;
#170 = ORIENTED_EDGE ( 'NONE', *, *, #92, .F. ) ;
#171 = CARTESIAN_POINT ( 'NONE',  ( -12.98639991766671800, 4.425070006512449100, -1.334987333425447400 ) ) ;
#172 = EDGE_LOOP ( 'NONE', ( #170, #166, #78 ) ) ;
#173 = CARTESIAN_POINT ( 'NONE',  ( 12.15633982788288300, -12.84744760734597700, -3.923333146192750800 ) ) ;
#174 = CARTESIAN_POINT ( 'NONE',  ( 7.105427357600998700E-015, 12.69999999999999900, -1.974524842877611400 ) ) ;
#175 = COORDINATED_UNIVERSAL_TIME_OFFSET ( 2, 0, .AHEAD. ) ;
#176 = EDGE_CURVE ( 'NONE', #24, #93, #26, .T. ) ;
#177 = DIRECTION ( 'NONE',  ( 1.000000000000000000, 0.0000000000000000000, 0.0000000000000000000 ) ) ;
#178 =( NAMED_UNIT ( * ) SI_UNIT ( $, .STERADIAN. ) SOLID_ANGLE_UNIT ( ) );
#179 = APPROVAL_ROLE ( '' ) ;
#180 = CYLINDRICAL_SURFACE ( 'NONE', #137, 12.69999999999999900 ) ;
#181 = VERTEX_POINT ( 'NONE', #174 ) ;
#182 = APPROVAL_STATUS ( 'not_yet_approved' ) ;
#183 = AXIS2_PLACEMENT_3D ( 'NONE', #126, #89, #65 ) ;
#184 = PERSON_AND_ORGANIZATION ( #225, #203 ) ;
#185 = FACE_OUTER_BOUND ( 'NONE', #37, .T. ) ;
#186 = CARTESIAN_POINT ( 'NONE',  ( 12.15633982788288700, 12.84744760734597200, -3.923333146192758700 ) ) ;
#187 = CARTESIAN_POINT ( 'NONE',  ( 4.416813948665769400, 4.425070006512450000, 0.6963757412691835600 ) ) ;
#188 = DIRECTION ( 'NONE',  ( 0.0000000000000000000, 0.0000000000000000000, 1.000000000000000000 ) ) ;
#189 = PERSON_AND_ORGANIZATION ( #225, #203 ) ;
#190 =( GEOMETRIC_REPRESENTATION_CONTEXT ( 3 ) GLOBAL_UNCERTAINTY_ASSIGNED_CONTEXT ( ( #198 ) ) GLOBAL_UNIT_ASSIGNED_CONTEXT ( ( #143, #66, #178 ) ) REPRESENTATION_CONTEXT ( 'NONE', 'WORKASPACE' ) );
#191 = APPROVAL_DATE_TIME ( #206, #17 ) ;
#192 = CARTESIAN_POINT ( 'NONE',  ( -12.69999999999999900, 3.997792089092478900E-015, -1.974524842877610300 ) ) ;
#193 = CARTESIAN_POINT ( 'NONE',  ( -5.204170427930422100E-015, 4.425070006512450000, 0.6963757412691817800 ) ) ;
#194 = PRODUCT_DEFINITION_SHAPE ( 'NONE', 'NONE',  #165 ) ;
#195 = APPROVAL_DATE_TIME ( #39, #197 ) ;
#196 = ORIENTED_EDGE ( 'NONE', *, *, #76, .F. ) ;
#197 = APPROVAL ( #131, 'UNSPECIFIED' ) ;
#198 = UNCERTAINTY_MEASURE_WITH_UNIT (LENGTH_MEASURE( 1.000000000000000100E-005 ), #143, 'distance_accuracy_value', 'NONE');
#199 = LOCAL_TIME ( 9, 57, 6.000000000000000000, #175 ) ;
#200 = LOCAL_TIME ( 9, 57, 6.000000000000000000, #12 ) ;
#201 = DIRECTION ( 'NONE',  ( 0.0000000000000000000, 0.0000000000000000000, 1.000000000000000000 ) ) ;
#202 = PLANE ( 'NONE',  #159 ) ;
#203 = ORGANIZATION ( 'UNSPECIFIED', 'UNSPECIFIED', '' ) ;
#204 = ORIENTED_EDGE ( 'NONE', *, *, #205, .T. ) ;
#205 = EDGE_CURVE ( 'NONE', #24, #181, #75, .T. ) ;
#206 = DATE_AND_TIME ( #99, #56 ) ;
#207 = MANIFOLD_SOLID_BREP ( 'Imported1', #215 ) ;
#208 = DIRECTION ( 'NONE',  ( 0.0000000000000000000, 0.0000000000000000000, 1.000000000000000000 ) ) ;
#209 = LOCAL_TIME ( 9, 57, 6.000000000000000000, #150 ) ;
#210 = CC_DESIGN_PERSON_AND_ORGANIZATION_ASSIGNMENT ( #8, #33, ( #230 ) ) ;
#211 = ADVANCED_FACE ( 'NONE', ( #185 ), #100, .T. ) ;
#212 = ORIENTED_EDGE ( 'NONE', *, *, #134, .T. ) ;
#213 = AXIS2_PLACEMENT_3D ( 'NONE', #11, #9, #177 ) ;
#214 = SHAPE_DEFINITION_REPRESENTATION ( #194, #18 ) ;
#215 = CLOSED_SHELL ( 'NONE', ( #69, #112, #72, #211, #46 ) ) ;
#216 = CC_DESIGN_SECURITY_CLASSIFICATION ( #73, ( #230 ) ) ;
#217 = ORIENTED_EDGE ( 'NONE', *, *, #25, .T. ) ;
#218 = CARTESIAN_POINT ( 'NONE',  ( -8.219331512715196900, 12.84744760734597500, -2.660768669897429600 ) ) ;
#219 = CC_DESIGN_PERSON_AND_ORGANIZATION_ASSIGNMENT ( #2, #146, ( #73 ) ) ;
#220 = FACE_OUTER_BOUND ( 'NONE', #136, .T. ) ;
#221 = CARTESIAN_POINT ( 'NONE',  ( -4.416813948665769400, -4.425070006512450900, 0.6963757412691838900 ) ) ;
#222 = CARTESIAN_POINT ( 'NONE',  ( -3.469446951953614200E-015, 12.84744760734597200, -2.021810013811231600 ) ) ;
#223 = PERSON_AND_ORGANIZATION ( #225, #203 ) ;
#224 = AXIS2_PLACEMENT_3D ( 'NONE', #231, #142, #29 ) ;
#225 = PERSON ( 'UNSPECIFIED', 'UNSPECIFIED', 'UNSPECIFIED', ('UNSPECIFIED'), ('UNSPECIFIED'), ('UNSPECIFIED') ) ;
#226 = DIRECTION ( 'NONE',  ( 1.000000000000000000, 0.0000000000000000000, 0.0000000000000000000 ) ) ;
#227 = DESIGN_CONTEXT ( 'detailed design', #71, 'design' ) ;
#228 = DIRECTION ( 'NONE',  ( 0.0000000000000000000, 0.0000000000000000000, 1.000000000000000000 ) ) ;
#229 = CARTESIAN_POINT ( 'NONE',  ( -12.69999999999999900, 3.997792089092478900E-015, 3.000000000000000400 ) ) ;
#230 = PRODUCT_DEFINITION_FORMATION_WITH_SPECIFIED_SOURCE ( 'ANY', '', #44, .NOT_KNOWN. ) ;
#231 = CARTESIAN_POINT ( 'NONE',  ( 7.105427357601000300E-015, -7.105427357601000300E-015, -41.82999999999999800 ) ) ;
#232 = VERTEX_POINT ( 'NONE', #229 ) ;
#233 = CIRCLE ( 'NONE', #102, 12.69999999999999900 ) ;
#234 = APPROVAL_ROLE ( '' ) ;
#235 = CIRCLE ( 'NONE', #54, 12.69999999999999900 ) ;
ENDSEC;
END-ISO-10303-21;
