ISO-10303-21;
HEADER;
FILE_DESCRIPTION (( 'STEP AP203' ),
    '1' );
FILE_NAME ('112-5209E CaF2 pl-cv 12.7 F-75.STEP',
    '2019-01-18T07:45:11',
    ( '' ),
    ( '' ),
    'SwSTEP 2.0',
    'SolidWorks 2017',
    '' );
FILE_SCHEMA (( 'CONFIG_CONTROL_DESIGN' ));
ENDSEC;

DATA;
#1 = CIRCLE ( 'NONE', #179, 12.69999999999999900 ) ;
#2 = PRODUCT_DEFINITION ( 'UNKNOWN', '', #134, #64 ) ;
#3 = CARTESIAN_POINT ( 'NONE',  ( -11.65224107106543400, 12.84331110239648800, -5.229006561554800900 ) ) ;
#4 = LOCAL_TIME ( 9, 45, 11.00000000000000000, #70 ) ;
#5 = DIRECTION ( 'NONE',  ( 0.0000000000000000000, 0.0000000000000000000, 1.000000000000000000 ) ) ;
#6 = APPROVAL_PERSON_ORGANIZATION ( #132, #197, #183 ) ;
#7 = CARTESIAN_POINT ( 'NONE',  ( -9.008443250203198400, -4.546791518683940900, 0.02561208773397172600 ) ) ;
#8 = AXIS2_PLACEMENT_3D ( 'NONE', #56, #235, #18 ) ;
#9 =( LENGTH_UNIT ( ) NAMED_UNIT ( * ) SI_UNIT ( .MILLI., .METRE. ) );
#10 = CARTESIAN_POINT ( 'NONE',  ( 4.996003610813200500E-016, 2.442490654175340100E-015, -2.685737764411650000 ) ) ;
#11 = ADVANCED_FACE ( 'NONE', ( #55 ), #14, .T. ) ;
#12 = CARTESIAN_POINT ( 'NONE',  ( 4.996003610813200500E-016, 2.442490654175340100E-015, 2.799999999999999400 ) ) ;
#13 = DATE_AND_TIME ( #59, #149 ) ;
#14 = CYLINDRICAL_SURFACE ( 'NONE', #110, 12.69999999999999900 ) ;
#15 = CC_DESIGN_DATE_AND_TIME_ASSIGNMENT ( #51, #73, ( #192 ) ) ;
#16 = APPLICATION_PROTOCOL_DEFINITION ( 'international standard', 'config_control_design', 1994, #32 ) ;
#17 = COORDINATED_UNIVERSAL_TIME_OFFSET ( 2, 0, .AHEAD. ) ;
#18 = DIRECTION ( 'NONE',  ( 1.000000000000000000, 0.0000000000000000000, 0.0000000000000000000 ) ) ;
#19 = AXIS2_PLACEMENT_3D ( 'NONE', #210, #109, #107 ) ;
#20 = CARTESIAN_POINT ( 'NONE',  ( 11.65224107106543600, 12.84331110239648600, -5.229006561554801800 ) ) ;
#21 = LOCAL_TIME ( 9, 45, 11.00000000000000000, #62 ) ;
#22 = ORIENTED_EDGE ( 'NONE', *, *, #117, .F. ) ;
#23 = CARTESIAN_POINT ( 'NONE',  ( 4.029863983224297300, -12.84331110239648400, -2.749618103053567800 ) ) ;
#24 = AXIS2_PLACEMENT_3D ( 'NONE', #10, #52, #130 ) ;
#25 = CARTESIAN_POINT ( 'NONE',  ( -9.008443250203193000, 4.546791518683940900, 0.02561208773397020300 ) ) ;
#26 = CARTESIAN_POINT ( 'NONE',  ( -7.971484877014356500, -12.84331110239648900, -3.588324519462853200 ) ) ;
#27 = CC_DESIGN_PERSON_AND_ORGANIZATION_ASSIGNMENT ( #121, #54, ( #134 ) ) ;
#28 = DIRECTION ( 'NONE',  ( 0.0000000000000000000, 0.0000000000000000000, 1.000000000000000000 ) ) ;
#29 = CARTESIAN_POINT ( 'NONE',  ( -1.214306433183764800E-014, -4.546791518683939200, 0.9734203408224678700 ) ) ;
#30 = ORIENTED_EDGE ( 'NONE', *, *, #222, .F. ) ;
#31 = APPROVAL ( #74, 'UNSPECIFIED' ) ;
#32 = APPLICATION_CONTEXT ( 'configuration controlled 3d designs of mechanical parts and assemblies' ) ;
#33 = ORIENTED_EDGE ( 'NONE', *, *, #216, .F. ) ;
#34 = DIRECTION ( 'NONE',  ( 1.000000000000000000, 0.0000000000000000000, 0.0000000000000000000 ) ) ;
#35 = ADVANCED_FACE ( 'NONE', ( #165 ), #67, .T. ) ;
#36 = ADVANCED_FACE ( 'NONE', ( #208 ), #53, .F. ) ;
#37 = PRODUCT ( '112-5209E CaF2 pl-cv 12.7 F-75', '112-5209E CaF2 pl-cv 12.7 F-75', '', ( #95 ) ) ;
#38 = LOCAL_TIME ( 9, 45, 11.00000000000000000, #169 ) ;
#39 = VERTEX_POINT ( 'NONE', #212 ) ;
#40 = DATE_AND_TIME ( #66, #224 ) ;
#41 = ORIENTED_EDGE ( 'NONE', *, *, #216, .T. ) ;
#42 = DATE_AND_TIME ( #98, #38 ) ;
#43 = CARTESIAN_POINT ( 'NONE',  ( -3.552713678800499700E-015, -4.546791518683936500, 0.9734203408224643100 ) ) ;
#44 = CC_DESIGN_DATE_AND_TIME_ASSIGNMENT ( #13, #161, ( #2 ) ) ;
#45 = ORIENTED_EDGE ( 'NONE', *, *, #94, .T. ) ;
#46 = DIRECTION ( 'NONE',  ( 0.0000000000000000000, 1.000000000000000000, 2.211952152982858800E-016 ) ) ;
#47 = CARTESIAN_POINT ( 'NONE',  ( -1.040834085586084100E-014, 4.546791518683939200, 0.9734203408224655400 ) ) ;
#48 = AXIS2_PLACEMENT_3D ( 'NONE', #125, #177, #174 ) ;
#49 = CARTESIAN_POINT ( 'NONE',  ( -3.552713678800500100E-015, 0.0000000000000000000, -31.37000000000000100 ) ) ;
#50 = CARTESIAN_POINT ( 'NONE',  ( -1.214306433183765000E-014, 12.84331110239648600, -2.749618103053567800 ) ) ;
#51 = DATE_AND_TIME ( #181, #4 ) ;
#52 = DIRECTION ( 'NONE',  ( 0.0000000000000000000, 0.0000000000000000000, 1.000000000000000000 ) ) ;
#53 =( BOUNDED_SURFACE ( )  B_SPLINE_SURFACE ( 3, 3, ( 
 ( #3, #198, #140, #50 ),
 ( #139, #25, #160, #47 ),
 ( #173, #7, #68, #29 ),
 ( #154, #26, #92, #195 ) ),
 .UNSPECIFIED., .F., .F., .T. ) 
 B_SPLINE_SURFACE_WITH_KNOTS ( ( 4, 4 ),
 ( 4, 4 ),
 ( 0.0000000000000000000, 1.000000000000000000 ),
 ( 0.0000000000000000000, 1.000000000000000000 ),
 .UNSPECIFIED. ) 
 GEOMETRIC_REPRESENTATION_ITEM ( )  RATIONAL_B_SPLINE_SURFACE ( (
 ( 1.000000000000000000, 0.9854018084644069500, 0.9854018084644069500, 1.000000000000000000),
 ( 0.9415658675368490100, 0.9278207086591692100, 0.9278207086591692100, 0.9415658675368490100),
 ( 0.9415658675368490100, 0.9278207086591692100, 0.9278207086591692100, 0.9415658675368490100),
 ( 1.000000000000000000, 0.9854018084644069500, 0.9854018084644069500, 1.000000000000000000) ) ) 
 REPRESENTATION_ITEM ( '' )  SURFACE ( )  );
#54 = PERSON_AND_ORGANIZATION_ROLE ( 'creator' ) ;
#55 = FACE_OUTER_BOUND ( 'NONE', #99, .T. ) ;
#56 = CARTESIAN_POINT ( 'NONE',  ( 4.996003610813200500E-016, 2.442490654175340100E-015, -2.685737764411650000 ) ) ;
#57 = PERSON_AND_ORGANIZATION ( #233, #163 ) ;
#58 = CC_DESIGN_APPROVAL ( #31, ( #192 ) ) ;
#59 = CALENDAR_DATE ( 2019, 18, 1 ) ;
#60 = ORIENTED_EDGE ( 'NONE', *, *, #230, .T. ) ;
#61 = CARTESIAN_POINT ( 'NONE',  ( 9.008443250203193000, -4.546791518683934700, 0.02561208773396955400 ) ) ;
#62 = COORDINATED_UNIVERSAL_TIME_OFFSET ( 2, 0, .AHEAD. ) ;
#63 = CARTESIAN_POINT ( 'NONE',  ( 12.69999999999999900, 2.442490654175340100E-015, 2.799999999999999400 ) ) ;
#64 = DESIGN_CONTEXT ( 'detailed design', #32, 'design' ) ;
#65 = DIRECTION ( 'NONE',  ( 1.000000000000000000, 0.0000000000000000000, 0.0000000000000000000 ) ) ;
#66 = CALENDAR_DATE ( 2019, 18, 1 ) ;
#67 = CYLINDRICAL_SURFACE ( 'NONE', #193, 12.69999999999999900 ) ;
#68 = CARTESIAN_POINT ( 'NONE',  ( -4.554082653232208100, -4.546791518683940900, 0.9734203408224667600 ) ) ;
#69 = CARTESIAN_POINT ( 'NONE',  ( 4.996003610813200500E-016, 2.442490654175340100E-015, 2.799999999999999400 ) ) ;
#70 = COORDINATED_UNIVERSAL_TIME_OFFSET ( 2, 0, .AHEAD. ) ;
#71 = CIRCLE ( 'NONE', #24, 12.69999999999999900 ) ;
#72 =( NAMED_UNIT ( * ) SI_UNIT ( $, .STERADIAN. ) SOLID_ANGLE_UNIT ( ) );
#73 = DATE_TIME_ROLE ( 'classification_date' ) ;
#74 = APPROVAL_STATUS ( 'not_yet_approved' ) ;
#75 = AXIS2_PLACEMENT_3D ( 'NONE', #49, #65, #46 ) ;
#76 = MANIFOLD_SOLID_BREP ( 'Imported1', #172 ) ;
#77 =( NAMED_UNIT ( * ) PLANE_ANGLE_UNIT ( ) SI_UNIT ( $, .RADIAN. ) );
#78 = CARTESIAN_POINT ( 'NONE',  ( 4.554082653232198300, 4.546791518683940900, 0.9734203408224655400 ) ) ;
#79 = CARTESIAN_POINT ( 'NONE',  ( 7.971484877014352900, 12.84331110239648800, -3.588324519462852400 ) ) ;
#80 = PERSON_AND_ORGANIZATION ( #233, #163 ) ;
#81 = CARTESIAN_POINT ( 'NONE',  ( -3.552713678800499700E-015, 4.546791518683939200, 0.9734203408224653100 ) ) ;
#82 = APPROVAL ( #93, 'UNSPECIFIED' ) ;
#83 = CARTESIAN_POINT ( 'NONE',  ( -3.552713678800500100E-015, -12.84331110239648400, -2.749618103053567800 ) ) ;
#84 = EDGE_LOOP ( 'NONE', ( #102, #214, #45, #60, #91 ) ) ;
#85 = EDGE_CURVE ( 'NONE', #39, #221, #219, .T. ) ;
#86 = DIRECTION ( 'NONE',  ( 0.0000000000000000000, 0.0000000000000000000, 1.000000000000000000 ) ) ;
#87 = CC_DESIGN_PERSON_AND_ORGANIZATION_ASSIGNMENT ( #80, #184, ( #134 ) ) ;
#88 = DIRECTION ( 'NONE',  ( 1.000000000000000000, 0.0000000000000000000, 0.0000000000000000000 ) ) ;
#89 = EDGE_CURVE ( 'NONE', #211, #122, #1, .T. ) ;
#90 = CARTESIAN_POINT ( 'NONE',  ( -3.552713678800500100E-015, 12.69999999999999900, -2.685737764411649600 ) ) ;
#91 = ORIENTED_EDGE ( 'NONE', *, *, #188, .F. ) ;
#92 = CARTESIAN_POINT ( 'NONE',  ( -4.029863983224305300, -12.84331110239649100, -2.749618103053567800 ) ) ;
#93 = APPROVAL_STATUS ( 'not_yet_approved' ) ;
#94 = EDGE_CURVE ( 'NONE', #150, #122, #176, .T. ) ;
#95 = MECHANICAL_CONTEXT ( 'NONE', #131, 'mechanical' ) ;
#96 = ORIENTED_EDGE ( 'NONE', *, *, #230, .F. ) ;
#97 = DIRECTION ( 'NONE',  ( 1.000000000000000000, 0.0000000000000000000, 0.0000000000000000000 ) ) ;
#98 = CALENDAR_DATE ( 2019, 18, 1 ) ;
#99 = EDGE_LOOP ( 'NONE', ( #114, #205, #199, #228, #167 ) ) ;
#100 = PRODUCT_DEFINITION_SHAPE ( 'NONE', 'NONE',  #2 ) ;
#101 = PERSON_AND_ORGANIZATION ( #233, #163 ) ;
#102 = ORIENTED_EDGE ( 'NONE', *, *, #222, .T. ) ;
#103 = AXIS2_PLACEMENT_3D ( 'NONE', #226, #5, #157 ) ;
#104 = CARTESIAN_POINT ( 'NONE',  ( -3.552713678800500100E-015, 12.84331110239648600, -2.749618103053567800 ) ) ;
#105 = EDGE_LOOP ( 'NONE', ( #164, #96 ) ) ;
#106 = CC_DESIGN_SECURITY_CLASSIFICATION ( #192, ( #134 ) ) ;
#107 = DIRECTION ( 'NONE',  ( 1.000000000000000000, 0.0000000000000000000, -0.0000000000000000000 ) ) ;
#108 = DIRECTION ( 'NONE',  ( -0.0000000000000000000, -0.0000000000000000000, -1.000000000000000000 ) ) ;
#109 = DIRECTION ( 'NONE',  ( 0.0000000000000000000, 0.0000000000000000000, 1.000000000000000000 ) ) ;
#110 = AXIS2_PLACEMENT_3D ( 'NONE', #201, #156, #88 ) ;
#111 = DATE_AND_TIME ( #116, #21 ) ;
#112 = APPROVAL_DATE_TIME ( #40, #82 ) ;
#113 =( GEOMETRIC_REPRESENTATION_CONTEXT ( 3 ) GLOBAL_UNCERTAINTY_ASSIGNED_CONTEXT ( ( #175 ) ) GLOBAL_UNIT_ASSIGNED_CONTEXT ( ( #9, #77, #72 ) ) REPRESENTATION_CONTEXT ( 'NONE', 'WORKASPACE' ) );
#114 = ORIENTED_EDGE ( 'NONE', *, *, #94, .F. ) ;
#115 = CARTESIAN_POINT ( 'NONE',  ( 9.008443250203191300, 4.546791518683941800, 0.02561208773397063600 ) ) ;
#116 = CALENDAR_DATE ( 2019, 18, 1 ) ;
#117 = EDGE_CURVE ( 'NONE', #150, #39, #127, .T. ) ;
#118 = CIRCLE ( 'NONE', #141, 12.69999999999999900 ) ;
#119 = ORIENTED_EDGE ( 'NONE', *, *, #218, .F. ) ;
#120 =( BOUNDED_SURFACE ( )  B_SPLINE_SURFACE ( 3, 3, ( 
 ( #104, #189, #79, #20 ),
 ( #81, #78, #115, #209 ),
 ( #43, #135, #61, #151 ),
 ( #83, #23, #153, #136 ) ),
 .UNSPECIFIED., .F., .F., .F. ) 
 B_SPLINE_SURFACE_WITH_KNOTS ( ( 4, 4 ),
 ( 4, 4 ),
 ( 0.0000000000000000000, 1.000000000000000000 ),
 ( 0.0000000000000000000, 1.000000000000000000 ),
 .UNSPECIFIED. ) 
 GEOMETRIC_REPRESENTATION_ITEM ( )  RATIONAL_B_SPLINE_SURFACE ( (
 ( 1.000000000000000000, 0.9854018084644069500, 0.9854018084644069500, 1.000000000000000000),
 ( 0.9415658675368490100, 0.9278207086591692100, 0.9278207086591692100, 0.9415658675368490100),
 ( 0.9415658675368490100, 0.9278207086591692100, 0.9278207086591692100, 0.9415658675368490100),
 ( 1.000000000000000000, 0.9854018084644069500, 0.9854018084644069500, 1.000000000000000000) ) ) 
 REPRESENTATION_ITEM ( '' )  SURFACE ( )  );
#121 = PERSON_AND_ORGANIZATION ( #233, #163 ) ;
#122 = VERTEX_POINT ( 'NONE', #196 ) ;
#123 = AXIS2_PLACEMENT_3D ( 'NONE', #178, #126, #97 ) ;
#124 = CARTESIAN_POINT ( 'NONE',  ( -12.69999999999999900, 3.997792089092478900E-015, -2.685737764411650000 ) ) ;
#125 = CARTESIAN_POINT ( 'NONE',  ( 4.996003610813200500E-016, 2.442490654175340100E-015, -2.685737764411650000 ) ) ;
#126 = DIRECTION ( 'NONE',  ( 0.0000000000000000000, 0.0000000000000000000, 1.000000000000000000 ) ) ;
#127 = CIRCLE ( 'NONE', #8, 12.69999999999999900 ) ;
#128 = CC_DESIGN_PERSON_AND_ORGANIZATION_ASSIGNMENT ( #232, #231, ( #37 ) ) ;
#129 = PERSON_AND_ORGANIZATION_ROLE ( 'classification_officer' ) ;
#130 = DIRECTION ( 'NONE',  ( 1.000000000000000000, 0.0000000000000000000, 0.0000000000000000000 ) ) ;
#131 = APPLICATION_CONTEXT ( 'configuration controlled 3d designs of mechanical parts and assemblies' ) ;
#132 = PERSON_AND_ORGANIZATION ( #233, #163 ) ;
#133 = VECTOR ( 'NONE', #86, 1000.000000000000000 ) ;
#134 = PRODUCT_DEFINITION_FORMATION_WITH_SPECIFIED_SOURCE ( 'ANY', '', #37, .NOT_KNOWN. ) ;
#135 = CARTESIAN_POINT ( 'NONE',  ( 4.554082653232198300, -4.546791518683935600, 0.9734203408224644200 ) ) ;
#136 = CARTESIAN_POINT ( 'NONE',  ( 11.65224107106543800, -12.84331110239648400, -5.229006561554802700 ) ) ;
#137 = VERTEX_POINT ( 'NONE', #90 ) ;
#138 = PLANE ( 'NONE',  #19 ) ;
#139 = CARTESIAN_POINT ( 'NONE',  ( -13.16800496342342800, 4.546791518683939200, -1.828495559190212100 ) ) ;
#140 = CARTESIAN_POINT ( 'NONE',  ( -4.029863983224307100, 12.84331110239648800, -2.749618103053569100 ) ) ;
#141 = AXIS2_PLACEMENT_3D ( 'NONE', #12, #204, #34 ) ;
#142 = CARTESIAN_POINT ( 'NONE',  ( 12.69999999999999900, 2.442490654175340100E-015, -2.685737764411650000 ) ) ;
#143 = APPROVAL_DATE_TIME ( #111, #31 ) ;
#144 = CC_DESIGN_APPROVAL ( #82, ( #2 ) ) ;
#145 = PERSON_AND_ORGANIZATION_ROLE ( 'creator' ) ;
#146 = CC_DESIGN_PERSON_AND_ORGANIZATION_ASSIGNMENT ( #194, #129, ( #192 ) ) ;
#147 = VECTOR ( 'NONE', #28, 1000.000000000000000 ) ;
#148 = APPROVAL_ROLE ( '' ) ;
#149 = LOCAL_TIME ( 9, 45, 11.00000000000000000, #182 ) ;
#150 = VERTEX_POINT ( 'NONE', #152 ) ;
#151 = CARTESIAN_POINT ( 'NONE',  ( 13.16800496342343200, -4.546791518683935600, -1.828495559190216600 ) ) ;
#152 = CARTESIAN_POINT ( 'NONE',  ( -12.69999999999999900, 3.997792089092478900E-015, -2.685737764411650000 ) ) ;
#153 = CARTESIAN_POINT ( 'NONE',  ( 7.971484877014354700, -12.84331110239648400, -3.588324519462852800 ) ) ;
#154 = CARTESIAN_POINT ( 'NONE',  ( -11.65224107106543600, -12.84331110239648800, -5.229006561554800900 ) ) ;
#155 = PRODUCT_RELATED_PRODUCT_CATEGORY ( 'detail', '', ( #37 ) ) ;
#156 = DIRECTION ( 'NONE',  ( 0.0000000000000000000, 0.0000000000000000000, 1.000000000000000000 ) ) ;
#157 = DIRECTION ( 'NONE',  ( 1.000000000000000000, 0.0000000000000000000, 0.0000000000000000000 ) ) ;
#158 = DIRECTION ( 'NONE',  ( 0.0000000000000000000, 0.0000000000000000000, 1.000000000000000000 ) ) ;
#159 = PERSON_AND_ORGANIZATION ( #233, #163 ) ;
#160 = CARTESIAN_POINT ( 'NONE',  ( -4.554082653232205400, 4.546791518683940900, 0.9734203408224647600 ) ) ;
#161 = DATE_TIME_ROLE ( 'creation_date' ) ;
#162 = ADVANCED_FACE ( 'NONE', ( #225 ), #120, .F. ) ;
#163 = ORGANIZATION ( 'UNSPECIFIED', 'UNSPECIFIED', '' ) ;
#164 = ORIENTED_EDGE ( 'NONE', *, *, #89, .F. ) ;
#165 = FACE_OUTER_BOUND ( 'NONE', #84, .T. ) ;
#166 = CIRCLE ( 'NONE', #103, 12.69999999999999900 ) ;
#167 = ORIENTED_EDGE ( 'NONE', *, *, #89, .T. ) ;
#168 = CC_DESIGN_PERSON_AND_ORGANIZATION_ASSIGNMENT ( #57, #145, ( #2 ) ) ;
#169 = COORDINATED_UNIVERSAL_TIME_OFFSET ( 2, 0, .AHEAD. ) ;
#170 = LINE ( 'NONE', #171, #133 ) ;
#171 = CARTESIAN_POINT ( 'NONE',  ( 12.69999999999999900, 2.442490654175340100E-015, -2.685737764411650000 ) ) ;
#172 = CLOSED_SHELL ( 'NONE', ( #36, #35, #162, #11, #215 ) ) ;
#173 = CARTESIAN_POINT ( 'NONE',  ( -13.16800496342343000, -4.546791518683939200, -1.828495559190210600 ) ) ;
#174 = DIRECTION ( 'NONE',  ( 1.000000000000000000, 0.0000000000000000000, 0.0000000000000000000 ) ) ;
#175 = UNCERTAINTY_MEASURE_WITH_UNIT (LENGTH_MEASURE( 1.000000000000000100E-005 ), #9, 'distance_accuracy_value', 'NONE');
#176 = LINE ( 'NONE', #124, #147 ) ;
#177 = DIRECTION ( 'NONE',  ( 0.0000000000000000000, 0.0000000000000000000, 1.000000000000000000 ) ) ;
#178 = CARTESIAN_POINT ( 'NONE',  ( 0.0000000000000000000, 0.0000000000000000000, 0.0000000000000000000 ) ) ;
#179 = AXIS2_PLACEMENT_3D ( 'NONE', #69, #108, #229 ) ;
#180 = SECURITY_CLASSIFICATION_LEVEL ( 'unclassified' ) ;
#181 = CALENDAR_DATE ( 2019, 18, 1 ) ;
#182 = COORDINATED_UNIVERSAL_TIME_OFFSET ( 2, 0, .AHEAD. ) ;
#183 = APPROVAL_ROLE ( '' ) ;
#184 = PERSON_AND_ORGANIZATION_ROLE ( 'design_supplier' ) ;
#185 = ORIENTED_EDGE ( 'NONE', *, *, #85, .F. ) ;
#186 = ADVANCED_BREP_SHAPE_REPRESENTATION ( '112-5209E CaF2 pl-cv 12.7 F-75', ( #76, #123 ), #113 ) ;
#187 = EDGE_LOOP ( 'NONE', ( #119, #41, #22 ) ) ;
#188 = EDGE_CURVE ( 'NONE', #221, #211, #170, .T. ) ;
#189 = CARTESIAN_POINT ( 'NONE',  ( 4.029863983224297300, 12.84331110239648800, -2.749618103053567800 ) ) ;
#190 = SHAPE_DEFINITION_REPRESENTATION ( #100, #186 ) ;
#191 = EDGE_LOOP ( 'NONE', ( #33, #30, #185 ) ) ;
#192 = SECURITY_CLASSIFICATION ( '', '', #180 ) ;
#193 = AXIS2_PLACEMENT_3D ( 'NONE', #200, #158, #227 ) ;
#194 = PERSON_AND_ORGANIZATION ( #233, #163 ) ;
#195 = CARTESIAN_POINT ( 'NONE',  ( -1.040834085586084300E-014, -12.84331110239648900, -2.749618103053566900 ) ) ;
#196 = CARTESIAN_POINT ( 'NONE',  ( -12.69999999999999900, 3.997792089092478900E-015, 2.799999999999999400 ) ) ;
#197 = APPROVAL ( #217, 'UNSPECIFIED' ) ;
#198 = CARTESIAN_POINT ( 'NONE',  ( -7.971484877014354700, 12.84331110239648900, -3.588324519462853200 ) ) ;
#199 = ORIENTED_EDGE ( 'NONE', *, *, #85, .T. ) ;
#200 = CARTESIAN_POINT ( 'NONE',  ( 4.996003610813200500E-016, 2.442490654175340100E-015, -2.685737764411650000 ) ) ;
#201 = CARTESIAN_POINT ( 'NONE',  ( 4.996003610813200500E-016, 2.442490654175340100E-015, -2.685737764411650000 ) ) ;
#202 = APPROVAL_ROLE ( '' ) ;
#203 = APPROVAL_PERSON_ORGANIZATION ( #159, #31, #202 ) ;
#204 = DIRECTION ( 'NONE',  ( -0.0000000000000000000, -0.0000000000000000000, -1.000000000000000000 ) ) ;
#205 = ORIENTED_EDGE ( 'NONE', *, *, #117, .T. ) ;
#206 = APPLICATION_PROTOCOL_DEFINITION ( 'international standard', 'config_control_design', 1994, #131 ) ;
#207 = APPROVAL_PERSON_ORGANIZATION ( #101, #82, #148 ) ;
#208 = FACE_OUTER_BOUND ( 'NONE', #187, .T. ) ;
#209 = CARTESIAN_POINT ( 'NONE',  ( 13.16800496342343000, 4.546791518683939200, -1.828495559190214800 ) ) ;
#210 = CARTESIAN_POINT ( 'NONE',  ( 0.0000000000000000000, 26.11199999999999800, 2.799999999999999800 ) ) ;
#211 = VERTEX_POINT ( 'NONE', #63 ) ;
#212 = CARTESIAN_POINT ( 'NONE',  ( -3.552713678800500100E-015, -12.69999999999999800, -2.685737764411646000 ) ) ;
#213 = CC_DESIGN_APPROVAL ( #197, ( #134 ) ) ;
#214 = ORIENTED_EDGE ( 'NONE', *, *, #218, .T. ) ;
#215 = ADVANCED_FACE ( 'NONE', ( #220 ), #138, .T. ) ;
#216 = EDGE_CURVE ( 'NONE', #137, #39, #234, .T. ) ;
#217 = APPROVAL_STATUS ( 'not_yet_approved' ) ;
#218 = EDGE_CURVE ( 'NONE', #137, #150, #166, .T. ) ;
#219 = CIRCLE ( 'NONE', #48, 12.69999999999999900 ) ;
#220 = FACE_OUTER_BOUND ( 'NONE', #105, .T. ) ;
#221 = VERTEX_POINT ( 'NONE', #142 ) ;
#222 = EDGE_CURVE ( 'NONE', #221, #137, #71, .T. ) ;
#223 = APPROVAL_DATE_TIME ( #42, #197 ) ;
#224 = LOCAL_TIME ( 9, 45, 11.00000000000000000, #17 ) ;
#225 = FACE_OUTER_BOUND ( 'NONE', #191, .T. ) ;
#226 = CARTESIAN_POINT ( 'NONE',  ( 4.996003610813200500E-016, 2.442490654175340100E-015, -2.685737764411650000 ) ) ;
#227 = DIRECTION ( 'NONE',  ( 1.000000000000000000, 0.0000000000000000000, 0.0000000000000000000 ) ) ;
#228 = ORIENTED_EDGE ( 'NONE', *, *, #188, .T. ) ;
#229 = DIRECTION ( 'NONE',  ( 1.000000000000000000, 0.0000000000000000000, 0.0000000000000000000 ) ) ;
#230 = EDGE_CURVE ( 'NONE', #122, #211, #118, .T. ) ;
#231 = PERSON_AND_ORGANIZATION_ROLE ( 'design_owner' ) ;
#232 = PERSON_AND_ORGANIZATION ( #233, #163 ) ;
#233 = PERSON ( 'UNSPECIFIED', 'UNSPECIFIED', 'UNSPECIFIED', ('UNSPECIFIED'), ('UNSPECIFIED'), ('UNSPECIFIED') ) ;
#234 = CIRCLE ( 'NONE', #75, 31.37000000000000100 ) ;
#235 = DIRECTION ( 'NONE',  ( 0.0000000000000000000, 0.0000000000000000000, 1.000000000000000000 ) ) ;
ENDSEC;
END-ISO-10303-21;
