ISO-10303-21;
HEADER;
FILE_DESCRIPTION (( 'STEP AP203' ),
    '1' );
FILE_NAME ('112-5205E CaF2 pl-cv 12.7 F-50.STEP',
    '2019-01-18T07:34:07',
    ( '' ),
    ( '' ),
    'SwSTEP 2.0',
    'SolidWorks 2017',
    '' );
FILE_SCHEMA (( 'CONFIG_CONTROL_DESIGN' ));
ENDSEC;

DATA;
#1 = CALENDAR_DATE ( 2019, 18, 1 ) ;
#2 = CC_DESIGN_PERSON_AND_ORGANIZATION_ASSIGNMENT ( #34, #221, ( #181 ) ) ;
#3 = DIRECTION ( 'NONE',  ( 0.0000000000000000000, 0.0000000000000000000, 1.000000000000000000 ) ) ;
#4 =( NAMED_UNIT ( * ) PLANE_ANGLE_UNIT ( ) SI_UNIT ( $, .RADIAN. ) );
#5 = CALENDAR_DATE ( 2019, 18, 1 ) ;
#6 = LINE ( 'NONE', #226, #143 ) ;
#7 = CARTESIAN_POINT ( 'NONE',  ( -5.041235155994228600, 4.974144514515676200, 1.705358519242160100 ) ) ;
#8 = DIRECTION ( 'NONE',  ( 0.0000000000000000000, 0.0000000000000000000, 1.000000000000000000 ) ) ;
#9 = CARTESIAN_POINT ( 'NONE',  ( -5.041235155994228600, -4.974144514515673500, 1.705358519242160100 ) ) ;
#10 = CARTESIAN_POINT ( 'NONE',  ( -7.164571721274778100, -12.82972393050027900, -5.585446747594446900 ) ) ;
#11 = DATE_AND_TIME ( #138, #128 ) ;
#12 = CARTESIAN_POINT ( 'NONE',  ( 4.996003610813200500E-016, 2.442490654175340100E-015, 2.700000000000000200 ) ) ;
#13 = CC_DESIGN_DATE_AND_TIME_ASSIGNMENT ( #217, #115, ( #159 ) ) ;
#14 = PERSON_AND_ORGANIZATION ( #98, #77 ) ;
#15 = ORIENTED_EDGE ( 'NONE', *, *, #166, .F. ) ;
#16 = DIRECTION ( 'NONE',  ( 0.0000000000000000000, 0.0000000000000000000, 1.000000000000000000 ) ) ;
#17 = CARTESIAN_POINT ( 'NONE',  ( 0.0000000000000000000, 1.776356839400250100E-015, -20.91000000000000000 ) ) ;
#18 = DIRECTION ( 'NONE',  ( 1.000000000000000000, 0.0000000000000000000, 0.0000000000000000000 ) ) ;
#19 = PRODUCT_DEFINITION ( 'UNKNOWN', '', #181, #117 ) ;
#20 = VERTEX_POINT ( 'NONE', #136 ) ;
#21 = CARTESIAN_POINT ( 'NONE',  ( 0.0000000000000000000, -12.82972393050027500, -4.398601395788771700 ) ) ;
#22 = CIRCLE ( 'NONE', #86, 12.69999999999999900 ) ;
#23 = CARTESIAN_POINT ( 'NONE',  ( 9.813181911320793200, 4.974144514515674400, 0.07975830321105704900 ) ) ;
#24 = AXIS2_PLACEMENT_3D ( 'NONE', #169, #3, #165 ) ;
#25 = CARTESIAN_POINT ( 'NONE',  ( 4.996003610813200500E-016, 2.442490654175340100E-015, 2.700000000000000200 ) ) ;
#26 = APPLICATION_PROTOCOL_DEFINITION ( 'international standard', 'config_control_design', 1994, #129 ) ;
#27 = CIRCLE ( 'NONE', #24, 12.69999999999999900 ) ;
#28 = CC_DESIGN_APPROVAL ( #230, ( #159 ) ) ;
#29 = EDGE_CURVE ( 'NONE', #37, #78, #174, .T. ) ;
#30 = APPLICATION_CONTEXT ( 'configuration controlled 3d designs of mechanical parts and assemblies' ) ;
#31 = CARTESIAN_POINT ( 'NONE',  ( -10.07973890284261900, -12.82972393050027500, -7.832341665356540100 ) ) ;
#32 = ORIENTED_EDGE ( 'NONE', *, *, #81, .T. ) ;
#33 = DIRECTION ( 'NONE',  ( 1.000000000000000000, 0.0000000000000000000, 0.0000000000000000000 ) ) ;
#34 = PERSON_AND_ORGANIZATION ( #98, #77 ) ;
#35 =( GEOMETRIC_REPRESENTATION_CONTEXT ( 3 ) GLOBAL_UNCERTAINTY_ASSIGNED_CONTEXT ( ( #160 ) ) GLOBAL_UNIT_ASSIGNED_CONTEXT ( ( #191, #4, #151 ) ) REPRESENTATION_CONTEXT ( 'NONE', 'WORKASPACE' ) );
#36 = CARTESIAN_POINT ( 'NONE',  ( -3.469446951953614200E-015, -12.82972393050027500, -4.398601395788771700 ) ) ;
#37 = VERTEX_POINT ( 'NONE', #61 ) ;
#38 = CARTESIAN_POINT ( 'NONE',  ( 0.0000000000000000000, 4.974144514515674400, 1.705358519242160100 ) ) ;
#39 = CC_DESIGN_PERSON_AND_ORGANIZATION_ASSIGNMENT ( #72, #87, ( #207 ) ) ;
#40 = CARTESIAN_POINT ( 'NONE',  ( 10.07973890284262100, 12.82972393050027700, -7.832341665356540100 ) ) ;
#41 = COORDINATED_UNIVERSAL_TIME_OFFSET ( 2, 0, .AHEAD. ) ;
#42 = APPROVAL_ROLE ( '' ) ;
#43 = DIRECTION ( 'NONE',  ( 0.0000000000000000000, 0.0000000000000000000, 1.000000000000000000 ) ) ;
#44 = COORDINATED_UNIVERSAL_TIME_OFFSET ( 2, 0, .AHEAD. ) ;
#45 = CIRCLE ( 'NONE', #123, 12.69999999999999900 ) ;
#46 = ADVANCED_FACE ( 'NONE', ( #114 ), #53, .F. ) ;
#47 = CARTESIAN_POINT ( 'NONE',  ( -10.07973890284261900, 12.82972393050027900, -7.832341665356540100 ) ) ;
#48 = CARTESIAN_POINT ( 'NONE',  ( 0.0000000000000000000, 26.11199999999999800, 2.700000000000000200 ) ) ;
#49 = PERSON_AND_ORGANIZATION ( #98, #77 ) ;
#50 = CIRCLE ( 'NONE', #125, 20.91000000000000000 ) ;
#51 = DIRECTION ( 'NONE',  ( 0.0000000000000000000, 0.0000000000000000000, 1.000000000000000000 ) ) ;
#52 = APPROVAL_DATE_TIME ( #90, #102 ) ;
#53 =( BOUNDED_SURFACE ( )  B_SPLINE_SURFACE ( 3, 3, ( 
 ( #47, #172, #208, #93 ),
 ( #223, #225, #7, #131 ),
 ( #190, #113, #9, #135 ),
 ( #31, #10, #101, #36 ) ),
 .UNSPECIFIED., .F., .F., .F. ) 
 B_SPLINE_SURFACE_WITH_KNOTS ( ( 4, 4 ),
 ( 4, 4 ),
 ( 0.0000000000000000000, 1.000000000000000000 ),
 ( 0.0000000000000000000, 1.000000000000000000 ),
 .UNSPECIFIED. ) 
 GEOMETRIC_REPRESENTATION_ITEM ( )  RATIONAL_B_SPLINE_SURFACE ( (
 ( 1.000000000000000000, 0.9643885684976146700, 0.9643885684976146700, 1.000000000000000000),
 ( 0.8597608354602656000, 0.8291435213598388200, 0.8291435213598388200, 0.8597608354602656000),
 ( 0.8597608354602656000, 0.8291435213598388200, 0.8291435213598388200, 0.8597608354602656000),
 ( 1.000000000000000000, 0.9643885684976146700, 0.9643885684976146700, 1.000000000000000000) ) ) 
 REPRESENTATION_ITEM ( '' )  SURFACE ( )  );
#54 = CARTESIAN_POINT ( 'NONE',  ( 3.680589146856157800, 12.82972393050027900, -4.398601395788772600 ) ) ;
#55 = VERTEX_POINT ( 'NONE', #222 ) ;
#56 = CARTESIAN_POINT ( 'NONE',  ( 0.0000000000000000000, -4.974144514515673500, 1.705358519242161200 ) ) ;
#57 = APPROVAL_PERSON_ORGANIZATION ( #97, #219, #42 ) ;
#58 = DATE_TIME_ROLE ( 'creation_date' ) ;
#59 = ORIENTED_EDGE ( 'NONE', *, *, #63, .T. ) ;
#60 = LINE ( 'NONE', #153, #83 ) ;
#61 = CARTESIAN_POINT ( 'NONE',  ( 12.69999999999999900, 2.442490654175340100E-015, 2.700000000000000200 ) ) ;
#62 = PERSON_AND_ORGANIZATION_ROLE ( 'creator' ) ;
#63 = EDGE_CURVE ( 'NONE', #20, #37, #6, .T. ) ;
#64 = CARTESIAN_POINT ( 'NONE',  ( -12.69999999999999900, 3.997792089092478900E-015, 2.700000000000000200 ) ) ;
#65 = FACE_OUTER_BOUND ( 'NONE', #74, .T. ) ;
#66 = CARTESIAN_POINT ( 'NONE',  ( 0.0000000000000000000, 12.82972393050027700, -4.398601395788771700 ) ) ;
#67 = AXIS2_PLACEMENT_3D ( 'NONE', #48, #178, #120 ) ;
#68 = CARTESIAN_POINT ( 'NONE',  ( 4.996003610813200500E-016, 2.442490654175340100E-015, -4.298615349706690100 ) ) ;
#69 = CARTESIAN_POINT ( 'NONE',  ( 5.041235155994226800, -4.974144514515674400, 1.705358519242161400 ) ) ;
#70 = EDGE_LOOP ( 'NONE', ( #126, #157, #161 ) ) ;
#71 = CARTESIAN_POINT ( 'NONE',  ( 13.80603270094867500, -4.974144514515673500, -2.997772276620787000 ) ) ;
#72 = PERSON_AND_ORGANIZATION ( #98, #77 ) ;
#73 = CIRCLE ( 'NONE', #162, 12.69999999999999900 ) ;
#74 = EDGE_LOOP ( 'NONE', ( #215, #15 ) ) ;
#75 = ADVANCED_FACE ( 'NONE', ( #65 ), #100, .T. ) ;
#76 = PERSON_AND_ORGANIZATION_ROLE ( 'classification_officer' ) ;
#77 = ORGANIZATION ( 'UNSPECIFIED', 'UNSPECIFIED', '' ) ;
#78 = VERTEX_POINT ( 'NONE', #64 ) ;
#79 = APPROVAL_DATE_TIME ( #184, #230 ) ;
#80 = FACE_OUTER_BOUND ( 'NONE', #99, .T. ) ;
#81 = EDGE_CURVE ( 'NONE', #55, #78, #60, .T. ) ;
#82 = DIRECTION ( 'NONE',  ( 0.0000000000000000000, 0.0000000000000000000, 1.000000000000000000 ) ) ;
#83 = VECTOR ( 'NONE', #211, 1000.000000000000000 ) ;
#84 = ADVANCED_BREP_SHAPE_REPRESENTATION ( '112-5205E CaF2 pl-cv 12.7 F-50', ( #179, #176 ), #35 ) ;
#85 = DATE_AND_TIME ( #5, #154 ) ;
#86 = AXIS2_PLACEMENT_3D ( 'NONE', #92, #8, #133 ) ;
#87 = PERSON_AND_ORGANIZATION_ROLE ( 'design_owner' ) ;
#88 = ADVANCED_FACE ( 'NONE', ( #109 ), #185, .T. ) ;
#89 = APPLICATION_PROTOCOL_DEFINITION ( 'international standard', 'config_control_design', 1994, #30 ) ;
#90 = DATE_AND_TIME ( #144, #196 ) ;
#91 = FACE_OUTER_BOUND ( 'NONE', #70, .T. ) ;
#92 = CARTESIAN_POINT ( 'NONE',  ( 4.996003610813200500E-016, 2.442490654175340100E-015, -4.298615349706690100 ) ) ;
#93 = CARTESIAN_POINT ( 'NONE',  ( -3.469446951953614200E-015, 12.82972393050027900, -4.398601395788771700 ) ) ;
#94 = APPROVAL_STATUS ( 'not_yet_approved' ) ;
#95 = EDGE_CURVE ( 'NONE', #155, #139, #50, .T. ) ;
#96 = DIRECTION ( 'NONE',  ( -0.0000000000000000000, -0.0000000000000000000, -1.000000000000000000 ) ) ;
#97 = PERSON_AND_ORGANIZATION ( #98, #77 ) ;
#98 = PERSON ( 'UNSPECIFIED', 'UNSPECIFIED', 'UNSPECIFIED', ('UNSPECIFIED'), ('UNSPECIFIED'), ('UNSPECIFIED') ) ;
#99 = EDGE_LOOP ( 'NONE', ( #119, #182, #150, #59, #170 ) ) ;
#100 = PLANE ( 'NONE',  #67 ) ;
#101 = CARTESIAN_POINT ( 'NONE',  ( -3.680589146856159600, -12.82972393050027900, -4.398601395788773500 ) ) ;
#102 = APPROVAL ( #188, 'UNSPECIFIED' ) ;
#103 = PRODUCT_DEFINITION_SHAPE ( 'NONE', 'NONE',  #19 ) ;
#104 = CARTESIAN_POINT ( 'NONE',  ( 4.996003610813200500E-016, 2.442490654175340100E-015, -4.298615349706690100 ) ) ;
#105 = ORIENTED_EDGE ( 'NONE', *, *, #166, .T. ) ;
#106 = CARTESIAN_POINT ( 'NONE',  ( 4.996003610813200500E-016, 2.442490654175340100E-015, -4.298615349706690100 ) ) ;
#107 = CARTESIAN_POINT ( 'NONE',  ( 7.164571721274778100, 12.82972393050027900, -5.585446747594446000 ) ) ;
#108 = EDGE_CURVE ( 'NONE', #55, #139, #45, .T. ) ;
#109 = FACE_OUTER_BOUND ( 'NONE', #198, .T. ) ;
#110 = MECHANICAL_CONTEXT ( 'NONE', #30, 'mechanical' ) ;
#111 = AXIS2_PLACEMENT_3D ( 'NONE', #12, #96, #33 ) ;
#112 = DIRECTION ( 'NONE',  ( -0.0000000000000000000, -0.0000000000000000000, -1.000000000000000000 ) ) ;
#113 = CARTESIAN_POINT ( 'NONE',  ( -9.813181911320793200, -4.974144514515673500, 0.07975830321105574500 ) ) ;
#114 = FACE_OUTER_BOUND ( 'NONE', #199, .T. ) ;
#115 = DATE_TIME_ROLE ( 'classification_date' ) ;
#116 = CC_DESIGN_APPROVAL ( #102, ( #181 ) ) ;
#117 = DESIGN_CONTEXT ( 'detailed design', #129, 'design' ) ;
#118 = EDGE_CURVE ( 'NONE', #155, #55, #134, .T. ) ;
#119 = ORIENTED_EDGE ( 'NONE', *, *, #81, .F. ) ;
#120 = DIRECTION ( 'NONE',  ( 1.000000000000000000, 0.0000000000000000000, -0.0000000000000000000 ) ) ;
#121 = ORIENTED_EDGE ( 'NONE', *, *, #235, .T. ) ;
#122 = DIRECTION ( 'NONE',  ( 0.0000000000000000000, 1.000000000000000000, 0.0000000000000000000 ) ) ;
#123 = AXIS2_PLACEMENT_3D ( 'NONE', #104, #214, #183 ) ;
#124 = DIRECTION ( 'NONE',  ( 1.000000000000000000, 0.0000000000000000000, 0.0000000000000000000 ) ) ;
#125 = AXIS2_PLACEMENT_3D ( 'NONE', #17, #18, #122 ) ;
#126 = ORIENTED_EDGE ( 'NONE', *, *, #95, .F. ) ;
#127 = CC_DESIGN_PERSON_AND_ORGANIZATION_ASSIGNMENT ( #49, #62, ( #181 ) ) ;
#128 = LOCAL_TIME ( 9, 34, 7.000000000000000000, #193 ) ;
#129 = APPLICATION_CONTEXT ( 'configuration controlled 3d designs of mechanical parts and assemblies' ) ;
#130 = PRODUCT_RELATED_PRODUCT_CATEGORY ( 'detail', '', ( #207 ) ) ;
#131 = CARTESIAN_POINT ( 'NONE',  ( -5.204170427930422100E-015, 4.974144514515676200, 1.705358519242161200 ) ) ;
#132 = PERSON_AND_ORGANIZATION ( #98, #77 ) ;
#133 = DIRECTION ( 'NONE',  ( 1.000000000000000000, 0.0000000000000000000, 0.0000000000000000000 ) ) ;
#134 = CIRCLE ( 'NONE', #148, 12.69999999999999900 ) ;
#135 = CARTESIAN_POINT ( 'NONE',  ( -5.204170427930422100E-015, -4.974144514515673500, 1.705358519242161200 ) ) ;
#136 = CARTESIAN_POINT ( 'NONE',  ( 12.69999999999999900, 2.442490654175340100E-015, -4.298615349706690100 ) ) ;
#137 = DIRECTION ( 'NONE',  ( 1.000000000000000000, 0.0000000000000000000, 0.0000000000000000000 ) ) ;
#138 = CALENDAR_DATE ( 2019, 18, 1 ) ;
#139 = VERTEX_POINT ( 'NONE', #140 ) ;
#140 = CARTESIAN_POINT ( 'NONE',  ( 0.0000000000000000000, -12.69999999999999400, -4.298615349706689200 ) ) ;
#141 = CARTESIAN_POINT ( 'NONE',  ( 7.164571721274778100, -12.82972393050027700, -5.585446747594446000 ) ) ;
#142 = PERSON_AND_ORGANIZATION ( #98, #77 ) ;
#143 = VECTOR ( 'NONE', #51, 1000.000000000000000 ) ;
#144 = CALENDAR_DATE ( 2019, 18, 1 ) ;
#145 = APPROVAL_STATUS ( 'not_yet_approved' ) ;
#146 = ADVANCED_FACE ( 'NONE', ( #91 ), #156, .F. ) ;
#147 = DIRECTION ( 'NONE',  ( 0.0000000000000000000, 0.0000000000000000000, 1.000000000000000000 ) ) ;
#148 = AXIS2_PLACEMENT_3D ( 'NONE', #68, #82, #124 ) ;
#149 = APPROVAL_DATE_TIME ( #11, #219 ) ;
#150 = ORIENTED_EDGE ( 'NONE', *, *, #216, .T. ) ;
#151 =( NAMED_UNIT ( * ) SI_UNIT ( $, .STERADIAN. ) SOLID_ANGLE_UNIT ( ) );
#152 = ADVANCED_FACE ( 'NONE', ( #80 ), #212, .T. ) ;
#153 = CARTESIAN_POINT ( 'NONE',  ( -12.69999999999999900, 3.997792089092478900E-015, -4.298615349706690100 ) ) ;
#154 = LOCAL_TIME ( 9, 34, 7.000000000000000000, #194 ) ;
#155 = VERTEX_POINT ( 'NONE', #201 ) ;
#156 =( BOUNDED_SURFACE ( )  B_SPLINE_SURFACE ( 3, 3, ( 
 ( #66, #54, #107, #40 ),
 ( #38, #200, #23, #186 ),
 ( #56, #69, #234, #71 ),
 ( #21, #231, #141, #163 ) ),
 .UNSPECIFIED., .F., .F., .F. ) 
 B_SPLINE_SURFACE_WITH_KNOTS ( ( 4, 4 ),
 ( 4, 4 ),
 ( 0.0000000000000000000, 1.000000000000000000 ),
 ( 0.0000000000000000000, 1.000000000000000000 ),
 .UNSPECIFIED. ) 
 GEOMETRIC_REPRESENTATION_ITEM ( )  RATIONAL_B_SPLINE_SURFACE ( (
 ( 1.000000000000000000, 0.9643885684976144500, 0.9643885684976144500, 1.000000000000000000),
 ( 0.8597608354602656000, 0.8291435213598386000, 0.8291435213598386000, 0.8597608354602656000),
 ( 0.8597608354602656000, 0.8291435213598386000, 0.8291435213598386000, 0.8597608354602656000),
 ( 1.000000000000000000, 0.9643885684976144500, 0.9643885684976144500, 1.000000000000000000) ) ) 
 REPRESENTATION_ITEM ( '' )  SURFACE ( )  );
#157 = ORIENTED_EDGE ( 'NONE', *, *, #235, .F. ) ;
#158 = AXIS2_PLACEMENT_3D ( 'NONE', #106, #43, #168 ) ;
#159 = SECURITY_CLASSIFICATION ( '', '', #171 ) ;
#160 = UNCERTAINTY_MEASURE_WITH_UNIT (LENGTH_MEASURE( 1.000000000000000100E-005 ), #191, 'distance_accuracy_value', 'NONE');
#161 = ORIENTED_EDGE ( 'NONE', *, *, #216, .F. ) ;
#162 = AXIS2_PLACEMENT_3D ( 'NONE', #25, #112, #205 ) ;
#163 = CARTESIAN_POINT ( 'NONE',  ( 10.07973890284262100, -12.82972393050027500, -7.832341665356540100 ) ) ;
#164 = ORIENTED_EDGE ( 'NONE', *, *, #95, .T. ) ;
#165 = DIRECTION ( 'NONE',  ( 1.000000000000000000, 0.0000000000000000000, 0.0000000000000000000 ) ) ;
#166 = EDGE_CURVE ( 'NONE', #78, #37, #73, .T. ) ;
#167 = PERSON_AND_ORGANIZATION_ROLE ( 'creator' ) ;
#168 = DIRECTION ( 'NONE',  ( 1.000000000000000000, 0.0000000000000000000, 0.0000000000000000000 ) ) ;
#169 = CARTESIAN_POINT ( 'NONE',  ( 4.996003610813200500E-016, 2.442490654175340100E-015, -4.298615349706690100 ) ) ;
#170 = ORIENTED_EDGE ( 'NONE', *, *, #29, .T. ) ;
#171 = SECURITY_CLASSIFICATION_LEVEL ( 'unclassified' ) ;
#172 = CARTESIAN_POINT ( 'NONE',  ( -7.164571721274778100, 12.82972393050027900, -5.585446747594446900 ) ) ;
#173 = PERSON_AND_ORGANIZATION ( #98, #77 ) ;
#174 = CIRCLE ( 'NONE', #111, 12.69999999999999900 ) ;
#175 = APPROVAL_ROLE ( '' ) ;
#176 = AXIS2_PLACEMENT_3D ( 'NONE', #204, #147, #218 ) ;
#177 = CARTESIAN_POINT ( 'NONE',  ( 4.996003610813200500E-016, 2.442490654175340100E-015, -4.298615349706690100 ) ) ;
#178 = DIRECTION ( 'NONE',  ( 0.0000000000000000000, 0.0000000000000000000, 1.000000000000000000 ) ) ;
#179 = MANIFOLD_SOLID_BREP ( 'Imported1', #180 ) ;
#180 = CLOSED_SHELL ( 'NONE', ( #46, #88, #146, #152, #75 ) ) ;
#181 = PRODUCT_DEFINITION_FORMATION_WITH_SPECIFIED_SOURCE ( 'ANY', '', #207, .NOT_KNOWN. ) ;
#182 = ORIENTED_EDGE ( 'NONE', *, *, #108, .T. ) ;
#183 = DIRECTION ( 'NONE',  ( 1.000000000000000000, 0.0000000000000000000, 0.0000000000000000000 ) ) ;
#184 = DATE_AND_TIME ( #1, #227 ) ;
#185 = CYLINDRICAL_SURFACE ( 'NONE', #197, 12.69999999999999900 ) ;
#186 = CARTESIAN_POINT ( 'NONE',  ( 13.80603270094867300, 4.974144514515674400, -2.997772276620787000 ) ) ;
#187 = LOCAL_TIME ( 9, 34, 7.000000000000000000, #41 ) ;
#188 = APPROVAL_STATUS ( 'not_yet_approved' ) ;
#189 = ORIENTED_EDGE ( 'NONE', *, *, #118, .F. ) ;
#190 = CARTESIAN_POINT ( 'NONE',  ( -13.80603270094867200, -4.974144514515673500, -2.997772276620786600 ) ) ;
#191 =( LENGTH_UNIT ( ) NAMED_UNIT ( * ) SI_UNIT ( .MILLI., .METRE. ) );
#192 = CC_DESIGN_DATE_AND_TIME_ASSIGNMENT ( #85, #58, ( #19 ) ) ;
#193 = COORDINATED_UNIVERSAL_TIME_OFFSET ( 2, 0, .AHEAD. ) ;
#194 = COORDINATED_UNIVERSAL_TIME_OFFSET ( 2, 0, .AHEAD. ) ;
#195 = APPROVAL_PERSON_ORGANIZATION ( #142, #102, #202 ) ;
#196 = LOCAL_TIME ( 9, 34, 7.000000000000000000, #44 ) ;
#197 = AXIS2_PLACEMENT_3D ( 'NONE', #177, #16, #137 ) ;
#198 = EDGE_LOOP ( 'NONE', ( #121, #220, #32, #105, #203 ) ) ;
#199 = EDGE_LOOP ( 'NONE', ( #189, #164, #210 ) ) ;
#200 = CARTESIAN_POINT ( 'NONE',  ( 5.041235155994226800, 4.974144514515674400, 1.705358519242160300 ) ) ;
#201 = CARTESIAN_POINT ( 'NONE',  ( 0.0000000000000000000, 12.69999999999999800, -4.298615349706689200 ) ) ;
#202 = APPROVAL_ROLE ( '' ) ;
#203 = ORIENTED_EDGE ( 'NONE', *, *, #63, .F. ) ;
#204 = CARTESIAN_POINT ( 'NONE',  ( 0.0000000000000000000, 0.0000000000000000000, 0.0000000000000000000 ) ) ;
#205 = DIRECTION ( 'NONE',  ( 1.000000000000000000, 0.0000000000000000000, 0.0000000000000000000 ) ) ;
#206 = CC_DESIGN_SECURITY_CLASSIFICATION ( #159, ( #181 ) ) ;
#207 = PRODUCT ( '112-5205E CaF2 pl-cv 12.7 F-50', '112-5205E CaF2 pl-cv 12.7 F-50', '', ( #110 ) ) ;
#208 = CARTESIAN_POINT ( 'NONE',  ( -3.680589146856159600, 12.82972393050027900, -4.398601395788773500 ) ) ;
#209 = APPROVAL_PERSON_ORGANIZATION ( #173, #230, #175 ) ;
#210 = ORIENTED_EDGE ( 'NONE', *, *, #108, .F. ) ;
#211 = DIRECTION ( 'NONE',  ( 0.0000000000000000000, 0.0000000000000000000, 1.000000000000000000 ) ) ;
#212 = CYLINDRICAL_SURFACE ( 'NONE', #158, 12.69999999999999900 ) ;
#213 = COORDINATED_UNIVERSAL_TIME_OFFSET ( 2, 0, .AHEAD. ) ;
#214 = DIRECTION ( 'NONE',  ( 0.0000000000000000000, 0.0000000000000000000, 1.000000000000000000 ) ) ;
#215 = ORIENTED_EDGE ( 'NONE', *, *, #29, .F. ) ;
#216 = EDGE_CURVE ( 'NONE', #139, #20, #22, .T. ) ;
#217 = DATE_AND_TIME ( #233, #187 ) ;
#218 = DIRECTION ( 'NONE',  ( 1.000000000000000000, 0.0000000000000000000, 0.0000000000000000000 ) ) ;
#219 = APPROVAL ( #145, 'UNSPECIFIED' ) ;
#220 = ORIENTED_EDGE ( 'NONE', *, *, #118, .T. ) ;
#221 = PERSON_AND_ORGANIZATION_ROLE ( 'design_supplier' ) ;
#222 = CARTESIAN_POINT ( 'NONE',  ( -12.69999999999999900, 3.997792089092478900E-015, -4.298615349706690100 ) ) ;
#223 = CARTESIAN_POINT ( 'NONE',  ( -13.80603270094867200, 4.974144514515676200, -2.997772276620786600 ) ) ;
#224 = CC_DESIGN_PERSON_AND_ORGANIZATION_ASSIGNMENT ( #14, #167, ( #19 ) ) ;
#225 = CARTESIAN_POINT ( 'NONE',  ( -9.813181911320793200, 4.974144514515676200, 0.07975830321105574500 ) ) ;
#226 = CARTESIAN_POINT ( 'NONE',  ( 12.69999999999999900, 2.442490654175340100E-015, -4.298615349706690100 ) ) ;
#227 = LOCAL_TIME ( 9, 34, 7.000000000000000000, #213 ) ;
#228 = SHAPE_DEFINITION_REPRESENTATION ( #103, #84 ) ;
#229 = CC_DESIGN_PERSON_AND_ORGANIZATION_ASSIGNMENT ( #132, #76, ( #159 ) ) ;
#230 = APPROVAL ( #94, 'UNSPECIFIED' ) ;
#231 = CARTESIAN_POINT ( 'NONE',  ( 3.680589146856157800, -12.82972393050027700, -4.398601395788772600 ) ) ;
#232 = CC_DESIGN_APPROVAL ( #219, ( #19 ) ) ;
#233 = CALENDAR_DATE ( 2019, 18, 1 ) ;
#234 = CARTESIAN_POINT ( 'NONE',  ( 9.813181911320795000, -4.974144514515674400, 0.07975830321105834000 ) ) ;
#235 = EDGE_CURVE ( 'NONE', #20, #155, #27, .T. ) ;
ENDSEC;
END-ISO-10303-21;
