ISO-10303-21;
HEADER;
FILE_DESCRIPTION (( 'STEP AP203' ),
    '1' );
FILE_NAME ('112-5204E CaF2 pl-cv 12.7 F-40.STEP',
    '2019-01-18T07:22:18',
    ( '' ),
    ( '' ),
    'SwSTEP 2.0',
    'SolidWorks 2017',
    '' );
FILE_SCHEMA (( 'CONFIG_CONTROL_DESIGN' ));
ENDSEC;

DATA;
#1 = AXIS2_PLACEMENT_3D ( 'NONE', #32, #229, #155 ) ;
#2 = DIRECTION ( 'NONE',  ( 0.0000000000000000000, 0.0000000000000000000, 1.000000000000000000 ) ) ;
#3 = ORIENTED_EDGE ( 'NONE', *, *, #88, .F. ) ;
#4 = CC_DESIGN_PERSON_AND_ORGANIZATION_ASSIGNMENT ( #163, #233, ( #45 ) ) ;
#5 = ADVANCED_FACE ( 'NONE', ( #230 ), #180, .T. ) ;
#6 = VERTEX_POINT ( 'NONE', #116 ) ;
#7 = DESIGN_CONTEXT ( 'detailed design', #175, 'design' ) ;
#8 = CARTESIAN_POINT ( 'NONE',  ( 3.211237040972910100, 12.81196378586796700, -5.971446010285219200 ) ) ;
#9 = CARTESIAN_POINT ( 'NONE',  ( -1.776356839400249700E-015, -5.604192459541038400, 2.612022111732005900 ) ) ;
#10 = AXIS2_PLACEMENT_3D ( 'NONE', #37, #75, #97 ) ;
#11 = ORIENTED_EDGE ( 'NONE', *, *, #164, .T. ) ;
#12 = CARTESIAN_POINT ( 'NONE',  ( 4.996003610813200500E-016, 2.442490654175340100E-015, -5.839504143520369600 ) ) ;
#13 = CARTESIAN_POINT ( 'NONE',  ( 8.203093557045011900, -12.81196378586796300, -9.768984266360668300 ) ) ;
#14 = CARTESIAN_POINT ( 'NONE',  ( 11.01232893953759800, -5.604192459541039300, 0.1866439343442315400 ) ) ;
#15 = EDGE_LOOP ( 'NONE', ( #11, #202, #94, #85, #28 ) ) ;
#16 = CC_DESIGN_PERSON_AND_ORGANIZATION_ASSIGNMENT ( #179, #96, ( #126 ) ) ;
#17 = AXIS2_PLACEMENT_3D ( 'NONE', #136, #226, #56 ) ;
#18 = CARTESIAN_POINT ( 'NONE',  ( -8.203093557045019000, -12.81196378586796500, -9.768984266360671900 ) ) ;
#19 = PERSON_AND_ORGANIZATION ( #201, #132 ) ;
#20 =( NAMED_UNIT ( * ) PLANE_ANGLE_UNIT ( ) SI_UNIT ( $, .RADIAN. ) );
#21 = CC_DESIGN_DATE_AND_TIME_ASSIGNMENT ( #26, #72, ( #45 ) ) ;
#22 = EDGE_LOOP ( 'NONE', ( #76, #149 ) ) ;
#23 = EDGE_CURVE ( 'NONE', #143, #159, #125, .T. ) ;
#24 = PRODUCT_RELATED_PRODUCT_CATEGORY ( 'detail', '', ( #182 ) ) ;
#25 = EDGE_LOOP ( 'NONE', ( #178, #144, #52, #139, #173 ) ) ;
#26 = DATE_AND_TIME ( #31, #81 ) ;
#27 = DIRECTION ( 'NONE',  ( 0.0000000000000000000, 0.0000000000000000000, 1.000000000000000000 ) ) ;
#28 = ORIENTED_EDGE ( 'NONE', *, *, #171, .F. ) ;
#29 = CARTESIAN_POINT ( 'NONE',  ( 14.74774557218887800, 5.604192459541037500, -4.215295852130049400 ) ) ;
#30 = CARTESIAN_POINT ( 'NONE',  ( 6.125354151914198300, 12.81196378586796800, -7.320506719458703200 ) ) ;
#31 = CALENDAR_DATE ( 2019, 18, 1 ) ;
#32 = CARTESIAN_POINT ( 'NONE',  ( 4.996003610813200500E-016, 2.442490654175340100E-015, 2.500000000000000400 ) ) ;
#33 = CARTESIAN_POINT ( 'NONE',  ( -11.01232893953761400, 5.604192459541037500, 0.1866439343442306800 ) ) ;
#34 = VECTOR ( 'NONE', #36, 1000.000000000000000 ) ;
#35 = DIRECTION ( 'NONE',  ( 1.000000000000000000, 0.0000000000000000000, 0.0000000000000000000 ) ) ;
#36 = DIRECTION ( 'NONE',  ( 0.0000000000000000000, 0.0000000000000000000, 1.000000000000000000 ) ) ;
#37 = CARTESIAN_POINT ( 'NONE',  ( 0.0000000000000000000, 0.0000000000000000000, 0.0000000000000000000 ) ) ;
#38 = DATE_AND_TIME ( #168, #221 ) ;
#39 = MECHANICAL_CONTEXT ( 'NONE', #210, 'mechanical' ) ;
#40 = CARTESIAN_POINT ( 'NONE',  ( -8.673617379884035500E-015, -5.604192459541039300, 2.612022111732003300 ) ) ;
#41 =( GEOMETRIC_REPRESENTATION_CONTEXT ( 3 ) GLOBAL_UNCERTAINTY_ASSIGNED_CONTEXT ( ( #117 ) ) GLOBAL_UNIT_ASSIGNED_CONTEXT ( ( #190, #20, #174 ) ) REPRESENTATION_CONTEXT ( 'NONE', 'WORKASPACE' ) );
#42 = APPROVAL_ROLE ( '' ) ;
#43 = ORIENTED_EDGE ( 'NONE', *, *, #95, .T. ) ;
#44 = CARTESIAN_POINT ( 'NONE',  ( 4.996003610813200500E-016, 2.442490654175340100E-015, -5.839504143520369600 ) ) ;
#45 = PRODUCT_DEFINITION ( 'UNKNOWN', '', #60, #7 ) ;
#46 = ADVANCED_FACE ( 'NONE', ( #196 ), #118, .T. ) ;
#47 = EDGE_LOOP ( 'NONE', ( #198, #43, #3 ) ) ;
#48 = COORDINATED_UNIVERSAL_TIME_OFFSET ( 2, 0, .AHEAD. ) ;
#49 =( BOUNDED_SURFACE ( )  B_SPLINE_SURFACE ( 3, 3, ( 
 ( #225, #8, #30, #64 ),
 ( #119, #133, #203, #29 ),
 ( #9, #137, #14, #186 ),
 ( #68, #93, #54, #13 ) ),
 .UNSPECIFIED., .F., .F., .F. ) 
 B_SPLINE_SURFACE_WITH_KNOTS ( ( 4, 4 ),
 ( 4, 4 ),
 ( 0.0000000000000000000, 1.000000000000000000 ),
 ( 0.0000000000000000000, 1.000000000000000000 ),
 .UNSPECIFIED. ) 
 GEOMETRIC_REPRESENTATION_ITEM ( )  RATIONAL_B_SPLINE_SURFACE ( (
 ( 1.000000000000000000, 0.9383166204091854000, 0.9383166204091854000, 1.000000000000000000),
 ( 0.7620463833319297600, 0.7150407870030589500, 0.7150407870030589500, 0.7620463833319297600),
 ( 0.7620463833319297600, 0.7150407870030589500, 0.7150407870030589500, 0.7620463833319297600),
 ( 1.000000000000000000, 0.9383166204091854000, 0.9383166204091854000, 1.000000000000000000) ) ) 
 REPRESENTATION_ITEM ( '' )  SURFACE ( )  );
#50 = ADVANCED_FACE ( 'NONE', ( #113 ), #49, .F. ) ;
#51 = DIRECTION ( 'NONE',  ( 0.0000000000000000000, 0.0000000000000000000, 1.000000000000000000 ) ) ;
#52 = ORIENTED_EDGE ( 'NONE', *, *, #188, .T. ) ;
#53 = DATE_AND_TIME ( #134, #114 ) ;
#54 = CARTESIAN_POINT ( 'NONE',  ( 6.125354151914190300, -12.81196378586796300, -7.320506719458705000 ) ) ;
#55 = CARTESIAN_POINT ( 'NONE',  ( -1.776356839400249700E-015, 12.70000000000000100, -5.839504143520370500 ) ) ;
#56 = DIRECTION ( 'NONE',  ( 1.000000000000000000, 0.0000000000000000000, 0.0000000000000000000 ) ) ;
#57 = PERSON_AND_ORGANIZATION_ROLE ( 'design_owner' ) ;
#58 = CARTESIAN_POINT ( 'NONE',  ( -3.469446951953614200E-015, -12.81196378586796100, -5.971446010285221800 ) ) ;
#59 = CARTESIAN_POINT ( 'NONE',  ( -14.74774557218888100, -5.604192459541042800, -4.215295852130058300 ) ) ;
#60 = PRODUCT_DEFINITION_FORMATION_WITH_SPECIFIED_SOURCE ( 'ANY', '', #182, .NOT_KNOWN. ) ;
#61 = VECTOR ( 'NONE', #69, 1000.000000000000000 ) ;
#62 = DIRECTION ( 'NONE',  ( 0.0000000000000000000, 0.0000000000000000000, 1.000000000000000000 ) ) ;
#63 = ADVANCED_BREP_SHAPE_REPRESENTATION ( '112-5204E CaF2 pl-cv 12.7 F-40', ( #184, #10 ), #41 ) ;
#64 = CARTESIAN_POINT ( 'NONE',  ( 8.203093557045022500, 12.81196378586796500, -9.768984266360670100 ) ) ;
#65 = CIRCLE ( 'NONE', #1, 12.69999999999999900 ) ;
#66 = CARTESIAN_POINT ( 'NONE',  ( 4.996003610813200500E-016, 2.442490654175340100E-015, 2.500000000000000400 ) ) ;
#67 = DATE_AND_TIME ( #177, #120 ) ;
#68 = CARTESIAN_POINT ( 'NONE',  ( -1.776356839400249700E-015, -12.81196378586796300, -5.971446010285220900 ) ) ;
#69 = DIRECTION ( 'NONE',  ( 0.0000000000000000000, 0.0000000000000000000, 1.000000000000000000 ) ) ;
#70 = ORIENTED_EDGE ( 'NONE', *, *, #95, .F. ) ;
#71 = CARTESIAN_POINT ( 'NONE',  ( -3.469446951953614200E-015, 12.81196378586796700, -5.971446010285217400 ) ) ;
#72 = DATE_TIME_ROLE ( 'creation_date' ) ;
#73 = PERSON_AND_ORGANIZATION_ROLE ( 'design_supplier' ) ;
#74 = CC_DESIGN_APPROVAL ( #103, ( #126 ) ) ;
#75 = DIRECTION ( 'NONE',  ( 0.0000000000000000000, 0.0000000000000000000, 1.000000000000000000 ) ) ;
#76 = ORIENTED_EDGE ( 'NONE', *, *, #104, .F. ) ;
#77 = DATE_TIME_ROLE ( 'classification_date' ) ;
#78 = PERSON_AND_ORGANIZATION ( #201, #132 ) ;
#79 = ORIENTED_EDGE ( 'NONE', *, *, #188, .F. ) ;
#80 = CARTESIAN_POINT ( 'NONE',  ( 0.0000000000000000000, 26.11199999999999800, 2.500000000000000000 ) ) ;
#81 = LOCAL_TIME ( 9, 22, 18.00000000000000000, #48 ) ;
#82 = LOCAL_TIME ( 9, 22, 18.00000000000000000, #91 ) ;
#83 = APPROVAL ( #142, 'UNSPECIFIED' ) ;
#84 = CARTESIAN_POINT ( 'NONE',  ( -12.69999999999999900, 3.997792089092478900E-015, -5.839504143520369600 ) ) ;
#85 = ORIENTED_EDGE ( 'NONE', *, *, #206, .T. ) ;
#86 = CC_DESIGN_SECURITY_CLASSIFICATION ( #126, ( #60 ) ) ;
#87 = CARTESIAN_POINT ( 'NONE',  ( -3.211237040972916700, 12.81196378586796800, -5.971446010285218300 ) ) ;
#88 = EDGE_CURVE ( 'NONE', #159, #213, #129, .T. ) ;
#89 = CARTESIAN_POINT ( 'NONE',  ( -12.69999999999999900, 3.997792089092478900E-015, -5.839504143520369600 ) ) ;
#90 = CARTESIAN_POINT ( 'NONE',  ( -5.204170427930421300E-015, 5.604192459541039300, 2.612022111732008600 ) ) ;
#91 = COORDINATED_UNIVERSAL_TIME_OFFSET ( 2, 0, .AHEAD. ) ;
#92 = DIRECTION ( 'NONE',  ( 1.000000000000000000, 0.0000000000000000000, 0.0000000000000000000 ) ) ;
#93 = CARTESIAN_POINT ( 'NONE',  ( 3.211237040972905600, -12.81196378586796500, -5.971446010285220000 ) ) ;
#94 = ORIENTED_EDGE ( 'NONE', *, *, #161, .T. ) ;
#95 = EDGE_CURVE ( 'NONE', #143, #213, #204, .T. ) ;
#96 = PERSON_AND_ORGANIZATION_ROLE ( 'classification_officer' ) ;
#97 = DIRECTION ( 'NONE',  ( 1.000000000000000000, 0.0000000000000000000, 0.0000000000000000000 ) ) ;
#98 = CYLINDRICAL_SURFACE ( 'NONE', #17, 12.69999999999999900 ) ;
#99 = APPROVAL_PERSON_ORGANIZATION ( #140, #200, #170 ) ;
#100 = AXIS2_PLACEMENT_3D ( 'NONE', #138, #124, #156 ) ;
#101 = DIRECTION ( 'NONE',  ( 1.000000000000000000, 0.0000000000000000000, -0.0000000000000000000 ) ) ;
#102 = ORIENTED_EDGE ( 'NONE', *, *, #164, .F. ) ;
#103 = APPROVAL ( #216, 'UNSPECIFIED' ) ;
#104 = EDGE_CURVE ( 'NONE', #158, #6, #65, .T. ) ;
#105 = DIRECTION ( 'NONE',  ( 0.0000000000000000000, 0.0000000000000000000, 1.000000000000000000 ) ) ;
#106 = DIRECTION ( 'NONE',  ( 0.0000000000000000000, 1.000000000000000000, -4.147575555234446200E-016 ) ) ;
#107 = CARTESIAN_POINT ( 'NONE',  ( 12.69999999999999900, 2.442490654175340100E-015, 2.500000000000000400 ) ) ;
#108 =( BOUNDED_SURFACE ( )  B_SPLINE_SURFACE ( 3, 3, ( 
 ( #189, #208, #87, #71 ),
 ( #122, #33, #167, #90 ),
 ( #59, #212, #141, #40 ),
 ( #18, #176, #157, #58 ) ),
 .UNSPECIFIED., .F., .F., .F. ) 
 B_SPLINE_SURFACE_WITH_KNOTS ( ( 4, 4 ),
 ( 4, 4 ),
 ( 0.0000000000000000000, 1.000000000000000000 ),
 ( 0.0000000000000000000, 1.000000000000000000 ),
 .UNSPECIFIED. ) 
 GEOMETRIC_REPRESENTATION_ITEM ( )  RATIONAL_B_SPLINE_SURFACE ( (
 ( 1.000000000000000000, 0.9383166204091854000, 0.9383166204091854000, 1.000000000000000000),
 ( 0.7620463833319299800, 0.7150407870030591800, 0.7150407870030591800, 0.7620463833319299800),
 ( 0.7620463833319299800, 0.7150407870030591800, 0.7150407870030591800, 0.7620463833319299800),
 ( 1.000000000000000000, 0.9383166204091854000, 0.9383166204091854000, 1.000000000000000000) ) ) 
 REPRESENTATION_ITEM ( '' )  SURFACE ( )  );
#109 = APPLICATION_PROTOCOL_DEFINITION ( 'international standard', 'config_control_design', 1994, #210 ) ;
#110 = APPROVAL_PERSON_ORGANIZATION ( #78, #83, #192 ) ;
#111 = APPROVAL_STATUS ( 'not_yet_approved' ) ;
#112 = AXIS2_PLACEMENT_3D ( 'NONE', #115, #2, #131 ) ;
#113 = FACE_OUTER_BOUND ( 'NONE', #235, .T. ) ;
#114 = LOCAL_TIME ( 9, 22, 18.00000000000000000, #160 ) ;
#115 = CARTESIAN_POINT ( 'NONE',  ( 4.996003610813200500E-016, 2.442490654175340100E-015, -5.839504143520369600 ) ) ;
#116 = CARTESIAN_POINT ( 'NONE',  ( -12.69999999999999900, 3.997792089092478900E-015, 2.500000000000000400 ) ) ;
#117 = UNCERTAINTY_MEASURE_WITH_UNIT (LENGTH_MEASURE( 1.000000000000000100E-005 ), #190, 'distance_accuracy_value', 'NONE');
#118 = CYLINDRICAL_SURFACE ( 'NONE', #145, 12.69999999999999900 ) ;
#119 = CARTESIAN_POINT ( 'NONE',  ( -1.776356839400249700E-015, 5.604192459541038400, 2.612022111732009500 ) ) ;
#120 = LOCAL_TIME ( 9, 22, 18.00000000000000000, #214 ) ;
#121 = AXIS2_PLACEMENT_3D ( 'NONE', #12, #51, #165 ) ;
#122 = CARTESIAN_POINT ( 'NONE',  ( -14.74774557218888800, 5.604192459541036600, -4.215295852130054800 ) ) ;
#123 = PERSON_AND_ORGANIZATION ( #201, #132 ) ;
#124 = DIRECTION ( 'NONE',  ( 0.0000000000000000000, 0.0000000000000000000, 1.000000000000000000 ) ) ;
#125 = CIRCLE ( 'NONE', #112, 12.69999999999999900 ) ;
#126 = SECURITY_CLASSIFICATION ( '', '', #215 ) ;
#127 = PERSON_AND_ORGANIZATION_ROLE ( 'creator' ) ;
#128 = CIRCLE ( 'NONE', #217, 12.69999999999999900 ) ;
#129 = CIRCLE ( 'NONE', #211, 12.69999999999999900 ) ;
#130 = DATE_AND_TIME ( #205, #82 ) ;
#131 = DIRECTION ( 'NONE',  ( 1.000000000000000000, 0.0000000000000000000, 0.0000000000000000000 ) ) ;
#132 = ORGANIZATION ( 'UNSPECIFIED', 'UNSPECIFIED', '' ) ;
#133 = CARTESIAN_POINT ( 'NONE',  ( 5.773249631120502400, 5.604192459541038400, 2.612022111732009500 ) ) ;
#134 = CALENDAR_DATE ( 2019, 18, 1 ) ;
#135 = CIRCLE ( 'NONE', #121, 12.69999999999999900 ) ;
#136 = CARTESIAN_POINT ( 'NONE',  ( 4.996003610813200500E-016, 2.442490654175340100E-015, -5.839504143520369600 ) ) ;
#137 = CARTESIAN_POINT ( 'NONE',  ( 5.773249631120499700, -5.604192459541038400, 2.612022111732005900 ) ) ;
#138 = CARTESIAN_POINT ( 'NONE',  ( 4.996003610813200500E-016, 2.442490654175340100E-015, -5.839504143520369600 ) ) ;
#139 = ORIENTED_EDGE ( 'NONE', *, *, #171, .T. ) ;
#140 = PERSON_AND_ORGANIZATION ( #201, #132 ) ;
#141 = CARTESIAN_POINT ( 'NONE',  ( -5.773249631120511300, -5.604192459541040200, 2.612022111732001100 ) ) ;
#142 = APPROVAL_STATUS ( 'not_yet_approved' ) ;
#143 = VERTEX_POINT ( 'NONE', #55 ) ;
#144 = ORIENTED_EDGE ( 'NONE', *, *, #88, .T. ) ;
#145 = AXIS2_PLACEMENT_3D ( 'NONE', #44, #27, #197 ) ;
#146 = CLOSED_SHELL ( 'NONE', ( #224, #183, #46, #50, #5 ) ) ;
#147 = CC_DESIGN_DATE_AND_TIME_ASSIGNMENT ( #67, #77, ( #126 ) ) ;
#148 = CC_DESIGN_PERSON_AND_ORGANIZATION_ASSIGNMENT ( #195, #127, ( #60 ) ) ;
#149 = ORIENTED_EDGE ( 'NONE', *, *, #206, .F. ) ;
#150 = APPROVAL_DATE_TIME ( #53, #103 ) ;
#151 = DIRECTION ( 'NONE',  ( -0.0000000000000000000, -0.0000000000000000000, -1.000000000000000000 ) ) ;
#152 = PRODUCT_DEFINITION_SHAPE ( 'NONE', 'NONE',  #45 ) ;
#153 = CC_DESIGN_PERSON_AND_ORGANIZATION_ASSIGNMENT ( #123, #57, ( #182 ) ) ;
#154 = CARTESIAN_POINT ( 'NONE',  ( -1.776356839400249700E-015, -12.69999999999999900, -5.839504143520368700 ) ) ;
#155 = DIRECTION ( 'NONE',  ( 1.000000000000000000, 0.0000000000000000000, 0.0000000000000000000 ) ) ;
#156 = DIRECTION ( 'NONE',  ( 1.000000000000000000, 0.0000000000000000000, 0.0000000000000000000 ) ) ;
#157 = CARTESIAN_POINT ( 'NONE',  ( -3.211237040972911000, -12.81196378586796300, -5.971446010285221800 ) ) ;
#158 = VERTEX_POINT ( 'NONE', #107 ) ;
#159 = VERTEX_POINT ( 'NONE', #89 ) ;
#160 = COORDINATED_UNIVERSAL_TIME_OFFSET ( 2, 0, .AHEAD. ) ;
#161 = EDGE_CURVE ( 'NONE', #159, #6, #223, .T. ) ;
#162 = FACE_OUTER_BOUND ( 'NONE', #15, .T. ) ;
#163 = PERSON_AND_ORGANIZATION ( #201, #132 ) ;
#164 = EDGE_CURVE ( 'NONE', #194, #143, #218, .T. ) ;
#165 = DIRECTION ( 'NONE',  ( 1.000000000000000000, 0.0000000000000000000, 0.0000000000000000000 ) ) ;
#166 = DIRECTION ( 'NONE',  ( 1.000000000000000000, 0.0000000000000000000, 0.0000000000000000000 ) ) ;
#167 = CARTESIAN_POINT ( 'NONE',  ( -5.773249631120510400, 5.604192459541040200, 2.612022111732007700 ) ) ;
#168 = CALENDAR_DATE ( 2019, 18, 1 ) ;
#169 = CARTESIAN_POINT ( 'NONE',  ( 4.996003610813200500E-016, 2.442490654175340100E-015, -5.839504143520369600 ) ) ;
#170 = APPROVAL_ROLE ( '' ) ;
#171 = EDGE_CURVE ( 'NONE', #194, #158, #232, .T. ) ;
#172 = APPLICATION_PROTOCOL_DEFINITION ( 'international standard', 'config_control_design', 1994, #175 ) ;
#173 = ORIENTED_EDGE ( 'NONE', *, *, #104, .T. ) ;
#174 =( NAMED_UNIT ( * ) SI_UNIT ( $, .STERADIAN. ) SOLID_ANGLE_UNIT ( ) );
#175 = APPLICATION_CONTEXT ( 'configuration controlled 3d designs of mechanical parts and assemblies' ) ;
#176 = CARTESIAN_POINT ( 'NONE',  ( -6.125354151914198300, -12.81196378586796500, -7.320506719458707700 ) ) ;
#177 = CALENDAR_DATE ( 2019, 18, 1 ) ;
#178 = ORIENTED_EDGE ( 'NONE', *, *, #161, .F. ) ;
#179 = PERSON_AND_ORGANIZATION ( #201, #132 ) ;
#180 = PLANE ( 'NONE',  #193 ) ;
#181 = SHAPE_DEFINITION_REPRESENTATION ( #152, #63 ) ;
#182 = PRODUCT ( '112-5204E CaF2 pl-cv 12.7 F-40', '112-5204E CaF2 pl-cv 12.7 F-40', '', ( #39 ) ) ;
#183 = ADVANCED_FACE ( 'NONE', ( #162 ), #98, .T. ) ;
#184 = MANIFOLD_SOLID_BREP ( 'Imported1', #146 ) ;
#185 = CARTESIAN_POINT ( 'NONE',  ( 12.69999999999999900, 2.442490654175340100E-015, -5.839504143520369600 ) ) ;
#186 = CARTESIAN_POINT ( 'NONE',  ( 14.74774557218887100, -5.604192459541039300, -4.215295852130049400 ) ) ;
#187 = APPROVAL_DATE_TIME ( #130, #83 ) ;
#188 = EDGE_CURVE ( 'NONE', #213, #194, #135, .T. ) ;
#189 = CARTESIAN_POINT ( 'NONE',  ( -8.203093557045029600, 12.81196378586796300, -9.768984266360671900 ) ) ;
#190 =( LENGTH_UNIT ( ) NAMED_UNIT ( * ) SI_UNIT ( .MILLI., .METRE. ) );
#191 = CC_DESIGN_APPROVAL ( #83, ( #60 ) ) ;
#192 = APPROVAL_ROLE ( '' ) ;
#193 = AXIS2_PLACEMENT_3D ( 'NONE', #80, #62, #101 ) ;
#194 = VERTEX_POINT ( 'NONE', #185 ) ;
#195 = PERSON_AND_ORGANIZATION ( #201, #132 ) ;
#196 = FACE_OUTER_BOUND ( 'NONE', #25, .T. ) ;
#197 = DIRECTION ( 'NONE',  ( 1.000000000000000000, 0.0000000000000000000, 0.0000000000000000000 ) ) ;
#198 = ORIENTED_EDGE ( 'NONE', *, *, #23, .F. ) ;
#199 = PERSON_AND_ORGANIZATION ( #201, #132 ) ;
#200 = APPROVAL ( #111, 'UNSPECIFIED' ) ;
#201 = PERSON ( 'UNSPECIFIED', 'UNSPECIFIED', 'UNSPECIFIED', ('UNSPECIFIED'), ('UNSPECIFIED'), ('UNSPECIFIED') ) ;
#202 = ORIENTED_EDGE ( 'NONE', *, *, #23, .T. ) ;
#203 = CARTESIAN_POINT ( 'NONE',  ( 11.01232893953760200, 5.604192459541036600, 0.1866439343442341500 ) ) ;
#204 = CIRCLE ( 'NONE', #222, 16.73000000000000000 ) ;
#205 = CALENDAR_DATE ( 2019, 18, 1 ) ;
#206 = EDGE_CURVE ( 'NONE', #6, #158, #128, .T. ) ;
#207 = CARTESIAN_POINT ( 'NONE',  ( 12.69999999999999900, 2.442490654175340100E-015, -5.839504143520369600 ) ) ;
#208 = CARTESIAN_POINT ( 'NONE',  ( -6.125354151914204500, 12.81196378586796700, -7.320506719458703200 ) ) ;
#209 = CARTESIAN_POINT ( 'NONE',  ( -1.776356839400250100E-015, 0.0000000000000000000, -16.73000000000000000 ) ) ;
#210 = APPLICATION_CONTEXT ( 'configuration controlled 3d designs of mechanical parts and assemblies' ) ;
#211 = AXIS2_PLACEMENT_3D ( 'NONE', #169, #105, #92 ) ;
#212 = CARTESIAN_POINT ( 'NONE',  ( -11.01232893953761000, -5.604192459541040200, 0.1866439343442263300 ) ) ;
#213 = VERTEX_POINT ( 'NONE', #154 ) ;
#214 = COORDINATED_UNIVERSAL_TIME_OFFSET ( 2, 0, .AHEAD. ) ;
#215 = SECURITY_CLASSIFICATION_LEVEL ( 'unclassified' ) ;
#216 = APPROVAL_STATUS ( 'not_yet_approved' ) ;
#217 = AXIS2_PLACEMENT_3D ( 'NONE', #66, #151, #166 ) ;
#218 = CIRCLE ( 'NONE', #100, 12.69999999999999900 ) ;
#219 = APPROVAL_DATE_TIME ( #38, #200 ) ;
#220 = FACE_OUTER_BOUND ( 'NONE', #47, .T. ) ;
#221 = LOCAL_TIME ( 9, 22, 18.00000000000000000, #227 ) ;
#222 = AXIS2_PLACEMENT_3D ( 'NONE', #209, #35, #106 ) ;
#223 = LINE ( 'NONE', #84, #61 ) ;
#224 = ADVANCED_FACE ( 'NONE', ( #220 ), #108, .F. ) ;
#225 = CARTESIAN_POINT ( 'NONE',  ( -1.776356839400249700E-015, 12.81196378586796500, -5.971446010285219200 ) ) ;
#226 = DIRECTION ( 'NONE',  ( 0.0000000000000000000, 0.0000000000000000000, 1.000000000000000000 ) ) ;
#227 = COORDINATED_UNIVERSAL_TIME_OFFSET ( 2, 0, .AHEAD. ) ;
#228 = CC_DESIGN_APPROVAL ( #200, ( #45 ) ) ;
#229 = DIRECTION ( 'NONE',  ( -0.0000000000000000000, -0.0000000000000000000, -1.000000000000000000 ) ) ;
#230 = FACE_OUTER_BOUND ( 'NONE', #22, .T. ) ;
#231 = APPROVAL_PERSON_ORGANIZATION ( #199, #103, #42 ) ;
#232 = LINE ( 'NONE', #207, #34 ) ;
#233 = PERSON_AND_ORGANIZATION_ROLE ( 'creator' ) ;
#234 = CC_DESIGN_PERSON_AND_ORGANIZATION_ASSIGNMENT ( #19, #73, ( #60 ) ) ;
#235 = EDGE_LOOP ( 'NONE', ( #70, #102, #79 ) ) ;
ENDSEC;
END-ISO-10303-21;
