ISO-10303-21;
HEADER;
FILE_DESCRIPTION (( 'STEP AP203' ),
    '1' );
FILE_NAME ('112-5135E CaF2 pl-cv 12.7 F-500.STEP',
    '2019-01-18T06:48:36',
    ( '' ),
    ( '' ),
    'SwSTEP 2.0',
    'SolidWorks 2017',
    '' );
FILE_SCHEMA (( 'CONFIG_CONTROL_DESIGN' ));
ENDSEC;

DATA;
#1 = CARTESIAN_POINT ( 'NONE',  ( 6.349999999999999600, 1.221245327087670000E-015, -0.09644141785527840500 ) ) ;
#2 =( NAMED_UNIT ( * ) SI_UNIT ( $, .STERADIAN. ) SOLID_ANGLE_UNIT ( ) );
#3 = DIRECTION ( 'NONE',  ( -0.0000000000000000000, -0.0000000000000000000, -1.000000000000000000 ) ) ;
#4 = CC_DESIGN_PERSON_AND_ORGANIZATION_ASSIGNMENT ( #104, #132, ( #19 ) ) ;
#5 = PERSON_AND_ORGANIZATION_ROLE ( 'design_supplier' ) ;
#6 = PERSON_AND_ORGANIZATION_ROLE ( 'creator' ) ;
#7 = CC_DESIGN_PERSON_AND_ORGANIZATION_ASSIGNMENT ( #117, #5, ( #231 ) ) ;
#8 = DATE_AND_TIME ( #80, #207 ) ;
#9 = COORDINATED_UNIVERSAL_TIME_OFFSET ( 2, 0, .AHEAD. ) ;
#10 = CIRCLE ( 'NONE', #200, 6.349999999999999600 ) ;
#11 = CARTESIAN_POINT ( 'NONE',  ( 2.498001805406600200E-016, 1.221245327087670000E-015, -0.09644141785527840500 ) ) ;
#12 = COORDINATED_UNIVERSAL_TIME_OFFSET ( 2, 0, .AHEAD. ) ;
#13 = CARTESIAN_POINT ( 'NONE',  ( -8.673617379884038600E-015, 2.142733470278352500, 0.03293360963967059000 ) ) ;
#14 = VECTOR ( 'NONE', #160, 1000.000000000000000 ) ;
#15 = CARTESIAN_POINT ( 'NONE',  ( 4.263256414560599900E-014, -6.349999999999822900, -0.09644141785527961300 ) ) ;
#16 = CARTESIAN_POINT ( 'NONE',  ( 4.263256414560599900E-014, 6.426176143244640900, -0.09876971611869067600 ) ) ;
#17 = CIRCLE ( 'NONE', #41, 6.349999999999999600 ) ;
#18 = DIRECTION ( 'NONE',  ( 1.000000000000000000, 0.0000000000000000000, 0.0000000000000000000 ) ) ;
#19 = SECURITY_CLASSIFICATION ( '', '', #22 ) ;
#20 = CARTESIAN_POINT ( 'NONE',  ( 0.0000000000000000000, 0.0000000000000000000, 0.0000000000000000000 ) ) ;
#21 = DIRECTION ( 'NONE',  ( 0.0000000000000000000, 0.0000000000000000000, 1.000000000000000000 ) ) ;
#22 = SECURITY_CLASSIFICATION_LEVEL ( 'unclassified' ) ;
#23 = CLOSED_SHELL ( 'NONE', ( #156, #211, #191, #60, #208 ) ) ;
#24 = FACE_OUTER_BOUND ( 'NONE', #170, .T. ) ;
#25 = VERTEX_POINT ( 'NONE', #142 ) ;
#26 = APPROVAL ( #186, 'UNSPECIFIED' ) ;
#27 = DIRECTION ( 'NONE',  ( 1.000000000000000000, 0.0000000000000000000, 0.0000000000000000000 ) ) ;
#28 = ORIENTED_EDGE ( 'NONE', *, *, #131, .F. ) ;
#29 = CARTESIAN_POINT ( 'NONE',  ( -4.259976198783002500, -2.142733470278345800, 0.0003919215827162037300 ) ) ;
#30 = CARTESIAN_POINT ( 'NONE',  ( 2.498001805406600200E-016, 1.221245327087670000E-015, -0.09644141785527840500 ) ) ;
#31 = CIRCLE ( 'NONE', #83, 6.349999999999999600 ) ;
#32 = AXIS2_PLACEMENT_3D ( 'NONE', #184, #21, #109 ) ;
#33 = CARTESIAN_POINT ( 'NONE',  ( -7.806255641895631900E-015, -6.426176143244633800, -0.09876971611864297800 ) ) ;
#34 = DATE_AND_TIME ( #136, #223 ) ;
#35 = AXIS2_PLACEMENT_3D ( 'NONE', #225, #3, #219 ) ;
#36 = APPLICATION_PROTOCOL_DEFINITION ( 'international standard', 'config_control_design', 1994, #203 ) ;
#37 = PERSON_AND_ORGANIZATION ( #62, #64 ) ;
#38 = CC_DESIGN_APPROVAL ( #71, ( #19 ) ) ;
#39 = EDGE_CURVE ( 'NONE', #61, #118, #232, .T. ) ;
#40 = CYLINDRICAL_SURFACE ( 'NONE', #97, 6.349999999999999600 ) ;
#41 = AXIS2_PLACEMENT_3D ( 'NONE', #218, #74, #18 ) ;
#42 = CARTESIAN_POINT ( 'NONE',  ( -4.257293440867510300, 6.426176143244640000, -0.1312909107580490500 ) ) ;
#43 = CARTESIAN_POINT ( 'NONE',  ( 2.498001805406600200E-016, 1.221245327087670000E-015, -0.09644141785527840500 ) ) ;
#44 = ORIENTED_EDGE ( 'NONE', *, *, #143, .F. ) ;
#45 = CARTESIAN_POINT ( 'NONE',  ( -2.130112391337303900, -2.142733470278345800, 0.03293360963969650000 ) ) ;
#46 = CARTESIAN_POINT ( 'NONE',  ( -6.385070723581280000, 6.426176143244640900, -0.1963257095968229400 ) ) ;
#47 = CALENDAR_DATE ( 2019, 18, 1 ) ;
#48 = UNCERTAINTY_MEASURE_WITH_UNIT (LENGTH_MEASURE( 1.000000000000000100E-005 ), #52, 'distance_accuracy_value', 'NONE');
#49 = CARTESIAN_POINT ( 'NONE',  ( 4.259976198783009600, 2.142733470278352900, 0.0003919215826767252700 ) ) ;
#50 = CARTESIAN_POINT ( 'NONE',  ( -2.128770934105598900, -6.426176143244633800, -0.09876971611864349100 ) ) ;
#51 = AXIS2_PLACEMENT_3D ( 'NONE', #11, #157, #122 ) ;
#52 =( LENGTH_UNIT ( ) NAMED_UNIT ( * ) SI_UNIT ( .MILLI., .METRE. ) );
#53 = APPLICATION_PROTOCOL_DEFINITION ( 'international standard', 'config_control_design', 1994, #169 ) ;
#54 = CIRCLE ( 'NONE', #106, 6.349999999999999600 ) ;
#55 = ORIENTED_EDGE ( 'NONE', *, *, #127, .T. ) ;
#56 = CALENDAR_DATE ( 2019, 18, 1 ) ;
#57 = EDGE_LOOP ( 'NONE', ( #168, #119, #82 ) ) ;
#58 = DATE_AND_TIME ( #47, #153 ) ;
#59 =( BOUNDED_SURFACE ( )  B_SPLINE_SURFACE ( 3, 3, ( 
 ( #46, #42, #67, #178 ),
 ( #66, #88, #235, #13 ),
 ( #216, #29, #45, #176 ),
 ( #164, #111, #50, #33 ) ),
 .UNSPECIFIED., .F., .F., .F. ) 
 B_SPLINE_SURFACE_WITH_KNOTS ( ( 4, 4 ),
 ( 4, 4 ),
 ( 0.0000000000000000000, 1.000000000000000000 ),
 ( 0.0000000000000000000, 1.000000000000000000 ),
 .UNSPECIFIED. ) 
 GEOMETRIC_REPRESENTATION_ITEM ( )  RATIONAL_B_SPLINE_SURFACE ( (
 ( 1.000000000000000000, 0.9999222000702540100, 0.9999222000702540100, 1.000000000000000000),
 ( 0.9996850957560379200, 0.9996073203258200000, 0.9996073203258200000, 0.9996850957560379200),
 ( 0.9996850957560379200, 0.9996073203258200000, 0.9996073203258200000, 0.9996850957560379200),
 ( 1.000000000000000000, 0.9999222000702540100, 0.9999222000702540100, 1.000000000000000000) ) ) 
 REPRESENTATION_ITEM ( '' )  SURFACE ( )  );
#60 = ADVANCED_FACE ( 'NONE', ( #24 ), #40, .T. ) ;
#61 = VERTEX_POINT ( 'NONE', #195 ) ;
#62 = PERSON ( 'UNSPECIFIED', 'UNSPECIFIED', 'UNSPECIFIED', ('UNSPECIFIED'), ('UNSPECIFIED'), ('UNSPECIFIED') ) ;
#63 = CC_DESIGN_PERSON_AND_ORGANIZATION_ASSIGNMENT ( #167, #115, ( #231 ) ) ;
#64 = ORGANIZATION ( 'UNSPECIFIED', 'UNSPECIFIED', '' ) ;
#65 = EDGE_CURVE ( 'NONE', #172, #159, #116, .T. ) ;
#66 = CARTESIAN_POINT ( 'NONE',  ( -6.389094312573345000, 2.142733470278352500, -0.06468385930812969900 ) ) ;
#67 = CARTESIAN_POINT ( 'NONE',  ( -2.128770934105598500, 6.426176143244640000, -0.09876971611867127500 ) ) ;
#68 = CARTESIAN_POINT ( 'NONE',  ( 2.498001805406600200E-016, 1.221245327087670000E-015, -0.09644141785527840500 ) ) ;
#69 = PERSON_AND_ORGANIZATION ( #62, #64 ) ;
#70 = CARTESIAN_POINT ( 'NONE',  ( -6.349999999999999600, 1.998896044546239400E-015, -0.09644141785527840500 ) ) ;
#71 = APPROVAL ( #226, 'UNSPECIFIED' ) ;
#72 = VECTOR ( 'NONE', #105, 1000.000000000000000 ) ;
#73 = CARTESIAN_POINT ( 'NONE',  ( 4.257293440867517400, 6.426176143244640000, -0.1312909107580621000 ) ) ;
#74 = DIRECTION ( 'NONE',  ( -0.0000000000000000000, -0.0000000000000000000, -1.000000000000000000 ) ) ;
#75 = CARTESIAN_POINT ( 'NONE',  ( 4.263256414560599900E-014, 2.142733470278352500, 0.03293360963965065400 ) ) ;
#76 = CARTESIAN_POINT ( 'NONE',  ( 0.0000000000000000000, 13.15799999999999900, 1.899999999999999900 ) ) ;
#77 = FACE_OUTER_BOUND ( 'NONE', #114, .T. ) ;
#78 = DIRECTION ( 'NONE',  ( 1.000000000000000000, 0.0000000000000000000, -0.0000000000000000000 ) ) ;
#79 = MECHANICAL_CONTEXT ( 'NONE', #203, 'mechanical' ) ;
#80 = CALENDAR_DATE ( 2019, 18, 1 ) ;
#81 = VERTEX_POINT ( 'NONE', #197 ) ;
#82 = ORIENTED_EDGE ( 'NONE', *, *, #39, .F. ) ;
#83 = AXIS2_PLACEMENT_3D ( 'NONE', #30, #89, #141 ) ;
#84 = ORIENTED_EDGE ( 'NONE', *, *, #194, .T. ) ;
#85 = APPROVAL_ROLE ( '' ) ;
#86 = CC_DESIGN_SECURITY_CLASSIFICATION ( #19, ( #231 ) ) ;
#87 = APPROVAL_PERSON_ORGANIZATION ( #190, #101, #228 ) ;
#88 = CARTESIAN_POINT ( 'NONE',  ( -4.259976198783002500, 2.142733470278352900, 0.0003919215826897628600 ) ) ;
#89 = DIRECTION ( 'NONE',  ( 0.0000000000000000000, 0.0000000000000000000, 1.000000000000000000 ) ) ;
#90 = PERSON_AND_ORGANIZATION ( #62, #64 ) ;
#91 = PRODUCT_DEFINITION_SHAPE ( 'NONE', 'NONE',  #214 ) ;
#92 = DIRECTION ( 'NONE',  ( 1.000000000000000000, 0.0000000000000000000, 0.0000000000000000000 ) ) ;
#93 = CARTESIAN_POINT ( 'NONE',  ( 6.349999999999999600, 1.221245327087670000E-015, -0.09644141785527840500 ) ) ;
#94 = CARTESIAN_POINT ( 'NONE',  ( 4.259976198783010500, -2.142733470278345800, 0.0003919215827031255400 ) ) ;
#95 = CARTESIAN_POINT ( 'NONE',  ( 4.263256414560599900E-014, -2.142733470278345400, 0.03293360963967708500 ) ) ;
#96 = PERSON_AND_ORGANIZATION ( #62, #64 ) ;
#97 = AXIS2_PLACEMENT_3D ( 'NONE', #161, #199, #217 ) ;
#98 = PERSON_AND_ORGANIZATION_ROLE ( 'design_owner' ) ;
#99 = APPROVAL_STATUS ( 'not_yet_approved' ) ;
#100 = LOCAL_TIME ( 8, 48, 36.00000000000000000, #12 ) ;
#101 = APPROVAL ( #99, 'UNSPECIFIED' ) ;
#102 = EDGE_LOOP ( 'NONE', ( #171, #55, #152, #84, #155 ) ) ;
#103 = PRODUCT ( '112-5135E CaF2 pl-cv 12.7 F-500', '112-5135E CaF2 pl-cv 12.7 F-500', '', ( #79 ) ) ;
#104 = PERSON_AND_ORGANIZATION ( #62, #64 ) ;
#105 = DIRECTION ( 'NONE',  ( 0.0000000000000000000, 0.0000000000000000000, 1.000000000000000000 ) ) ;
#106 = AXIS2_PLACEMENT_3D ( 'NONE', #68, #234, #92 ) ;
#107 = ORIENTED_EDGE ( 'NONE', *, *, #194, .F. ) ;
#108 = CARTESIAN_POINT ( 'NONE',  ( 6.385070723581275600, -6.426176143244633800, -0.1963257095968069200 ) ) ;
#109 = DIRECTION ( 'NONE',  ( 1.000000000000000000, 0.0000000000000000000, 0.0000000000000000000 ) ) ;
#110 = ORIENTED_EDGE ( 'NONE', *, *, #131, .T. ) ;
#111 = CARTESIAN_POINT ( 'NONE',  ( -4.257293440867511200, -6.426176143244633800, -0.1312909107580213000 ) ) ;
#112 = CARTESIAN_POINT ( 'NONE',  ( 6.385070723581274700, 6.426176143244640900, -0.1963257095968346500 ) ) ;
#113 = DATE_TIME_ROLE ( 'creation_date' ) ;
#114 = EDGE_LOOP ( 'NONE', ( #177, #107 ) ) ;
#115 = PERSON_AND_ORGANIZATION_ROLE ( 'creator' ) ;
#116 = LINE ( 'NONE', #1, #14 ) ;
#117 = PERSON_AND_ORGANIZATION ( #62, #64 ) ;
#118 = VERTEX_POINT ( 'NONE', #15 ) ;
#119 = ORIENTED_EDGE ( 'NONE', *, *, #224, .T. ) ;
#120 = CC_DESIGN_APPROVAL ( #101, ( #231 ) ) ;
#121 = ORIENTED_EDGE ( 'NONE', *, *, #39, .T. ) ;
#122 = DIRECTION ( 'NONE',  ( 1.000000000000000000, 0.0000000000000000000, 0.0000000000000000000 ) ) ;
#123 = LOCAL_TIME ( 8, 48, 36.00000000000000000, #227 ) ;
#124 = APPROVAL_PERSON_ORGANIZATION ( #37, #26, #205 ) ;
#125 = ORIENTED_EDGE ( 'NONE', *, *, #188, .T. ) ;
#126 = DIRECTION ( 'NONE',  ( 0.0000000000000000000, 0.0000000000000000000, 1.000000000000000000 ) ) ;
#127 = EDGE_CURVE ( 'NONE', #25, #61, #31, .T. ) ;
#128 = COORDINATED_UNIVERSAL_TIME_OFFSET ( 2, 0, .AHEAD. ) ;
#129 = FACE_OUTER_BOUND ( 'NONE', #192, .T. ) ;
#130 = CARTESIAN_POINT ( 'NONE',  ( 6.389094312573339700, -2.142733470278345400, -0.06468385930811503000 ) ) ;
#131 = EDGE_CURVE ( 'NONE', #118, #172, #10, .T. ) ;
#132 = PERSON_AND_ORGANIZATION_ROLE ( 'classification_officer' ) ;
#133 = DATE_TIME_ROLE ( 'classification_date' ) ;
#134 = ORIENTED_EDGE ( 'NONE', *, *, #138, .F. ) ;
#135 = APPROVAL_DATE_TIME ( #58, #71 ) ;
#136 = CALENDAR_DATE ( 2019, 18, 1 ) ;
#137 = SHAPE_DEFINITION_REPRESENTATION ( #91, #173 ) ;
#138 = EDGE_CURVE ( 'NONE', #61, #81, #230, .T. ) ;
#139 = DESIGN_CONTEXT ( 'detailed design', #169, 'design' ) ;
#140 =( BOUNDED_SURFACE ( )  B_SPLINE_SURFACE ( 3, 3, ( 
 ( #16, #202, #73, #112 ),
 ( #75, #201, #49, #162 ),
 ( #95, #147, #94, #130 ),
 ( #149, #221, #182, #108 ) ),
 .UNSPECIFIED., .F., .F., .F. ) 
 B_SPLINE_SURFACE_WITH_KNOTS ( ( 4, 4 ),
 ( 4, 4 ),
 ( 0.0000000000000000000, 1.000000000000000000 ),
 ( 0.0000000000000000000, 1.000000000000000000 ),
 .UNSPECIFIED. ) 
 GEOMETRIC_REPRESENTATION_ITEM ( )  RATIONAL_B_SPLINE_SURFACE ( (
 ( 1.000000000000000000, 0.9999222000702540100, 0.9999222000702540100, 1.000000000000000000),
 ( 0.9996850957560379200, 0.9996073203258200000, 0.9996073203258200000, 0.9996850957560379200),
 ( 0.9996850957560379200, 0.9996073203258200000, 0.9996073203258200000, 0.9996850957560379200),
 ( 1.000000000000000000, 0.9999222000702540100, 0.9999222000702540100, 1.000000000000000000) ) ) 
 REPRESENTATION_ITEM ( '' )  SURFACE ( )  );
#141 = DIRECTION ( 'NONE',  ( 1.000000000000000000, 0.0000000000000000000, 0.0000000000000000000 ) ) ;
#142 = CARTESIAN_POINT ( 'NONE',  ( 4.263256414560599900E-014, 6.349999999999795400, -0.09644141785527961300 ) ) ;
#143 = EDGE_CURVE ( 'NONE', #172, #25, #54, .T. ) ;
#144 = CARTESIAN_POINT ( 'NONE',  ( 6.349999999999999600, 1.221245327087670000E-015, 1.899999999999999900 ) ) ;
#145 = ORIENTED_EDGE ( 'NONE', *, *, #65, .T. ) ;
#146 = DIRECTION ( 'NONE',  ( 0.0000000000000000000, 0.0000000000000000000, 1.000000000000000000 ) ) ;
#147 = CARTESIAN_POINT ( 'NONE',  ( 2.130112391337324300, -2.142733470278345800, 0.03293360963967708500 ) ) ;
#148 = DIRECTION ( 'NONE',  ( 1.000000000000000000, 0.0000000000000000000, 0.0000000000000000000 ) ) ;
#149 = CARTESIAN_POINT ( 'NONE',  ( 4.263256414560599900E-014, -6.426176143244633800, -0.09876971611866292000 ) ) ;
#150 = DIRECTION ( 'NONE',  ( 1.000000000000000000, 0.0000000000000000000, 0.0000000000000000000 ) ) ;
#151 = FACE_OUTER_BOUND ( 'NONE', #102, .T. ) ;
#152 = ORIENTED_EDGE ( 'NONE', *, *, #138, .T. ) ;
#153 = LOCAL_TIME ( 8, 48, 36.00000000000000000, #9 ) ;
#154 = CC_DESIGN_DATE_AND_TIME_ASSIGNMENT ( #175, #133, ( #19 ) ) ;
#155 = ORIENTED_EDGE ( 'NONE', *, *, #65, .F. ) ;
#156 = ADVANCED_FACE ( 'NONE', ( #212 ), #59, .F. ) ;
#157 = DIRECTION ( 'NONE',  ( 0.0000000000000000000, 0.0000000000000000000, 1.000000000000000000 ) ) ;
#158 = APPROVAL_DATE_TIME ( #8, #26 ) ;
#159 = VERTEX_POINT ( 'NONE', #144 ) ;
#160 = DIRECTION ( 'NONE',  ( 0.0000000000000000000, 0.0000000000000000000, 1.000000000000000000 ) ) ;
#161 = CARTESIAN_POINT ( 'NONE',  ( 2.498001805406600200E-016, 1.221245327087670000E-015, -0.09644141785527840500 ) ) ;
#162 = CARTESIAN_POINT ( 'NONE',  ( 6.389094312573338800, 2.142733470278352500, -0.06468385930814141100 ) ) ;
#163 = CIRCLE ( 'NONE', #187, 209.0999999999999900 ) ;
#164 = CARTESIAN_POINT ( 'NONE',  ( -6.385070723581280900, -6.426176143244633800, -0.1963257095967951800 ) ) ;
#165 = CALENDAR_DATE ( 2019, 18, 1 ) ;
#166 =( NAMED_UNIT ( * ) PLANE_ANGLE_UNIT ( ) SI_UNIT ( $, .RADIAN. ) );
#167 = PERSON_AND_ORGANIZATION ( #62, #64 ) ;
#168 = ORIENTED_EDGE ( 'NONE', *, *, #127, .F. ) ;
#169 = APPLICATION_CONTEXT ( 'configuration controlled 3d designs of mechanical parts and assemblies' ) ;
#170 = EDGE_LOOP ( 'NONE', ( #134, #121, #110, #145, #125 ) ) ;
#171 = ORIENTED_EDGE ( 'NONE', *, *, #143, .T. ) ;
#172 = VERTEX_POINT ( 'NONE', #93 ) ;
#173 = ADVANCED_BREP_SHAPE_REPRESENTATION ( '112-5135E CaF2 pl-cv 12.7 F-500', ( #189, #193 ), #185 ) ;
#174 = CIRCLE ( 'NONE', #35, 6.349999999999999600 ) ;
#175 = DATE_AND_TIME ( #165, #100 ) ;
#176 = CARTESIAN_POINT ( 'NONE',  ( -8.673617379884038600E-015, -2.142733470278345400, 0.03293360963969702000 ) ) ;
#177 = ORIENTED_EDGE ( 'NONE', *, *, #188, .F. ) ;
#178 = CARTESIAN_POINT ( 'NONE',  ( -7.806255641895631900E-015, 6.426176143244640900, -0.09876971611867076100 ) ) ;
#179 = DIRECTION ( 'NONE',  ( 0.0000000000000000000, 1.000000000000000000, 7.964297163738569400E-016 ) ) ;
#180 = COORDINATED_UNIVERSAL_TIME_OFFSET ( 2, 0, .AHEAD. ) ;
#181 = PLANE ( 'NONE',  #229 ) ;
#182 = CARTESIAN_POINT ( 'NONE',  ( 4.257293440867519200, -6.426176143244633800, -0.1312909107580344200 ) ) ;
#183 = APPROVAL_PERSON_ORGANIZATION ( #96, #71, #85 ) ;
#184 = CARTESIAN_POINT ( 'NONE',  ( 2.498001805406600200E-016, 1.221245327087670000E-015, -0.09644141785527840500 ) ) ;
#185 =( GEOMETRIC_REPRESENTATION_CONTEXT ( 3 ) GLOBAL_UNCERTAINTY_ASSIGNED_CONTEXT ( ( #48 ) ) GLOBAL_UNIT_ASSIGNED_CONTEXT ( ( #52, #166, #2 ) ) REPRESENTATION_CONTEXT ( 'NONE', 'WORKASPACE' ) );
#186 = APPROVAL_STATUS ( 'not_yet_approved' ) ;
#187 = AXIS2_PLACEMENT_3D ( 'NONE', #222, #148, #179 ) ;
#188 = EDGE_CURVE ( 'NONE', #159, #81, #17, .T. ) ;
#189 = MANIFOLD_SOLID_BREP ( 'Imported1', #23 ) ;
#190 = PERSON_AND_ORGANIZATION ( #62, #64 ) ;
#191 = ADVANCED_FACE ( 'NONE', ( #129 ), #140, .F. ) ;
#192 = EDGE_LOOP ( 'NONE', ( #206, #44, #28 ) ) ;
#193 = AXIS2_PLACEMENT_3D ( 'NONE', #20, #204, #150 ) ;
#194 = EDGE_CURVE ( 'NONE', #81, #159, #174, .T. ) ;
#195 = CARTESIAN_POINT ( 'NONE',  ( -6.349999999999999600, 1.998896044546239400E-015, -0.09644141785527840500 ) ) ;
#196 = CC_DESIGN_APPROVAL ( #26, ( #214 ) ) ;
#197 = CARTESIAN_POINT ( 'NONE',  ( -6.349999999999999600, 1.998896044546239400E-015, 1.899999999999999900 ) ) ;
#198 = CC_DESIGN_PERSON_AND_ORGANIZATION_ASSIGNMENT ( #69, #6, ( #214 ) ) ;
#199 = DIRECTION ( 'NONE',  ( 0.0000000000000000000, 0.0000000000000000000, 1.000000000000000000 ) ) ;
#200 = AXIS2_PLACEMENT_3D ( 'NONE', #43, #146, #27 ) ;
#201 = CARTESIAN_POINT ( 'NONE',  ( 2.130112391337324300, 2.142733470278352900, 0.03293360963965066100 ) ) ;
#202 = CARTESIAN_POINT ( 'NONE',  ( 2.128770934105619400, 6.426176143244640000, -0.09876971611869067600 ) ) ;
#203 = APPLICATION_CONTEXT ( 'configuration controlled 3d designs of mechanical parts and assemblies' ) ;
#204 = DIRECTION ( 'NONE',  ( 0.0000000000000000000, 0.0000000000000000000, 1.000000000000000000 ) ) ;
#205 = APPROVAL_ROLE ( '' ) ;
#206 = ORIENTED_EDGE ( 'NONE', *, *, #224, .F. ) ;
#207 = LOCAL_TIME ( 8, 48, 36.00000000000000000, #128 ) ;
#208 = ADVANCED_FACE ( 'NONE', ( #77 ), #181, .T. ) ;
#209 = PRODUCT_RELATED_PRODUCT_CATEGORY ( 'detail', '', ( #103 ) ) ;
#210 = DATE_AND_TIME ( #56, #123 ) ;
#211 = ADVANCED_FACE ( 'NONE', ( #151 ), #215, .T. ) ;
#212 = FACE_OUTER_BOUND ( 'NONE', #57, .T. ) ;
#213 = APPROVAL_DATE_TIME ( #210, #101 ) ;
#214 = PRODUCT_DEFINITION ( 'UNKNOWN', '', #231, #139 ) ;
#215 = CYLINDRICAL_SURFACE ( 'NONE', #32, 6.349999999999999600 ) ;
#216 = CARTESIAN_POINT ( 'NONE',  ( -6.389094312573345900, -2.142733470278345400, -0.06468385930810327500 ) ) ;
#217 = DIRECTION ( 'NONE',  ( 1.000000000000000000, 0.0000000000000000000, 0.0000000000000000000 ) ) ;
#218 = CARTESIAN_POINT ( 'NONE',  ( 2.498001805406600200E-016, 1.221245327087670000E-015, 1.899999999999999900 ) ) ;
#219 = DIRECTION ( 'NONE',  ( 1.000000000000000000, 0.0000000000000000000, 0.0000000000000000000 ) ) ;
#220 = CC_DESIGN_PERSON_AND_ORGANIZATION_ASSIGNMENT ( #90, #98, ( #103 ) ) ;
#221 = CARTESIAN_POINT ( 'NONE',  ( 2.128770934105619800, -6.426176143244633800, -0.09876971611866292000 ) ) ;
#222 = CARTESIAN_POINT ( 'NONE',  ( 4.263256414560599900E-014, -2.842170943040400100E-014, -209.0999999999999900 ) ) ;
#223 = LOCAL_TIME ( 8, 48, 36.00000000000000000, #180 ) ;
#224 = EDGE_CURVE ( 'NONE', #25, #118, #163, .T. ) ;
#225 = CARTESIAN_POINT ( 'NONE',  ( 2.498001805406600200E-016, 1.221245327087670000E-015, 1.899999999999999900 ) ) ;
#226 = APPROVAL_STATUS ( 'not_yet_approved' ) ;
#227 = COORDINATED_UNIVERSAL_TIME_OFFSET ( 2, 0, .AHEAD. ) ;
#228 = APPROVAL_ROLE ( '' ) ;
#229 = AXIS2_PLACEMENT_3D ( 'NONE', #76, #126, #78 ) ;
#230 = LINE ( 'NONE', #70, #72 ) ;
#231 = PRODUCT_DEFINITION_FORMATION_WITH_SPECIFIED_SOURCE ( 'ANY', '', #103, .NOT_KNOWN. ) ;
#232 = CIRCLE ( 'NONE', #51, 6.349999999999999600 ) ;
#233 = CC_DESIGN_DATE_AND_TIME_ASSIGNMENT ( #34, #113, ( #214 ) ) ;
#234 = DIRECTION ( 'NONE',  ( 0.0000000000000000000, 0.0000000000000000000, 1.000000000000000000 ) ) ;
#235 = CARTESIAN_POINT ( 'NONE',  ( -2.130112391337303900, 2.142733470278352900, 0.03293360963967006900 ) ) ;
ENDSEC;
END-ISO-10303-21;
