ISO-10303-21;
HEADER;
FILE_DESCRIPTION (( 'STEP AP203' ),
    '1' );
FILE_NAME ('112-5130E CaF2 pl-cv 12.7 F-250.STEP',
    '2019-01-18T07:04:05',
    ( '' ),
    ( '' ),
    'SwSTEP 2.0',
    'SolidWorks 2017',
    '' );
FILE_SCHEMA (( 'CONFIG_CONTROL_DESIGN' ));
ENDSEC;

DATA;
#1 = DIRECTION ( 'NONE',  ( -0.0000000000000000000, -0.0000000000000000000, -1.000000000000000000 ) ) ;
#2 = DESIGN_CONTEXT ( 'detailed design', #206, 'design' ) ;
#3 = CARTESIAN_POINT ( 'NONE',  ( 2.432749379338878600E-014, -25.70049218566124000, -2.659718734387583900 ) ) ;
#4 = ORIENTED_EDGE ( 'NONE', *, *, #41, .T. ) ;
#5 = DIRECTION ( 'NONE',  ( 0.0000000000000000000, 0.0000000000000000000, 1.000000000000000000 ) ) ;
#6 = APPROVAL_DATE_TIME ( #135, #120 ) ;
#7 = PERSON_AND_ORGANIZATION_ROLE ( 'creator' ) ;
#8 = APPROVAL ( #56, 'UNSPECIFIED' ) ;
#9 = PERSON_AND_ORGANIZATION_ROLE ( 'classification_officer' ) ;
#10 =( NAMED_UNIT ( * ) SI_UNIT ( $, .STERADIAN. ) SOLID_ANGLE_UNIT ( ) );
#11 = PERSON_AND_ORGANIZATION ( #232, #167 ) ;
#12 = CC_DESIGN_PERSON_AND_ORGANIZATION_ASSIGNMENT ( #53, #55, ( #105 ) ) ;
#13 = PRODUCT_DEFINITION_SHAPE ( 'NONE', 'NONE',  #173 ) ;
#14 = LINE ( 'NONE', #43, #230 ) ;
#15 = FACE_OUTER_BOUND ( 'NONE', #118, .T. ) ;
#16 = CC_DESIGN_DATE_AND_TIME_ASSIGNMENT ( #162, #130, ( #173 ) ) ;
#17 = CARTESIAN_POINT ( 'NONE',  ( 16.77522118687472700, -25.70049218566123600, -3.520290841305320700 ) ) ;
#18 = PERSON_AND_ORGANIZATION ( #232, #167 ) ;
#19 = CARTESIAN_POINT ( 'NONE',  ( 2.050944739216371200E-014, -8.689603106652866100, 0.8992785044814027900 ) ) ;
#20 = CIRCLE ( 'NONE', #67, 125.5000000000000000 ) ;
#21 = VERTEX_POINT ( 'NONE', #215 ) ;
#22 = PERSON_AND_ORGANIZATION_ROLE ( 'design_owner' ) ;
#23 = SECURITY_CLASSIFICATION ( '', '', #209 ) ;
#24 =( NAMED_UNIT ( * ) PLANE_ANGLE_UNIT ( ) SI_UNIT ( $, .RADIAN. ) );
#25 = APPROVAL_STATUS ( 'not_yet_approved' ) ;
#26 = APPROVAL_STATUS ( 'not_yet_approved' ) ;
#27 = CARTESIAN_POINT ( 'NONE',  ( -25.00877898716979800, 25.70049218566119400, -5.232399728831133200 ) ) ;
#28 = EDGE_CURVE ( 'NONE', #160, #77, #14, .T. ) ;
#29 = CALENDAR_DATE ( 2019, 18, 1 ) ;
#30 = AXIS2_PLACEMENT_3D ( 'NONE', #32, #125, #146 ) ;
#31 = COORDINATED_UNIVERSAL_TIME_OFFSET ( 2, 0, .AHEAD. ) ;
#32 = CARTESIAN_POINT ( 'NONE',  ( 0.0000000000000000000, 52.02000000000000300, 3.000000000000000000 ) ) ;
#33 = PLANE ( 'NONE',  #30 ) ;
#34 = EDGE_CURVE ( 'NONE', #210, #21, #65, .T. ) ;
#35 = PERSON_AND_ORGANIZATION_ROLE ( 'creator' ) ;
#36 = EDGE_LOOP ( 'NONE', ( #203, #228, #4, #45, #113 ) ) ;
#37 = CC_DESIGN_PERSON_AND_ORGANIZATION_ASSIGNMENT ( #11, #9, ( #23 ) ) ;
#38 = APPROVAL_PERSON_ORGANIZATION ( #196, #163, #75 ) ;
#39 = CALENDAR_DATE ( 2019, 18, 1 ) ;
#40 = DIRECTION ( 'NONE',  ( 0.0000000000000000000, 0.0000000000000000000, 1.000000000000000000 ) ) ;
#41 = EDGE_CURVE ( 'NONE', #133, #210, #112, .T. ) ;
#42 = EDGE_LOOP ( 'NONE', ( #57, #66 ) ) ;
#43 = CARTESIAN_POINT ( 'NONE',  ( -25.39999999999999900, 7.995584178184967200E-015, -2.597233554325559800 ) ) ;
#44 = DIRECTION ( 'NONE',  ( 0.0000000000000000000, 0.0000000000000000000, 1.000000000000000000 ) ) ;
#45 = ORIENTED_EDGE ( 'NONE', *, *, #34, .T. ) ;
#46 = EDGE_CURVE ( 'NONE', #21, #77, #179, .T. ) ;
#47 = DIRECTION ( 'NONE',  ( 0.0000000000000000000, 0.0000000000000000000, 1.000000000000000000 ) ) ;
#48 = APPROVAL_DATE_TIME ( #76, #163 ) ;
#49 = CARTESIAN_POINT ( 'NONE',  ( 17.26124226457326200, 8.689603106652834100, 0.01377342182627933100 ) ) ;
#50 = ORIENTED_EDGE ( 'NONE', *, *, #28, .T. ) ;
#51 = DIRECTION ( 'NONE',  ( 1.000000000000000000, 0.0000000000000000000, 0.0000000000000000000 ) ) ;
#52 = CARTESIAN_POINT ( 'NONE',  ( 0.0000000000000000000, 0.0000000000000000000, 0.0000000000000000000 ) ) ;
#53 = PERSON_AND_ORGANIZATION ( #232, #167 ) ;
#54 = CARTESIAN_POINT ( 'NONE',  ( -17.26124226457326600, -8.689603106652866100, 0.01377342182628063000 ) ) ;
#55 = PERSON_AND_ORGANIZATION_ROLE ( 'design_supplier' ) ;
#56 = APPROVAL_STATUS ( 'not_yet_approved' ) ;
#57 = ORIENTED_EDGE ( 'NONE', *, *, #46, .F. ) ;
#58 = CC_DESIGN_PERSON_AND_ORGANIZATION_ASSIGNMENT ( #211, #7, ( #173 ) ) ;
#59 = PERSON_AND_ORGANIZATION ( #232, #167 ) ;
#60 = ORIENTED_EDGE ( 'NONE', *, *, #139, .T. ) ;
#61 = CARTESIAN_POINT ( 'NONE',  ( 1.421085471520200100E-014, -2.842170943040400100E-014, -125.5000000000000000 ) ) ;
#62 = APPROVAL_DATE_TIME ( #217, #8 ) ;
#63 = CC_DESIGN_APPROVAL ( #163, ( #23 ) ) ;
#64 = CARTESIAN_POINT ( 'NONE',  ( 8.409684351599921100, 25.70049218566120400, -2.659718734387598500 ) ) ;
#65 = LINE ( 'NONE', #159, #169 ) ;
#66 = ORIENTED_EDGE ( 'NONE', *, *, #139, .F. ) ;
#67 = AXIS2_PLACEMENT_3D ( 'NONE', #61, #164, #96 ) ;
#68 = CARTESIAN_POINT ( 'NONE',  ( -8.409684351599931800, 25.70049218566119700, -2.659718734387603000 ) ) ;
#69 = ORIENTED_EDGE ( 'NONE', *, *, #34, .F. ) ;
#70 = CARTESIAN_POINT ( 'NONE',  ( 9.992007221626412800E-016, 4.884981308350691100E-015, -2.597233554325559800 ) ) ;
#71 = APPLICATION_PROTOCOL_DEFINITION ( 'international standard', 'config_control_design', 1994, #90 ) ;
#72 = CC_DESIGN_PERSON_AND_ORGANIZATION_ASSIGNMENT ( #205, #35, ( #105 ) ) ;
#73 = CARTESIAN_POINT ( 'NONE',  ( -6.938893903907228400E-015, -25.70049218566124000, -2.659718734387587900 ) ) ;
#74 = EDGE_CURVE ( 'NONE', #210, #119, #136, .T. ) ;
#75 = APPROVAL_ROLE ( '' ) ;
#76 = DATE_AND_TIME ( #39, #222 ) ;
#77 = VERTEX_POINT ( 'NONE', #216 ) ;
#78 = CIRCLE ( 'NONE', #224, 25.39999999999999900 ) ;
#79 = DIRECTION ( 'NONE',  ( 0.0000000000000000000, 0.0000000000000000000, 1.000000000000000000 ) ) ;
#80 = AXIS2_PLACEMENT_3D ( 'NONE', #168, #47, #51 ) ;
#81 = ORIENTED_EDGE ( 'NONE', *, *, #208, .F. ) ;
#82 = CARTESIAN_POINT ( 'NONE',  ( 17.26124226457326600, -8.689603106652862500, 0.01377342182629060600 ) ) ;
#83 = CLOSED_SHELL ( 'NONE', ( #233, #116, #99, #214, #197 ) ) ;
#84 = EDGE_CURVE ( 'NONE', #119, #133, #20, .T. ) ;
#85 = CARTESIAN_POINT ( 'NONE',  ( -17.26124226457326900, 8.689603106652827000, 0.01377342182626979000 ) ) ;
#86 = CARTESIAN_POINT ( 'NONE',  ( -8.653334423699547500, 8.689603106652828800, 0.8992785044813854700 ) ) ;
#87 = APPROVAL_PERSON_ORGANIZATION ( #229, #120, #226 ) ;
#88 = MECHANICAL_CONTEXT ( 'NONE', #90, 'mechanical' ) ;
#89 = PRODUCT ( '112-5130E CaF2 pl-cv 12.7 F-250', '112-5130E CaF2 pl-cv 12.7 F-250', '', ( #88 ) ) ;
#90 = APPLICATION_CONTEXT ( 'configuration controlled 3d designs of mechanical parts and assemblies' ) ;
#91 = CIRCLE ( 'NONE', #158, 25.39999999999999900 ) ;
#92 = AXIS2_PLACEMENT_3D ( 'NONE', #52, #5, #107 ) ;
#93 = DATE_AND_TIME ( #150, #157 ) ;
#94 = LOCAL_TIME ( 9, 4, 5.000000000000000000, #117 ) ;
#95 = COORDINATED_UNIVERSAL_TIME_OFFSET ( 2, 0, .AHEAD. ) ;
#96 = DIRECTION ( 'NONE',  ( -2.315424381500570500E-016, 1.000000000000000000, -4.423199301295444400E-016 ) ) ;
#97 = ORIENTED_EDGE ( 'NONE', *, *, #235, .F. ) ;
#98 = CARTESIAN_POINT ( 'NONE',  ( 16.77522118687472000, 25.70049218566120400, -3.520290841305334400 ) ) ;
#99 = ADVANCED_FACE ( 'NONE', ( #15 ), #131, .F. ) ;
#100 = CALENDAR_DATE ( 2019, 18, 1 ) ;
#101 = CC_DESIGN_SECURITY_CLASSIFICATION ( #23, ( #105 ) ) ;
#102 = CARTESIAN_POINT ( 'NONE',  ( 25.39999999999999900, 4.884981308350691100E-015, -2.597233554325559800 ) ) ;
#103 = EDGE_LOOP ( 'NONE', ( #148, #128, #50, #60, #69 ) ) ;
#104 = CARTESIAN_POINT ( 'NONE',  ( 9.992007221626412800E-016, 4.884981308350691100E-015, 2.999999999999999600 ) ) ;
#105 = PRODUCT_DEFINITION_FORMATION_WITH_SPECIFIED_SOURCE ( 'ANY', '', #89, .NOT_KNOWN. ) ;
#106 = CIRCLE ( 'NONE', #180, 25.39999999999999900 ) ;
#107 = DIRECTION ( 'NONE',  ( 1.000000000000000000, 0.0000000000000000000, 0.0000000000000000000 ) ) ;
#108 = DIRECTION ( 'NONE',  ( 1.000000000000000000, 0.0000000000000000000, 0.0000000000000000000 ) ) ;
#109 = CARTESIAN_POINT ( 'NONE',  ( -25.00877898716978700, -25.70049218566124700, -5.232399728831119000 ) ) ;
#110 = CYLINDRICAL_SURFACE ( 'NONE', #80, 25.39999999999999900 ) ;
#111 =( LENGTH_UNIT ( ) NAMED_UNIT ( * ) SI_UNIT ( .MILLI., .METRE. ) );
#112 = CIRCLE ( 'NONE', #145, 25.39999999999999900 ) ;
#113 = ORIENTED_EDGE ( 'NONE', *, *, #46, .T. ) ;
#114 = FACE_OUTER_BOUND ( 'NONE', #156, .T. ) ;
#115 = PRODUCT_RELATED_PRODUCT_CATEGORY ( 'detail', '', ( #89 ) ) ;
#116 = ADVANCED_FACE ( 'NONE', ( #198 ), #110, .T. ) ;
#117 = COORDINATED_UNIVERSAL_TIME_OFFSET ( 2, 0, .AHEAD. ) ;
#118 = EDGE_LOOP ( 'NONE', ( #137, #212, #189 ) ) ;
#119 = VERTEX_POINT ( 'NONE', #186 ) ;
#120 = APPROVAL ( #25, 'UNSPECIFIED' ) ;
#121 = CARTESIAN_POINT ( 'NONE',  ( 25.00877898716978000, 25.70049218566120400, -5.232399728831119000 ) ) ;
#122 = DIRECTION ( 'NONE',  ( 1.000000000000000000, 0.0000000000000000000, 0.0000000000000000000 ) ) ;
#123 = CARTESIAN_POINT ( 'NONE',  ( 9.992007221626412800E-016, 4.884981308350691100E-015, -2.597233554325559800 ) ) ;
#124 = CARTESIAN_POINT ( 'NONE',  ( 25.73334730015148300, -8.689603106652860700, -1.747939640653895800 ) ) ;
#125 = DIRECTION ( 'NONE',  ( 0.0000000000000000000, 0.0000000000000000000, 1.000000000000000000 ) ) ;
#126 = DIRECTION ( 'NONE',  ( 1.000000000000000000, 0.0000000000000000000, 0.0000000000000000000 ) ) ;
#127 = CARTESIAN_POINT ( 'NONE',  ( -25.73334730015149300, -8.689603106652871400, -1.747939640653910300 ) ) ;
#128 = ORIENTED_EDGE ( 'NONE', *, *, #208, .T. ) ;
#129 = APPROVAL_ROLE ( '' ) ;
#130 = DATE_TIME_ROLE ( 'creation_date' ) ;
#131 =( BOUNDED_SURFACE ( )  B_SPLINE_SURFACE ( 3, 3, ( 
 ( #185, #64, #98, #121 ),
 ( #181, #140, #49, #219 ),
 ( #19, #201, #82, #124 ),
 ( #3, #188, #17, #202 ) ),
 .UNSPECIFIED., .F., .F., .F. ) 
 B_SPLINE_SURFACE_WITH_KNOTS ( ( 4, 4 ),
 ( 4, 4 ),
 ( 0.0000000000000000000, 1.000000000000000000 ),
 ( 0.0000000000000000000, 1.000000000000000000 ),
 .UNSPECIFIED. ) 
 GEOMETRIC_REPRESENTATION_ITEM ( )  RATIONAL_B_SPLINE_SURFACE ( (
 ( 1.000000000000000000, 0.9965002637055607700, 0.9965002637055607700, 1.000000000000000000),
 ( 0.9858713480245013800, 0.9824210582861723200, 0.9824210582861723200, 0.9858713480245013800),
 ( 0.9858713480245013800, 0.9824210582861723200, 0.9824210582861723200, 0.9858713480245013800),
 ( 1.000000000000000000, 0.9965002637055607700, 0.9965002637055607700, 1.000000000000000000) ) ) 
 REPRESENTATION_ITEM ( '' )  SURFACE ( )  );
#132 = DATE_TIME_ROLE ( 'classification_date' ) ;
#133 = VERTEX_POINT ( 'NONE', #166 ) ;
#134 = CC_DESIGN_APPROVAL ( #120, ( #105 ) ) ;
#135 = DATE_AND_TIME ( #100, #192 ) ;
#136 = CIRCLE ( 'NONE', #170, 25.39999999999999900 ) ;
#137 = ORIENTED_EDGE ( 'NONE', *, *, #84, .F. ) ;
#138 = FACE_OUTER_BOUND ( 'NONE', #36, .T. ) ;
#139 = EDGE_CURVE ( 'NONE', #77, #21, #91, .T. ) ;
#140 = CARTESIAN_POINT ( 'NONE',  ( 8.653334423699542200, 8.689603106652832300, 0.8992785044813911300 ) ) ;
#141 = DIRECTION ( 'NONE',  ( 0.0000000000000000000, 0.0000000000000000000, 1.000000000000000000 ) ) ;
#142 = ORIENTED_EDGE ( 'NONE', *, *, #84, .T. ) ;
#143 = CARTESIAN_POINT ( 'NONE',  ( 9.992007221626412800E-016, 4.884981308350691100E-015, -2.597233554325559800 ) ) ;
#144 = COORDINATED_UNIVERSAL_TIME_OFFSET ( 2, 0, .AHEAD. ) ;
#145 = AXIS2_PLACEMENT_3D ( 'NONE', #123, #141, #122 ) ;
#146 = DIRECTION ( 'NONE',  ( 1.000000000000000000, 0.0000000000000000000, -0.0000000000000000000 ) ) ;
#147 = CYLINDRICAL_SURFACE ( 'NONE', #195, 25.39999999999999900 ) ;
#148 = ORIENTED_EDGE ( 'NONE', *, *, #74, .T. ) ;
#149 = CC_DESIGN_DATE_AND_TIME_ASSIGNMENT ( #93, #132, ( #23 ) ) ;
#150 = CALENDAR_DATE ( 2019, 18, 1 ) ;
#151 = ADVANCED_BREP_SHAPE_REPRESENTATION ( '112-5130E CaF2 pl-cv 12.7 F-250', ( #178, #92 ), #227 ) ;
#152 = CARTESIAN_POINT ( 'NONE',  ( -1.040834085586084400E-014, -8.689603106652866100, 0.8992785044813992300 ) ) ;
#153 = DIRECTION ( 'NONE',  ( 0.0000000000000000000, 0.0000000000000000000, 1.000000000000000000 ) ) ;
#154 = CARTESIAN_POINT ( 'NONE',  ( 9.992007221626412800E-016, 4.884981308350691100E-015, -2.597233554325559800 ) ) ;
#155 = APPROVAL_PERSON_ORGANIZATION ( #18, #8, #129 ) ;
#156 = EDGE_LOOP ( 'NONE', ( #81, #142, #97 ) ) ;
#157 = LOCAL_TIME ( 9, 4, 5.000000000000000000, #200 ) ;
#158 = AXIS2_PLACEMENT_3D ( 'NONE', #104, #1, #126 ) ;
#159 = CARTESIAN_POINT ( 'NONE',  ( 25.39999999999999900, 4.884981308350691100E-015, -2.597233554325559800 ) ) ;
#160 = VERTEX_POINT ( 'NONE', #221 ) ;
#161 = DIRECTION ( 'NONE',  ( 1.000000000000000000, 0.0000000000000000000, 0.0000000000000000000 ) ) ;
#162 = DATE_AND_TIME ( #175, #94 ) ;
#163 = APPROVAL ( #26, 'UNSPECIFIED' ) ;
#164 = DIRECTION ( 'NONE',  ( 1.000000000000000000, 2.315424381500570000E-016, -3.391301625933749800E-017 ) ) ;
#165 = CARTESIAN_POINT ( 'NONE',  ( 9.992007221626412800E-016, 4.884981308350691100E-015, 2.999999999999999600 ) ) ;
#166 = CARTESIAN_POINT ( 'NONE',  ( 2.426003616100316800E-014, -25.40000000000003400, -2.597233554325568200 ) ) ;
#167 = ORGANIZATION ( 'UNSPECIFIED', 'UNSPECIFIED', '' ) ;
#168 = CARTESIAN_POINT ( 'NONE',  ( 9.992007221626412800E-016, 4.884981308350691100E-015, -2.597233554325559800 ) ) ;
#169 = VECTOR ( 'NONE', #79, 1000.000000000000000 ) ;
#170 = AXIS2_PLACEMENT_3D ( 'NONE', #143, #40, #161 ) ;
#171 = CARTESIAN_POINT ( 'NONE',  ( -25.73334730015149700, 8.689603106652821700, -1.747939640653921200 ) ) ;
#172 = DIRECTION ( 'NONE',  ( 1.000000000000000000, 0.0000000000000000000, 0.0000000000000000000 ) ) ;
#173 = PRODUCT_DEFINITION ( 'UNKNOWN', '', #105, #2 ) ;
#174 = CARTESIAN_POINT ( 'NONE',  ( 9.992007221626412800E-016, 4.884981308350691100E-015, -2.597233554325559800 ) ) ;
#175 = CALENDAR_DATE ( 2019, 18, 1 ) ;
#176 = DIRECTION ( 'NONE',  ( 0.0000000000000000000, 0.0000000000000000000, 1.000000000000000000 ) ) ;
#177 = APPLICATION_PROTOCOL_DEFINITION ( 'international standard', 'config_control_design', 1994, #206 ) ;
#178 = MANIFOLD_SOLID_BREP ( 'Imported1', #83 ) ;
#179 = CIRCLE ( 'NONE', #199, 25.39999999999999900 ) ;
#180 = AXIS2_PLACEMENT_3D ( 'NONE', #174, #153, #172 ) ;
#181 = CARTESIAN_POINT ( 'NONE',  ( 1.648542361242229500E-014, 8.689603106652828800, 0.8992785044813913500 ) ) ;
#182 = UNCERTAINTY_MEASURE_WITH_UNIT (LENGTH_MEASURE( 1.000000000000000100E-005 ), #111, 'distance_accuracy_value', 'NONE');
#183 = DIRECTION ( 'NONE',  ( -0.0000000000000000000, -0.0000000000000000000, -1.000000000000000000 ) ) ;
#184 = CC_DESIGN_APPROVAL ( #8, ( #173 ) ) ;
#185 = CARTESIAN_POINT ( 'NONE',  ( 1.242598454873981800E-014, 25.70049218566120100, -2.659718734387597600 ) ) ;
#186 = CARTESIAN_POINT ( 'NONE',  ( 1.249768030298026100E-014, 25.40000000000000900, -2.597233554325554000 ) ) ;
#187 =( BOUNDED_SURFACE ( )  B_SPLINE_SURFACE ( 3, 3, ( 
 ( #27, #194, #68, #190 ),
 ( #171, #85, #86, #223 ),
 ( #127, #54, #193, #152 ),
 ( #109, #225, #191, #73 ) ),
 .UNSPECIFIED., .F., .F., .F. ) 
 B_SPLINE_SURFACE_WITH_KNOTS ( ( 4, 4 ),
 ( 4, 4 ),
 ( 0.0000000000000000000, 1.000000000000000000 ),
 ( 0.0000000000000000000, 1.000000000000000000 ),
 .UNSPECIFIED. ) 
 GEOMETRIC_REPRESENTATION_ITEM ( )  RATIONAL_B_SPLINE_SURFACE ( (
 ( 1.000000000000000000, 0.9965002637055607700, 0.9965002637055607700, 1.000000000000000000),
 ( 0.9858713480245013800, 0.9824210582861723200, 0.9824210582861723200, 0.9858713480245013800),
 ( 0.9858713480245013800, 0.9824210582861723200, 0.9824210582861723200, 0.9858713480245013800),
 ( 1.000000000000000000, 0.9965002637055607700, 0.9965002637055607700, 1.000000000000000000) ) ) 
 REPRESENTATION_ITEM ( '' )  SURFACE ( )  );
#188 = CARTESIAN_POINT ( 'NONE',  ( 8.409684351599931800, -25.70049218566123600, -2.659718734387584300 ) ) ;
#189 = ORIENTED_EDGE ( 'NONE', *, *, #41, .F. ) ;
#190 = CARTESIAN_POINT ( 'NONE',  ( -1.734723475976807100E-014, 25.70049218566120100, -2.659718734387600800 ) ) ;
#191 = CARTESIAN_POINT ( 'NONE',  ( -8.409684351599921100, -25.70049218566124300, -2.659718734387589700 ) ) ;
#192 = LOCAL_TIME ( 9, 4, 5.000000000000000000, #144 ) ;
#193 = CARTESIAN_POINT ( 'NONE',  ( -8.653334423699542200, -8.689603106652864300, 0.8992785044813973400 ) ) ;
#194 = CARTESIAN_POINT ( 'NONE',  ( -16.77522118687473500, 25.70049218566119700, -3.520290841305345100 ) ) ;
#195 = AXIS2_PLACEMENT_3D ( 'NONE', #70, #204, #207 ) ;
#196 = PERSON_AND_ORGANIZATION ( #232, #167 ) ;
#197 = ADVANCED_FACE ( 'NONE', ( #231 ), #33, .T. ) ;
#198 = FACE_OUTER_BOUND ( 'NONE', #103, .T. ) ;
#199 = AXIS2_PLACEMENT_3D ( 'NONE', #165, #183, #234 ) ;
#200 = COORDINATED_UNIVERSAL_TIME_OFFSET ( 2, 0, .AHEAD. ) ;
#201 = CARTESIAN_POINT ( 'NONE',  ( 8.653334423699545800, -8.689603106652862500, 0.8992785044814024500 ) ) ;
#202 = CARTESIAN_POINT ( 'NONE',  ( 25.00877898716979100, -25.70049218566123600, -5.232399728831104800 ) ) ;
#203 = ORIENTED_EDGE ( 'NONE', *, *, #28, .F. ) ;
#204 = DIRECTION ( 'NONE',  ( 0.0000000000000000000, 0.0000000000000000000, 1.000000000000000000 ) ) ;
#205 = PERSON_AND_ORGANIZATION ( #232, #167 ) ;
#206 = APPLICATION_CONTEXT ( 'configuration controlled 3d designs of mechanical parts and assemblies' ) ;
#207 = DIRECTION ( 'NONE',  ( 1.000000000000000000, 0.0000000000000000000, 0.0000000000000000000 ) ) ;
#208 = EDGE_CURVE ( 'NONE', #119, #160, #106, .T. ) ;
#209 = SECURITY_CLASSIFICATION_LEVEL ( 'unclassified' ) ;
#210 = VERTEX_POINT ( 'NONE', #102 ) ;
#211 = PERSON_AND_ORGANIZATION ( #232, #167 ) ;
#212 = ORIENTED_EDGE ( 'NONE', *, *, #74, .F. ) ;
#213 = SHAPE_DEFINITION_REPRESENTATION ( #13, #151 ) ;
#214 = ADVANCED_FACE ( 'NONE', ( #138 ), #147, .T. ) ;
#215 = CARTESIAN_POINT ( 'NONE',  ( 25.39999999999999900, 4.884981308350691100E-015, 2.999999999999999600 ) ) ;
#216 = CARTESIAN_POINT ( 'NONE',  ( -25.39999999999999900, 7.995584178184967200E-015, 2.999999999999999600 ) ) ;
#217 = DATE_AND_TIME ( #29, #220 ) ;
#218 = CC_DESIGN_PERSON_AND_ORGANIZATION_ASSIGNMENT ( #59, #22, ( #89 ) ) ;
#219 = CARTESIAN_POINT ( 'NONE',  ( 25.73334730015147900, 8.689603106652834100, -1.747939640653907200 ) ) ;
#220 = LOCAL_TIME ( 9, 4, 5.000000000000000000, #31 ) ;
#221 = CARTESIAN_POINT ( 'NONE',  ( -25.39999999999999900, 7.995584178184967200E-015, -2.597233554325559800 ) ) ;
#222 = LOCAL_TIME ( 9, 4, 5.000000000000000000, #95 ) ;
#223 = CARTESIAN_POINT ( 'NONE',  ( -1.734723475976806800E-014, 8.689603106652828800, 0.8992785044813875700 ) ) ;
#224 = AXIS2_PLACEMENT_3D ( 'NONE', #154, #176, #108 ) ;
#225 = CARTESIAN_POINT ( 'NONE',  ( -16.77522118687472000, -25.70049218566124300, -3.520290841305330400 ) ) ;
#226 = APPROVAL_ROLE ( '' ) ;
#227 =( GEOMETRIC_REPRESENTATION_CONTEXT ( 3 ) GLOBAL_UNCERTAINTY_ASSIGNED_CONTEXT ( ( #182 ) ) GLOBAL_UNIT_ASSIGNED_CONTEXT ( ( #111, #24, #10 ) ) REPRESENTATION_CONTEXT ( 'NONE', 'WORKASPACE' ) );
#228 = ORIENTED_EDGE ( 'NONE', *, *, #235, .T. ) ;
#229 = PERSON_AND_ORGANIZATION ( #232, #167 ) ;
#230 = VECTOR ( 'NONE', #44, 1000.000000000000000 ) ;
#231 = FACE_OUTER_BOUND ( 'NONE', #42, .T. ) ;
#232 = PERSON ( 'UNSPECIFIED', 'UNSPECIFIED', 'UNSPECIFIED', ('UNSPECIFIED'), ('UNSPECIFIED'), ('UNSPECIFIED') ) ;
#233 = ADVANCED_FACE ( 'NONE', ( #114 ), #187, .F. ) ;
#234 = DIRECTION ( 'NONE',  ( 1.000000000000000000, 0.0000000000000000000, 0.0000000000000000000 ) ) ;
#235 = EDGE_CURVE ( 'NONE', #160, #133, #78, .T. ) ;
ENDSEC;
END-ISO-10303-21;
