ISO-10303-21;
HEADER;
FILE_DESCRIPTION (( 'STEP AP203' ),
    '1' );
FILE_NAME ('112-5120E CaF2 pl-cv 12.7 F-150.STEP',
    '2019-01-17T14:34:56',
    ( '' ),
    ( '' ),
    'SwSTEP 2.0',
    'SolidWorks 2017',
    '' );
FILE_SCHEMA (( 'CONFIG_CONTROL_DESIGN' ));
ENDSEC;

DATA;
#1 = DIRECTION ( 'NONE',  ( 0.0000000000000000000, 0.0000000000000000000, 1.000000000000000000 ) ) ;
#2 = LOCAL_TIME ( 16, 34, 56.00000000000000000, #193 ) ;
#3 = CARTESIAN_POINT ( 'NONE',  ( 6.354374346477859700, -6.425934018414836600, -0.6542778196483981500 ) ) ;
#4 = CARTESIAN_POINT ( 'NONE',  ( 2.137697947372954900, -2.149514094857978700, 0.1103685950367321000 ) ) ;
#5 = CARTESIAN_POINT ( 'NONE',  ( 2.498001805406600200E-016, 1.221245327087670000E-015, 2.700000000000000200 ) ) ;
#6 = CARTESIAN_POINT ( 'NONE',  ( -4.242683932675160600, -6.425934018414836600, -0.4381496838719902700 ) ) ;
#7 = CARTESIAN_POINT ( 'NONE',  ( -7.105427357600998700E-015, 6.425934018414844600, -0.3299449448169525200 ) ) ;
#8 = CARTESIAN_POINT ( 'NONE',  ( -7.105427357600998700E-015, -6.425934018414836600, -0.3299449448169525200 ) ) ;
#9 = DIRECTION ( 'NONE',  ( 1.000000000000000000, 0.0000000000000000000, 0.0000000000000000000 ) ) ;
#10 = VERTEX_POINT ( 'NONE', #184 ) ;
#11 = CARTESIAN_POINT ( 'NONE',  ( -2.122721784601191000, 6.425934018414844600, -0.3299449448169491400 ) ) ;
#12 = COORDINATED_UNIVERSAL_TIME_OFFSET ( 2, 0, .AHEAD. ) ;
#13 = DIRECTION ( 'NONE',  ( 0.0000000000000000000, 0.0000000000000000000, 1.000000000000000000 ) ) ;
#14 = ADVANCED_FACE ( 'NONE', ( #185 ), #53, .F. ) ;
#15 = ADVANCED_FACE ( 'NONE', ( #100 ), #62, .T. ) ;
#16 = APPROVAL_DATE_TIME ( #118, #143 ) ;
#17 = VERTEX_POINT ( 'NONE', #147 ) ;
#18 = CC_DESIGN_APPROVAL ( #22, ( #97 ) ) ;
#19 = CARTESIAN_POINT ( 'NONE',  ( 2.498001805406600200E-016, 1.221245327087670000E-015, -0.3221732195040290500 ) ) ;
#20 = APPROVAL_PERSON_ORGANIZATION ( #46, #143, #45 ) ;
#21 = DIRECTION ( 'NONE',  ( 0.0000000000000000000, 0.0000000000000000000, 1.000000000000000000 ) ) ;
#22 = APPROVAL ( #86, 'UNSPECIFIED' ) ;
#23 = ORIENTED_EDGE ( 'NONE', *, *, #177, .F. ) ;
#24 = APPROVAL_ROLE ( '' ) ;
#25 = CARTESIAN_POINT ( 'NONE',  ( -6.354374346477853500, 6.425934018414844600, -0.6542778196483924900 ) ) ;
#26 = CALENDAR_DATE ( 2019, 17, 1 ) ;
#27 = AXIS2_PLACEMENT_3D ( 'NONE', #230, #211, #155 ) ;
#28 = DIRECTION ( 'NONE',  ( 1.000000000000000000, 0.0000000000000000000, 0.0000000000000000000 ) ) ;
#29 = LOCAL_TIME ( 16, 34, 56.00000000000000000, #88 ) ;
#30 = CARTESIAN_POINT ( 'NONE',  ( 2.498001805406600200E-016, 1.221245327087670000E-015, -0.3221732195040290500 ) ) ;
#31 = DATE_AND_TIME ( #96, #157 ) ;
#32 = CARTESIAN_POINT ( 'NONE',  ( -6.349999999999999600, 1.998896044546239400E-015, -0.3221732195040290500 ) ) ;
#33 = ORIENTED_EDGE ( 'NONE', *, *, #61, .F. ) ;
#34 = CC_DESIGN_PERSON_AND_ORGANIZATION_ASSIGNMENT ( #41, #69, ( #77 ) ) ;
#35 = CIRCLE ( 'NONE', #112, 62.74000000000000200 ) ;
#36 = PLANE ( 'NONE',  #27 ) ;
#37 = CARTESIAN_POINT ( 'NONE',  ( 6.354374346477859700, 6.425934018414844600, -0.6542778196483981500 ) ) ;
#38 = CARTESIAN_POINT ( 'NONE',  ( 6.349999999999999600, 1.221245327087670000E-015, -0.3221732195040290500 ) ) ;
#39 = CARTESIAN_POINT ( 'NONE',  ( -2.137697947372972300, -2.149514094857978700, 0.1103685950367355000 ) ) ;
#40 = DIRECTION ( 'NONE',  ( 1.000000000000000000, 0.0000000000000000000, 0.0000000000000000000 ) ) ;
#41 = PERSON_AND_ORGANIZATION ( #150, #186 ) ;
#42 = AXIS2_PLACEMENT_3D ( 'NONE', #5, #179, #139 ) ;
#43 = CARTESIAN_POINT ( 'NONE',  ( -7.105427357601001100E-015, -2.149514094857978700, 0.1103685950367320900 ) ) ;
#44 = DATE_TIME_ROLE ( 'creation_date' ) ;
#45 = APPROVAL_ROLE ( '' ) ;
#46 = PERSON_AND_ORGANIZATION ( #150, #186 ) ;
#47 = PERSON_AND_ORGANIZATION_ROLE ( 'creator' ) ;
#48 = VECTOR ( 'NONE', #1, 1000.000000000000000 ) ;
#49 = CARTESIAN_POINT ( 'NONE',  ( -6.399205536893871800, 2.149514094857986700, -0.2162525033202544500 ) ) ;
#50 = CIRCLE ( 'NONE', #235, 6.349999999999999600 ) ;
#51 = DIRECTION ( 'NONE',  ( 0.0000000000000000000, 0.0000000000000000000, 1.000000000000000000 ) ) ;
#52 = CARTESIAN_POINT ( 'NONE',  ( -2.168404344971008900E-014, -6.425934018414836600, -0.3299449448169486400 ) ) ;
#53 =( BOUNDED_SURFACE ( )  B_SPLINE_SURFACE ( 3, 3, ( 
 ( #25, #124, #11, #164 ),
 ( #49, #163, #202, #92 ),
 ( #67, #201, #39, #63 ),
 ( #106, #6, #204, #52 ) ),
 .UNSPECIFIED., .F., .F., .T. ) 
 B_SPLINE_SURFACE_WITH_KNOTS ( ( 4, 4 ),
 ( 4, 4 ),
 ( 0.0000000000000000000, 1.000000000000000000 ),
 ( 0.0000000000000000000, 1.000000000000000000 ),
 .UNSPECIFIED. ) 
 GEOMETRIC_REPRESENTATION_ITEM ( )  RATIONAL_B_SPLINE_SURFACE ( (
 ( 1.000000000000000000, 0.9991333024901590800, 0.9991333024901590800, 1.000000000000000000),
 ( 0.9964940501028906100, 0.9956303911910950900, 0.9956303911910950900, 0.9964940501028906100),
 ( 0.9964940501028906100, 0.9956303911910950900, 0.9956303911910950900, 0.9964940501028906100),
 ( 1.000000000000000000, 0.9991333024901590800, 0.9991333024901590800, 1.000000000000000000) ) ) 
 REPRESENTATION_ITEM ( '' )  SURFACE ( )  );
#54 = CIRCLE ( 'NONE', #138, 6.349999999999999600 ) ;
#55 = CIRCLE ( 'NONE', #42, 6.349999999999999600 ) ;
#56 = ORIENTED_EDGE ( 'NONE', *, *, #104, .T. ) ;
#57 = ADVANCED_FACE ( 'NONE', ( #116 ), #115, .T. ) ;
#58 = CIRCLE ( 'NONE', #216, 6.349999999999999600 ) ;
#59 = CARTESIAN_POINT ( 'NONE',  ( 2.122721784601173700, -6.425934018414836600, -0.3299449448169525200 ) ) ;
#60 = APPROVAL_DATE_TIME ( #31, #183 ) ;
#61 = EDGE_CURVE ( 'NONE', #10, #128, #144, .T. ) ;
#62 = CYLINDRICAL_SURFACE ( 'NONE', #190, 6.349999999999999600 ) ;
#63 = CARTESIAN_POINT ( 'NONE',  ( -2.168404344971008900E-014, -2.149514094857978700, 0.1103685950367359900 ) ) ;
#64 = DIRECTION ( 'NONE',  ( -0.0000000000000000000, -0.0000000000000000000, -1.000000000000000000 ) ) ;
#65 =( NAMED_UNIT ( * ) SI_UNIT ( $, .STERADIAN. ) SOLID_ANGLE_UNIT ( ) );
#66 = DIRECTION ( 'NONE',  ( 1.000000000000000000, 0.0000000000000000000, 0.0000000000000000000 ) ) ;
#67 = CARTESIAN_POINT ( 'NONE',  ( -6.399205536893871800, -2.149514094857978700, -0.2162525033202549700 ) ) ;
#68 = LOCAL_TIME ( 16, 34, 56.00000000000000000, #125 ) ;
#69 = PERSON_AND_ORGANIZATION_ROLE ( 'design_supplier' ) ;
#70 = DIRECTION ( 'NONE',  ( 1.000000000000000000, 0.0000000000000000000, 0.0000000000000000000 ) ) ;
#71 = UNCERTAINTY_MEASURE_WITH_UNIT (LENGTH_MEASURE( 1.000000000000000100E-005 ), #231, 'distance_accuracy_value', 'NONE');
#72 = PERSON_AND_ORGANIZATION_ROLE ( 'classification_officer' ) ;
#73 = CC_DESIGN_PERSON_AND_ORGANIZATION_ASSIGNMENT ( #222, #47, ( #77 ) ) ;
#74 = SHAPE_DEFINITION_REPRESENTATION ( #180, #159 ) ;
#75 = CLOSED_SHELL ( 'NONE', ( #14, #15, #172, #57, #132 ) ) ;
#76 = EDGE_CURVE ( 'NONE', #10, #194, #54, .T. ) ;
#77 = PRODUCT_DEFINITION_FORMATION_WITH_SPECIFIED_SOURCE ( 'ANY', '', #78, .NOT_KNOWN. ) ;
#78 = PRODUCT ( '112-5120E CaF2 pl-cv 12.7 F-150', '112-5120E CaF2 pl-cv 12.7 F-150', '', ( #87 ) ) ;
#79 = ORIENTED_EDGE ( 'NONE', *, *, #61, .T. ) ;
#80 = EDGE_CURVE ( 'NONE', #173, #128, #50, .T. ) ;
#81 = CIRCLE ( 'NONE', #206, 6.349999999999999600 ) ;
#82 = ORIENTED_EDGE ( 'NONE', *, *, #218, .F. ) ;
#83 = DIRECTION ( 'NONE',  ( 1.000000000000000000, 0.0000000000000000000, 0.0000000000000000000 ) ) ;
#84 = DATE_AND_TIME ( #232, #134 ) ;
#85 = DIRECTION ( 'NONE',  ( 1.000000000000000000, 0.0000000000000000000, 0.0000000000000000000 ) ) ;
#86 = APPROVAL_STATUS ( 'not_yet_approved' ) ;
#87 = MECHANICAL_CONTEXT ( 'NONE', #199, 'mechanical' ) ;
#88 = COORDINATED_UNIVERSAL_TIME_OFFSET ( 2, 0, .AHEAD. ) ;
#89 = ORIENTED_EDGE ( 'NONE', *, *, #177, .T. ) ;
#90 = EDGE_LOOP ( 'NONE', ( #217, #162, #131 ) ) ;
#91 = CC_DESIGN_PERSON_AND_ORGANIZATION_ASSIGNMENT ( #188, #72, ( #154 ) ) ;
#92 = CARTESIAN_POINT ( 'NONE',  ( -2.168404344971008900E-014, 2.149514094857986700, 0.1103685950367365300 ) ) ;
#93 = DIRECTION ( 'NONE',  ( 1.000000000000000000, 0.0000000000000000000, 0.0000000000000000000 ) ) ;
#94 =( GEOMETRIC_REPRESENTATION_CONTEXT ( 3 ) GLOBAL_UNCERTAINTY_ASSIGNED_CONTEXT ( ( #71 ) ) GLOBAL_UNIT_ASSIGNED_CONTEXT ( ( #231, #109, #65 ) ) REPRESENTATION_CONTEXT ( 'NONE', 'WORKASPACE' ) );
#95 = AXIS2_PLACEMENT_3D ( 'NONE', #187, #51, #70 ) ;
#96 = CALENDAR_DATE ( 2019, 17, 1 ) ;
#97 = PRODUCT_DEFINITION ( 'UNKNOWN', '', #77, #223 ) ;
#98 = PERSON_AND_ORGANIZATION ( #150, #186 ) ;
#99 = EDGE_CURVE ( 'NONE', #17, #135, #195, .T. ) ;
#100 = FACE_OUTER_BOUND ( 'NONE', #137, .T. ) ;
#101 = DIRECTION ( 'NONE',  ( 0.0000000000000000000, 0.0000000000000000000, 1.000000000000000000 ) ) ;
#102 = CC_DESIGN_PERSON_AND_ORGANIZATION_ASSIGNMENT ( #98, #161, ( #97 ) ) ;
#103 = CARTESIAN_POINT ( 'NONE',  ( 4.272616788514247000, 2.149514094857986300, 0.001400453167190303600 ) ) ;
#104 = EDGE_CURVE ( 'NONE', #194, #17, #81, .T. ) ;
#105 = CARTESIAN_POINT ( 'NONE',  ( -7.105427357601001100E-015, 2.149514094857986700, 0.1103685950367326300 ) ) ;
#106 = CARTESIAN_POINT ( 'NONE',  ( -6.354374346477853500, -6.425934018414836600, -0.6542778196483924900 ) ) ;
#107 = DIRECTION ( 'NONE',  ( 0.0000000000000000000, 0.0000000000000000000, 1.000000000000000000 ) ) ;
#108 = CARTESIAN_POINT ( 'NONE',  ( 4.242683932675155300, 6.425934018414844600, -0.4381496838719940400 ) ) ;
#109 =( NAMED_UNIT ( * ) PLANE_ANGLE_UNIT ( ) SI_UNIT ( $, .RADIAN. ) );
#110 = COORDINATED_UNIVERSAL_TIME_OFFSET ( 2, 0, .AHEAD. ) ;
#111 = ORIENTED_EDGE ( 'NONE', *, *, #99, .T. ) ;
#112 = AXIS2_PLACEMENT_3D ( 'NONE', #158, #40, #178 ) ;
#113 = CALENDAR_DATE ( 2019, 17, 1 ) ;
#114 = MANIFOLD_SOLID_BREP ( 'Imported1', #75 ) ;
#115 = CYLINDRICAL_SURFACE ( 'NONE', #95, 6.349999999999999600 ) ;
#116 = FACE_OUTER_BOUND ( 'NONE', #191, .T. ) ;
#117 = CARTESIAN_POINT ( 'NONE',  ( 2.122721784601173700, 6.425934018414844600, -0.3299449448169525200 ) ) ;
#118 = DATE_AND_TIME ( #26, #29 ) ;
#119 = CARTESIAN_POINT ( 'NONE',  ( 6.399205536893878100, 2.149514094857986700, -0.2162525033202601900 ) ) ;
#120 = CARTESIAN_POINT ( 'NONE',  ( 6.399205536893878100, -2.149514094857978700, -0.2162525033202607200 ) ) ;
#121 = CC_DESIGN_SECURITY_CLASSIFICATION ( #154, ( #77 ) ) ;
#122 = CARTESIAN_POINT ( 'NONE',  ( 2.137697947372954900, 2.149514094857986300, 0.1103685950367326400 ) ) ;
#123 = PERSON_AND_ORGANIZATION_ROLE ( 'design_owner' ) ;
#124 = CARTESIAN_POINT ( 'NONE',  ( -4.242683932675160600, 6.425934018414844600, -0.4381496838719902700 ) ) ;
#125 = COORDINATED_UNIVERSAL_TIME_OFFSET ( 2, 0, .AHEAD. ) ;
#126 = CC_DESIGN_PERSON_AND_ORGANIZATION_ASSIGNMENT ( #203, #123, ( #78 ) ) ;
#127 = DIRECTION ( 'NONE',  ( 0.0000000000000000000, 0.0000000000000000000, 1.000000000000000000 ) ) ;
#128 = VERTEX_POINT ( 'NONE', #142 ) ;
#129 = DATE_TIME_ROLE ( 'classification_date' ) ;
#130 = VECTOR ( 'NONE', #101, 1000.000000000000000 ) ;
#131 = ORIENTED_EDGE ( 'NONE', *, *, #104, .F. ) ;
#132 = ADVANCED_FACE ( 'NONE', ( #140 ), #36, .T. ) ;
#133 = SECURITY_CLASSIFICATION_LEVEL ( 'unclassified' ) ;
#134 = LOCAL_TIME ( 16, 34, 56.00000000000000000, #12 ) ;
#135 = VERTEX_POINT ( 'NONE', #209 ) ;
#136 = DATE_AND_TIME ( #224, #68 ) ;
#137 = EDGE_LOOP ( 'NONE', ( #111, #220, #79, #89, #153 ) ) ;
#138 = AXIS2_PLACEMENT_3D ( 'NONE', #30, #13, #93 ) ;
#139 = DIRECTION ( 'NONE',  ( 1.000000000000000000, 0.0000000000000000000, 0.0000000000000000000 ) ) ;
#140 = FACE_OUTER_BOUND ( 'NONE', #152, .T. ) ;
#141 =( BOUNDED_SURFACE ( )  B_SPLINE_SURFACE ( 3, 3, ( 
 ( #7, #117, #108, #37 ),
 ( #105, #122, #103, #119 ),
 ( #43, #4, #228, #120 ),
 ( #8, #59, #229, #3 ) ),
 .UNSPECIFIED., .F., .F., .F. ) 
 B_SPLINE_SURFACE_WITH_KNOTS ( ( 4, 4 ),
 ( 4, 4 ),
 ( 0.0000000000000000000, 1.000000000000000000 ),
 ( 0.0000000000000000000, 1.000000000000000000 ),
 .UNSPECIFIED. ) 
 GEOMETRIC_REPRESENTATION_ITEM ( )  RATIONAL_B_SPLINE_SURFACE ( (
 ( 1.000000000000000000, 0.9991333024901590800, 0.9991333024901590800, 1.000000000000000000),
 ( 0.9964940501028906100, 0.9956303911910950900, 0.9956303911910950900, 0.9964940501028906100),
 ( 0.9964940501028906100, 0.9956303911910950900, 0.9956303911910950900, 0.9964940501028906100),
 ( 1.000000000000000000, 0.9991333024901590800, 0.9991333024901590800, 1.000000000000000000) ) ) 
 REPRESENTATION_ITEM ( '' )  SURFACE ( )  );
#142 = CARTESIAN_POINT ( 'NONE',  ( -6.349999999999999600, 1.998896044546239400E-015, 2.700000000000000200 ) ) ;
#143 = APPROVAL ( #182, 'UNSPECIFIED' ) ;
#144 = LINE ( 'NONE', #32, #48 ) ;
#145 = APPROVAL_DATE_TIME ( #136, #22 ) ;
#146 = ORIENTED_EDGE ( 'NONE', *, *, #76, .T. ) ;
#147 = CARTESIAN_POINT ( 'NONE',  ( 6.349999999999999600, 1.221245327087670000E-015, -0.3221732195040290500 ) ) ;
#148 = APPROVAL_PERSON_ORGANIZATION ( #200, #183, #189 ) ;
#149 = AXIS2_PLACEMENT_3D ( 'NONE', #176, #21, #9 ) ;
#150 = PERSON ( 'UNSPECIFIED', 'UNSPECIFIED', 'UNSPECIFIED', ('UNSPECIFIED'), ('UNSPECIFIED'), ('UNSPECIFIED') ) ;
#151 = DATE_AND_TIME ( #113, #2 ) ;
#152 = EDGE_LOOP ( 'NONE', ( #170, #23 ) ) ;
#153 = ORIENTED_EDGE ( 'NONE', *, *, #167, .F. ) ;
#154 = SECURITY_CLASSIFICATION ( '', '', #133 ) ;
#155 = DIRECTION ( 'NONE',  ( 1.000000000000000000, 0.0000000000000000000, -0.0000000000000000000 ) ) ;
#156 = DIRECTION ( 'NONE',  ( 1.000000000000000000, 0.0000000000000000000, 0.0000000000000000000 ) ) ;
#157 = LOCAL_TIME ( 16, 34, 56.00000000000000000, #110 ) ;
#158 = CARTESIAN_POINT ( 'NONE',  ( -7.105427357601000300E-015, 0.0000000000000000000, -62.74000000000000200 ) ) ;
#159 = ADVANCED_BREP_SHAPE_REPRESENTATION ( '112-5120E CaF2 pl-cv 12.7 F-150', ( #114, #149 ), #94 ) ;
#160 = APPLICATION_PROTOCOL_DEFINITION ( 'international standard', 'config_control_design', 1994, #199 ) ;
#161 = PERSON_AND_ORGANIZATION_ROLE ( 'creator' ) ;
#162 = ORIENTED_EDGE ( 'NONE', *, *, #99, .F. ) ;
#163 = CARTESIAN_POINT ( 'NONE',  ( -4.272616788514251400, 2.149514094857986300, 0.001400453167194179800 ) ) ;
#164 = CARTESIAN_POINT ( 'NONE',  ( -2.168404344971008900E-014, 6.425934018414844600, -0.3299449448169486400 ) ) ;
#165 = CC_DESIGN_DATE_AND_TIME_ASSIGNMENT ( #84, #44, ( #97 ) ) ;
#166 = APPROVAL_PERSON_ORGANIZATION ( #234, #22, #24 ) ;
#167 = EDGE_CURVE ( 'NONE', #17, #173, #214, .T. ) ;
#168 = CARTESIAN_POINT ( 'NONE',  ( 2.498001805406600200E-016, 1.221245327087670000E-015, -0.3221732195040290500 ) ) ;
#169 = ORIENTED_EDGE ( 'NONE', *, *, #167, .T. ) ;
#170 = ORIENTED_EDGE ( 'NONE', *, *, #80, .F. ) ;
#171 = ORIENTED_EDGE ( 'NONE', *, *, #210, .T. ) ;
#172 = ADVANCED_FACE ( 'NONE', ( #219 ), #141, .F. ) ;
#173 = VERTEX_POINT ( 'NONE', #174 ) ;
#174 = CARTESIAN_POINT ( 'NONE',  ( 6.349999999999999600, 1.221245327087670000E-015, 2.700000000000000200 ) ) ;
#175 = CC_DESIGN_DATE_AND_TIME_ASSIGNMENT ( #151, #129, ( #154 ) ) ;
#176 = CARTESIAN_POINT ( 'NONE',  ( 0.0000000000000000000, 0.0000000000000000000, 0.0000000000000000000 ) ) ;
#177 = EDGE_CURVE ( 'NONE', #128, #173, #55, .T. ) ;
#178 = DIRECTION ( 'NONE',  ( 0.0000000000000000000, 1.000000000000000000, 2.211952152982858800E-016 ) ) ;
#179 = DIRECTION ( 'NONE',  ( -0.0000000000000000000, -0.0000000000000000000, -1.000000000000000000 ) ) ;
#180 = PRODUCT_DEFINITION_SHAPE ( 'NONE', 'NONE',  #97 ) ;
#181 = APPLICATION_CONTEXT ( 'configuration controlled 3d designs of mechanical parts and assemblies' ) ;
#182 = APPROVAL_STATUS ( 'not_yet_approved' ) ;
#183 = APPROVAL ( #205, 'UNSPECIFIED' ) ;
#184 = CARTESIAN_POINT ( 'NONE',  ( -6.349999999999999600, 1.998896044546239400E-015, -0.3221732195040290500 ) ) ;
#185 = FACE_OUTER_BOUND ( 'NONE', #215, .T. ) ;
#186 = ORGANIZATION ( 'UNSPECIFIED', 'UNSPECIFIED', '' ) ;
#187 = CARTESIAN_POINT ( 'NONE',  ( 2.498001805406600200E-016, 1.221245327087670000E-015, -0.3221732195040290500 ) ) ;
#188 = PERSON_AND_ORGANIZATION ( #150, #186 ) ;
#189 = APPROVAL_ROLE ( '' ) ;
#190 = AXIS2_PLACEMENT_3D ( 'NONE', #168, #127, #28 ) ;
#191 = EDGE_LOOP ( 'NONE', ( #33, #146, #56, #169, #225 ) ) ;
#192 = PRODUCT_RELATED_PRODUCT_CATEGORY ( 'detail', '', ( #78 ) ) ;
#193 = COORDINATED_UNIVERSAL_TIME_OFFSET ( 2, 0, .AHEAD. ) ;
#194 = VERTEX_POINT ( 'NONE', #207 ) ;
#195 = CIRCLE ( 'NONE', #221, 6.349999999999999600 ) ;
#196 = CC_DESIGN_APPROVAL ( #183, ( #154 ) ) ;
#197 = CARTESIAN_POINT ( 'NONE',  ( 2.498001805406600200E-016, 1.221245327087670000E-015, 2.700000000000000200 ) ) ;
#198 = APPLICATION_PROTOCOL_DEFINITION ( 'international standard', 'config_control_design', 1994, #181 ) ;
#199 = APPLICATION_CONTEXT ( 'configuration controlled 3d designs of mechanical parts and assemblies' ) ;
#200 = PERSON_AND_ORGANIZATION ( #150, #186 ) ;
#201 = CARTESIAN_POINT ( 'NONE',  ( -4.272616788514251400, -2.149514094857978700, 0.001400453167193637300 ) ) ;
#202 = CARTESIAN_POINT ( 'NONE',  ( -2.137697947372972300, 2.149514094857986300, 0.1103685950367360400 ) ) ;
#203 = PERSON_AND_ORGANIZATION ( #150, #186 ) ;
#204 = CARTESIAN_POINT ( 'NONE',  ( -2.122721784601191000, -6.425934018414836600, -0.3299449448169491400 ) ) ;
#205 = APPROVAL_STATUS ( 'not_yet_approved' ) ;
#206 = AXIS2_PLACEMENT_3D ( 'NONE', #19, #107, #156 ) ;
#207 = CARTESIAN_POINT ( 'NONE',  ( -7.105427357600998700E-015, -6.349999999999980100, -0.3221732195040250500 ) ) ;
#208 = CC_DESIGN_APPROVAL ( #143, ( #77 ) ) ;
#209 = CARTESIAN_POINT ( 'NONE',  ( -7.105427357600998700E-015, 6.349999999999981000, -0.3221732195040250500 ) ) ;
#210 = EDGE_CURVE ( 'NONE', #135, #194, #35, .T. ) ;
#211 = DIRECTION ( 'NONE',  ( 0.0000000000000000000, 0.0000000000000000000, 1.000000000000000000 ) ) ;
#212 = CARTESIAN_POINT ( 'NONE',  ( 2.498001805406600200E-016, 1.221245327087670000E-015, -0.3221732195040290500 ) ) ;
#213 = DIRECTION ( 'NONE',  ( 0.0000000000000000000, 0.0000000000000000000, 1.000000000000000000 ) ) ;
#214 = LINE ( 'NONE', #38, #130 ) ;
#215 = EDGE_LOOP ( 'NONE', ( #82, #171, #233 ) ) ;
#216 = AXIS2_PLACEMENT_3D ( 'NONE', #226, #213, #66 ) ;
#217 = ORIENTED_EDGE ( 'NONE', *, *, #210, .F. ) ;
#218 = EDGE_CURVE ( 'NONE', #135, #10, #58, .T. ) ;
#219 = FACE_OUTER_BOUND ( 'NONE', #90, .T. ) ;
#220 = ORIENTED_EDGE ( 'NONE', *, *, #218, .T. ) ;
#221 = AXIS2_PLACEMENT_3D ( 'NONE', #212, #227, #85 ) ;
#222 = PERSON_AND_ORGANIZATION ( #150, #186 ) ;
#223 = DESIGN_CONTEXT ( 'detailed design', #181, 'design' ) ;
#224 = CALENDAR_DATE ( 2019, 17, 1 ) ;
#225 = ORIENTED_EDGE ( 'NONE', *, *, #80, .T. ) ;
#226 = CARTESIAN_POINT ( 'NONE',  ( 2.498001805406600200E-016, 1.221245327087670000E-015, -0.3221732195040290500 ) ) ;
#227 = DIRECTION ( 'NONE',  ( 0.0000000000000000000, 0.0000000000000000000, 1.000000000000000000 ) ) ;
#228 = CARTESIAN_POINT ( 'NONE',  ( 4.272616788514247000, -2.149514094857978700, 0.001400453167189761200 ) ) ;
#229 = CARTESIAN_POINT ( 'NONE',  ( 4.242683932675155300, -6.425934018414836600, -0.4381496838719940400 ) ) ;
#230 = CARTESIAN_POINT ( 'NONE',  ( 0.0000000000000000000, 13.15799999999999900, 2.700000000000000200 ) ) ;
#231 =( LENGTH_UNIT ( ) NAMED_UNIT ( * ) SI_UNIT ( .MILLI., .METRE. ) );
#232 = CALENDAR_DATE ( 2019, 17, 1 ) ;
#233 = ORIENTED_EDGE ( 'NONE', *, *, #76, .F. ) ;
#234 = PERSON_AND_ORGANIZATION ( #150, #186 ) ;
#235 = AXIS2_PLACEMENT_3D ( 'NONE', #197, #64, #83 ) ;
ENDSEC;
END-ISO-10303-21;
