ISO-10303-21;
HEADER;
FILE_DESCRIPTION (( 'STEP AP203' ),
    '1' );
FILE_NAME ('112-5115E CaF2 pl-cv 12.7 F-100.STEP',
    '2019-01-17T14:20:41',
    ( '' ),
    ( '' ),
    'SwSTEP 2.0',
    'SolidWorks 2017',
    '' );
FILE_SCHEMA (( 'CONFIG_CONTROL_DESIGN' ));
ENDSEC;

DATA;
#1 = AXIS2_PLACEMENT_3D ( 'NONE', #133, #209, #9 ) ;
#2 = VERTEX_POINT ( 'NONE', #87 ) ;
#3 = CIRCLE ( 'NONE', #15, 41.82999999999999800 ) ;
#4 = LOCAL_TIME ( 16, 20, 41.00000000000000000, #76 ) ;
#5 = ADVANCED_BREP_SHAPE_REPRESENTATION ( '112-5115E CaF2 pl-cv 12.7 F-100', ( #21, #164 ), #51 ) ;
#6 = AXIS2_PLACEMENT_3D ( 'NONE', #166, #151, #66 ) ;
#7 = EDGE_LOOP ( 'NONE', ( #231, #223, #46 ) ) ;
#8 = APPROVAL_STATUS ( 'not_yet_approved' ) ;
#9 = DIRECTION ( 'NONE',  ( 1.000000000000000000, 0.0000000000000000000, 0.0000000000000000000 ) ) ;
#10 = DIRECTION ( 'NONE',  ( 0.0000000000000000000, 0.0000000000000000000, 1.000000000000000000 ) ) ;
#11 = APPROVAL_DATE_TIME ( #216, #150 ) ;
#12 = CARTESIAN_POINT ( 'NONE',  ( 6.349999999999999600, 1.221245327087670000E-015, -0.4847898783909910200 ) ) ;
#13 = CARTESIAN_POINT ( 'NONE',  ( -2.148260024735862700, -2.158948917834482700, 0.1668103704252292300 ) ) ;
#14 = CARTESIAN_POINT ( 'NONE',  ( 7.105427357601000300E-015, 6.425598535861983200, -0.4964714371501061100 ) ) ;
#15 = AXIS2_PLACEMENT_3D ( 'NONE', #98, #190, #230 ) ;
#16 = CARTESIAN_POINT ( 'NONE',  ( -3.469446951953614200E-015, 6.425598535861983200, -0.4964714371501080500 ) ) ;
#17 = PERSON_AND_ORGANIZATION ( #163, #176 ) ;
#18 = SECURITY_CLASSIFICATION_LEVEL ( 'unclassified' ) ;
#19 = LOCAL_TIME ( 16, 20, 41.00000000000000000, #72 ) ;
#20 = CLOSED_SHELL ( 'NONE', ( #79, #113, #102, #122, #52 ) ) ;
#21 = MANIFOLD_SOLID_BREP ( 'Imported1', #20 ) ;
#22 = CYLINDRICAL_SURFACE ( 'NONE', #105, 6.349999999999999600 ) ;
#23 = LOCAL_TIME ( 16, 20, 41.00000000000000000, #161 ) ;
#24 = CIRCLE ( 'NONE', #160, 6.349999999999999600 ) ;
#25 = CC_DESIGN_SECURITY_CLASSIFICATION ( #206, ( #123 ) ) ;
#26 = EDGE_CURVE ( 'NONE', #58, #127, #24, .T. ) ;
#27 = PRODUCT ( '112-5115E CaF2 pl-cv 12.7 F-100', '112-5115E CaF2 pl-cv 12.7 F-100', '', ( #148 ) ) ;
#28 = CARTESIAN_POINT ( 'NONE',  ( 0.0000000000000000000, 0.0000000000000000000, 0.0000000000000000000 ) ) ;
#29 = DIRECTION ( 'NONE',  ( 0.0000000000000000000, 0.0000000000000000000, 1.000000000000000000 ) ) ;
#30 = LINE ( 'NONE', #69, #162 ) ;
#31 = EDGE_CURVE ( 'NONE', #2, #185, #157, .T. ) ;
#32 = EDGE_LOOP ( 'NONE', ( #78, #175, #221, #38, #86 ) ) ;
#33 = CIRCLE ( 'NONE', #117, 6.349999999999999600 ) ;
#34 = EDGE_CURVE ( 'NONE', #146, #58, #219, .T. ) ;
#35 = CARTESIAN_POINT ( 'NONE',  ( 2.148260024735862300, -2.158948917834482300, 0.1668103704252319200 ) ) ;
#36 = DATE_AND_TIME ( #211, #65 ) ;
#37 = CARTESIAN_POINT ( 'NONE',  ( 2.114331214910056400, -6.425598535861992900, -0.4964714371500991700 ) ) ;
#38 = ORIENTED_EDGE ( 'NONE', *, *, #31, .T. ) ;
#39 = CARTESIAN_POINT ( 'NONE',  ( -4.222453701283449800, -6.425598535861993800, -0.6583852067618171100 ) ) ;
#40 = FACE_OUTER_BOUND ( 'NONE', #7, .T. ) ;
#41 = PERSON_AND_ORGANIZATION ( #163, #176 ) ;
#42 = APPROVAL ( #43, 'UNSPECIFIED' ) ;
#43 = APPROVAL_STATUS ( 'not_yet_approved' ) ;
#44 = ORIENTED_EDGE ( 'NONE', *, *, #56, .T. ) ;
#45 = CARTESIAN_POINT ( 'NONE',  ( -6.349999999999999600, 1.998896044546239400E-015, -0.4847898783909910200 ) ) ;
#46 = ORIENTED_EDGE ( 'NONE', *, *, #26, .F. ) ;
#47 = CARTESIAN_POINT ( 'NONE',  ( 6.349999999999999600, 1.221245327087670000E-015, 2.499999999999999600 ) ) ;
#48 = PLANE ( 'NONE',  #68 ) ;
#49 = PRODUCT_DEFINITION_SHAPE ( 'NONE', 'NONE',  #214 ) ;
#50 = VERTEX_POINT ( 'NONE', #12 ) ;
#51 =( GEOMETRIC_REPRESENTATION_CONTEXT ( 3 ) GLOBAL_UNCERTAINTY_ASSIGNED_CONTEXT ( ( #215 ) ) GLOBAL_UNIT_ASSIGNED_CONTEXT ( ( #119, #61, #188 ) ) REPRESENTATION_CONTEXT ( 'NONE', 'WORKASPACE' ) );
#52 = ADVANCED_FACE ( 'NONE', ( #120 ), #48, .T. ) ;
#53 = CIRCLE ( 'NONE', #178, 6.349999999999999600 ) ;
#54 = ORIENTED_EDGE ( 'NONE', *, *, #173, .F. ) ;
#55 = CARTESIAN_POINT ( 'NONE',  ( 6.311986465879752700, 6.425598535861983200, -0.9812618271937425500 ) ) ;
#56 = EDGE_CURVE ( 'NONE', #50, #185, #30, .T. ) ;
#57 = CARTESIAN_POINT ( 'NONE',  ( -2.114331214910056800, 6.425598535861984000, -0.4964714371501086100 ) ) ;
#58 = VERTEX_POINT ( 'NONE', #136 ) ;
#59 = DIRECTION ( 'NONE',  ( 1.000000000000000000, 0.0000000000000000000, 0.0000000000000000000 ) ) ;
#60 = ORIENTED_EDGE ( 'NONE', *, *, #26, .T. ) ;
#61 =( NAMED_UNIT ( * ) PLANE_ANGLE_UNIT ( ) SI_UNIT ( $, .RADIAN. ) );
#62 =( BOUNDED_SURFACE ( )  B_SPLINE_SURFACE ( 3, 3, ( 
 ( #14, #177, #90, #55 ),
 ( #218, #143, #107, #142 ),
 ( #180, #35, #153, #106 ),
 ( #141, #37, #103, #132 ) ),
 .UNSPECIFIED., .F., .F., .F. ) 
 B_SPLINE_SURFACE_WITH_KNOTS ( ( 4, 4 ),
 ( 4, 4 ),
 ( 0.0000000000000000000, 1.000000000000000000 ),
 ( 0.0000000000000000000, 1.000000000000000000 ),
 .UNSPECIFIED. ) 
 GEOMETRIC_REPRESENTATION_ITEM ( )  RATIONAL_B_SPLINE_SURFACE ( (
 ( 1.000000000000000000, 0.9980423349338160000, 0.9980423349338160000, 1.000000000000000000),
 ( 0.9920874741070984100, 0.9901452991164402300, 0.9901452991164402300, 0.9920874741070984100),
 ( 0.9920874741070984100, 0.9901452991164402300, 0.9901452991164402300, 0.9920874741070984100),
 ( 1.000000000000000000, 0.9980423349338160000, 0.9980423349338160000, 1.000000000000000000) ) ) 
 REPRESENTATION_ITEM ( '' )  SURFACE ( )  );
#63 = DIRECTION ( 'NONE',  ( 1.000000000000000000, 0.0000000000000000000, 0.0000000000000000000 ) ) ;
#64 = PERSON_AND_ORGANIZATION_ROLE ( 'creator' ) ;
#65 = LOCAL_TIME ( 16, 20, 41.00000000000000000, #138 ) ;
#66 = DIRECTION ( 'NONE',  ( 1.000000000000000000, 0.0000000000000000000, 0.0000000000000000000 ) ) ;
#67 = DATE_AND_TIME ( #134, #23 ) ;
#68 = AXIS2_PLACEMENT_3D ( 'NONE', #192, #73, #70 ) ;
#69 = CARTESIAN_POINT ( 'NONE',  ( 6.349999999999999600, 1.221245327087670000E-015, -0.4847898783909910200 ) ) ;
#70 = DIRECTION ( 'NONE',  ( 1.000000000000000000, 0.0000000000000000000, -0.0000000000000000000 ) ) ;
#71 = PERSON_AND_ORGANIZATION ( #163, #176 ) ;
#72 = COORDINATED_UNIVERSAL_TIME_OFFSET ( 2, 0, .AHEAD. ) ;
#73 = DIRECTION ( 'NONE',  ( 0.0000000000000000000, 0.0000000000000000000, 1.000000000000000000 ) ) ;
#74 = CC_DESIGN_PERSON_AND_ORGANIZATION_ASSIGNMENT ( #104, #170, ( #214 ) ) ;
#75 = FACE_OUTER_BOUND ( 'NONE', #183, .T. ) ;
#76 = COORDINATED_UNIVERSAL_TIME_OFFSET ( 2, 0, .AHEAD. ) ;
#77 = AXIS2_PLACEMENT_3D ( 'NONE', #196, #193, #172 ) ;
#78 = ORIENTED_EDGE ( 'NONE', *, *, #167, .T. ) ;
#79 = ADVANCED_FACE ( 'NONE', ( #40 ), #168, .F. ) ;
#80 = APPLICATION_PROTOCOL_DEFINITION ( 'international standard', 'config_control_design', 1994, #101 ) ;
#81 = FACE_OUTER_BOUND ( 'NONE', #83, .T. ) ;
#82 = CARTESIAN_POINT ( 'NONE',  ( 7.105427357601000300E-015, -6.349999999999999600, -0.4847898783909911400 ) ) ;
#83 = EDGE_LOOP ( 'NONE', ( #131, #60, #212, #44, #99 ) ) ;
#84 = DIRECTION ( 'NONE',  ( 1.000000000000000000, 0.0000000000000000000, 0.0000000000000000000 ) ) ;
#85 = DIRECTION ( 'NONE',  ( -0.0000000000000000000, -0.0000000000000000000, -1.000000000000000000 ) ) ;
#86 = ORIENTED_EDGE ( 'NONE', *, *, #56, .F. ) ;
#87 = CARTESIAN_POINT ( 'NONE',  ( -6.349999999999999600, 1.998896044546239400E-015, 2.499999999999999600 ) ) ;
#88 = DIRECTION ( 'NONE',  ( 1.000000000000000000, 0.0000000000000000000, 0.0000000000000000000 ) ) ;
#89 = PERSON_AND_ORGANIZATION ( #163, #176 ) ;
#90 = CARTESIAN_POINT ( 'NONE',  ( 4.222453701283448900, 6.425598535861984000, -0.6583852067618197700 ) ) ;
#91 = CC_DESIGN_PERSON_AND_ORGANIZATION_ASSIGNMENT ( #118, #228, ( #123 ) ) ;
#92 = CARTESIAN_POINT ( 'NONE',  ( -4.222453701283450700, 6.425598535861983200, -0.6583852067618238800 ) ) ;
#93 = PRODUCT_RELATED_PRODUCT_CATEGORY ( 'detail', '', ( #27 ) ) ;
#94 = CIRCLE ( 'NONE', #6, 6.349999999999999600 ) ;
#95 = COORDINATED_UNIVERSAL_TIME_OFFSET ( 2, 0, .AHEAD. ) ;
#96 = CC_DESIGN_DATE_AND_TIME_ASSIGNMENT ( #67, #116, ( #214 ) ) ;
#97 = CYLINDRICAL_SURFACE ( 'NONE', #1, 6.349999999999999600 ) ;
#98 = CARTESIAN_POINT ( 'NONE',  ( 7.105427357601000300E-015, -7.105427357601000300E-015, -41.82999999999999800 ) ) ;
#99 = ORIENTED_EDGE ( 'NONE', *, *, #184, .T. ) ;
#100 = CARTESIAN_POINT ( 'NONE',  ( 2.498001805406600200E-016, 1.221245327087670000E-015, 2.499999999999999600 ) ) ;
#101 = APPLICATION_CONTEXT ( 'configuration controlled 3d designs of mechanical parts and assemblies' ) ;
#102 = ADVANCED_FACE ( 'NONE', ( #75 ), #62, .F. ) ;
#103 = CARTESIAN_POINT ( 'NONE',  ( 4.222453701283448000, -6.425598535861992900, -0.6583852067618131100 ) ) ;
#104 = PERSON_AND_ORGANIZATION ( #163, #176 ) ;
#105 = AXIS2_PLACEMENT_3D ( 'NONE', #171, #213, #210 ) ;
#106 = CARTESIAN_POINT ( 'NONE',  ( 6.413275321151658700, -2.158948917834483200, -0.3257594823786274000 ) ) ;
#107 = CARTESIAN_POINT ( 'NONE',  ( 4.290211689066463700, 2.158948917834475200, 0.002298360074976478700 ) ) ;
#108 = CARTESIAN_POINT ( 'NONE',  ( -6.413275321151664000, -2.158948917834483600, -0.3257594823786329500 ) ) ;
#109 = VECTOR ( 'NONE', #29, 1000.000000000000000 ) ;
#110 = ORIENTED_EDGE ( 'NONE', *, *, #167, .F. ) ;
#111 = APPROVAL_DATE_TIME ( #169, #189 ) ;
#112 = CALENDAR_DATE ( 2019, 17, 1 ) ;
#113 = ADVANCED_FACE ( 'NONE', ( #159 ), #97, .T. ) ;
#114 = DIRECTION ( 'NONE',  ( 0.0000000000000000000, 0.0000000000000000000, 1.000000000000000000 ) ) ;
#115 = APPROVAL_STATUS ( 'not_yet_approved' ) ;
#116 = DATE_TIME_ROLE ( 'creation_date' ) ;
#117 = AXIS2_PLACEMENT_3D ( 'NONE', #100, #85, #59 ) ;
#118 = PERSON_AND_ORGANIZATION ( #163, #176 ) ;
#119 =( LENGTH_UNIT ( ) NAMED_UNIT ( * ) SI_UNIT ( .MILLI., .METRE. ) );
#120 = FACE_OUTER_BOUND ( 'NONE', #128, .T. ) ;
#121 = DESIGN_CONTEXT ( 'detailed design', #226, 'design' ) ;
#122 = ADVANCED_FACE ( 'NONE', ( #81 ), #22, .T. ) ;
#123 = PRODUCT_DEFINITION_FORMATION_WITH_SPECIFIED_SOURCE ( 'ANY', '', #27, .NOT_KNOWN. ) ;
#124 = CARTESIAN_POINT ( 'NONE',  ( -6.311986465879757100, -6.425598535861992900, -0.9812618271937412200 ) ) ;
#125 = DIRECTION ( 'NONE',  ( 0.0000000000000000000, 0.0000000000000000000, 1.000000000000000000 ) ) ;
#126 = EDGE_CURVE ( 'NONE', #146, #127, #3, .T. ) ;
#127 = VERTEX_POINT ( 'NONE', #82 ) ;
#128 = EDGE_LOOP ( 'NONE', ( #140, #197 ) ) ;
#129 = DATE_TIME_ROLE ( 'classification_date' ) ;
#130 = PERSON_AND_ORGANIZATION_ROLE ( 'classification_officer' ) ;
#131 = ORIENTED_EDGE ( 'NONE', *, *, #201, .F. ) ;
#132 = CARTESIAN_POINT ( 'NONE',  ( 6.311986465879751800, -6.425598535861992000, -0.9812618271937357800 ) ) ;
#133 = CARTESIAN_POINT ( 'NONE',  ( 2.498001805406600200E-016, 1.221245327087670000E-015, -0.4847898783909910200 ) ) ;
#134 = CALENDAR_DATE ( 2019, 17, 1 ) ;
#135 = APPROVAL_ROLE ( '' ) ;
#136 = CARTESIAN_POINT ( 'NONE',  ( -6.349999999999999600, 1.998896044546239400E-015, -0.4847898783909910200 ) ) ;
#137 = DIRECTION ( 'NONE',  ( -0.0000000000000000000, -0.0000000000000000000, -1.000000000000000000 ) ) ;
#138 = COORDINATED_UNIVERSAL_TIME_OFFSET ( 2, 0, .AHEAD. ) ;
#139 = CARTESIAN_POINT ( 'NONE',  ( -3.469446951953613800E-015, -2.158948917834483200, 0.1668103704252297300 ) ) ;
#140 = ORIENTED_EDGE ( 'NONE', *, *, #184, .F. ) ;
#141 = CARTESIAN_POINT ( 'NONE',  ( 7.105427357601000300E-015, -6.425598535861992000, -0.4964714371500991700 ) ) ;
#142 = CARTESIAN_POINT ( 'NONE',  ( 6.413275321151658700, 2.158948917834474300, -0.3257594823786337800 ) ) ;
#143 = CARTESIAN_POINT ( 'NONE',  ( 2.148260024735862300, 2.158948917834475200, 0.1668103704252255100 ) ) ;
#144 = LOCAL_TIME ( 16, 20, 41.00000000000000000, #95 ) ;
#145 = PERSON_AND_ORGANIZATION ( #163, #176 ) ;
#146 = VERTEX_POINT ( 'NONE', #208 ) ;
#147 = CARTESIAN_POINT ( 'NONE',  ( 2.498001805406600200E-016, 1.221245327087670000E-015, -0.4847898783909910200 ) ) ;
#148 = MECHANICAL_CONTEXT ( 'NONE', #101, 'mechanical' ) ;
#149 = DIRECTION ( 'NONE',  ( 0.0000000000000000000, 0.0000000000000000000, 1.000000000000000000 ) ) ;
#150 = APPROVAL ( #115, 'UNSPECIFIED' ) ;
#151 = DIRECTION ( 'NONE',  ( 0.0000000000000000000, 0.0000000000000000000, 1.000000000000000000 ) ) ;
#152 = CARTESIAN_POINT ( 'NONE',  ( 2.498001805406600200E-016, 1.221245327087670000E-015, -0.4847898783909910200 ) ) ;
#153 = CARTESIAN_POINT ( 'NONE',  ( 4.290211689066462800, -2.158948917834482300, 0.002298360074982875100 ) ) ;
#154 = CARTESIAN_POINT ( 'NONE',  ( -3.469446951953614200E-015, -6.425598535861992000, -0.4964714371501013400 ) ) ;
#155 = CALENDAR_DATE ( 2019, 17, 1 ) ;
#156 = CARTESIAN_POINT ( 'NONE',  ( -4.336808689942016900E-015, 2.158948917834474300, 0.1668103704252234300 ) ) ;
#157 = CIRCLE ( 'NONE', #222, 6.349999999999999600 ) ;
#158 = APPROVAL_ROLE ( '' ) ;
#159 = FACE_OUTER_BOUND ( 'NONE', #32, .T. ) ;
#160 = AXIS2_PLACEMENT_3D ( 'NONE', #152, #10, #174 ) ;
#161 = COORDINATED_UNIVERSAL_TIME_OFFSET ( 2, 0, .AHEAD. ) ;
#162 = VECTOR ( 'NONE', #125, 1000.000000000000000 ) ;
#163 = PERSON ( 'UNSPECIFIED', 'UNSPECIFIED', 'UNSPECIFIED', ('UNSPECIFIED'), ('UNSPECIFIED'), ('UNSPECIFIED') ) ;
#164 = AXIS2_PLACEMENT_3D ( 'NONE', #28, #149, #84 ) ;
#165 = PERSON_AND_ORGANIZATION_ROLE ( 'design_owner' ) ;
#166 = CARTESIAN_POINT ( 'NONE',  ( 2.498001805406600200E-016, 1.221245327087670000E-015, -0.4847898783909910200 ) ) ;
#167 = EDGE_CURVE ( 'NONE', #50, #146, #53, .T. ) ;
#168 =( BOUNDED_SURFACE ( )  B_SPLINE_SURFACE ( 3, 3, ( 
 ( #200, #92, #57, #16 ),
 ( #179, #198, #220, #156 ),
 ( #108, #199, #13, #139 ),
 ( #124, #39, #234, #154 ) ),
 .UNSPECIFIED., .F., .F., .T. ) 
 B_SPLINE_SURFACE_WITH_KNOTS ( ( 4, 4 ),
 ( 4, 4 ),
 ( 0.0000000000000000000, 1.000000000000000000 ),
 ( 0.0000000000000000000, 1.000000000000000000 ),
 .UNSPECIFIED. ) 
 GEOMETRIC_REPRESENTATION_ITEM ( )  RATIONAL_B_SPLINE_SURFACE ( (
 ( 1.000000000000000000, 0.9980423349338160000, 0.9980423349338160000, 1.000000000000000000),
 ( 0.9920874741070984100, 0.9901452991164402300, 0.9901452991164402300, 0.9920874741070984100),
 ( 0.9920874741070984100, 0.9901452991164402300, 0.9901452991164402300, 0.9920874741070984100),
 ( 1.000000000000000000, 0.9980423349338160000, 0.9980423349338160000, 1.000000000000000000) ) ) 
 REPRESENTATION_ITEM ( '' )  SURFACE ( )  );
#169 = DATE_AND_TIME ( #202, #144 ) ;
#170 = PERSON_AND_ORGANIZATION_ROLE ( 'creator' ) ;
#171 = CARTESIAN_POINT ( 'NONE',  ( 2.498001805406600200E-016, 1.221245327087670000E-015, -0.4847898783909910200 ) ) ;
#172 = DIRECTION ( 'NONE',  ( 1.000000000000000000, 0.0000000000000000000, 0.0000000000000000000 ) ) ;
#173 = EDGE_CURVE ( 'NONE', #127, #50, #94, .T. ) ;
#174 = DIRECTION ( 'NONE',  ( 1.000000000000000000, 0.0000000000000000000, 0.0000000000000000000 ) ) ;
#175 = ORIENTED_EDGE ( 'NONE', *, *, #34, .T. ) ;
#176 = ORGANIZATION ( 'UNSPECIFIED', 'UNSPECIFIED', '' ) ;
#177 = CARTESIAN_POINT ( 'NONE',  ( 2.114331214910056800, 6.425598535861984000, -0.4964714371501061100 ) ) ;
#178 = AXIS2_PLACEMENT_3D ( 'NONE', #147, #114, #63 ) ;
#179 = CARTESIAN_POINT ( 'NONE',  ( -6.413275321151664000, 2.158948917834473800, -0.3257594823786393300 ) ) ;
#180 = CARTESIAN_POINT ( 'NONE',  ( 7.105427357601000300E-015, -2.158948917834482700, 0.1668103704252319200 ) ) ;
#181 = CC_DESIGN_APPROVAL ( #150, ( #214 ) ) ;
#182 = DATE_AND_TIME ( #155, #4 ) ;
#183 = EDGE_LOOP ( 'NONE', ( #224, #110, #54 ) ) ;
#184 = EDGE_CURVE ( 'NONE', #185, #2, #33, .T. ) ;
#185 = VERTEX_POINT ( 'NONE', #47 ) ;
#186 = APPROVAL_PERSON_ORGANIZATION ( #89, #189, #135 ) ;
#187 = APPLICATION_PROTOCOL_DEFINITION ( 'international standard', 'config_control_design', 1994, #226 ) ;
#188 =( NAMED_UNIT ( * ) SI_UNIT ( $, .STERADIAN. ) SOLID_ANGLE_UNIT ( ) );
#189 = APPROVAL ( #8, 'UNSPECIFIED' ) ;
#190 = DIRECTION ( 'NONE',  ( 1.000000000000000000, 0.0000000000000000000, 0.0000000000000000000 ) ) ;
#191 = APPROVAL_PERSON_ORGANIZATION ( #17, #42, #158 ) ;
#192 = CARTESIAN_POINT ( 'NONE',  ( 0.0000000000000000000, 13.15799999999999900, 2.500000000000000000 ) ) ;
#193 = DIRECTION ( 'NONE',  ( 0.0000000000000000000, 0.0000000000000000000, 1.000000000000000000 ) ) ;
#194 = CC_DESIGN_APPROVAL ( #189, ( #123 ) ) ;
#195 = CC_DESIGN_PERSON_AND_ORGANIZATION_ASSIGNMENT ( #225, #165, ( #27 ) ) ;
#196 = CARTESIAN_POINT ( 'NONE',  ( 2.498001805406600200E-016, 1.221245327087670000E-015, -0.4847898783909910200 ) ) ;
#197 = ORIENTED_EDGE ( 'NONE', *, *, #31, .F. ) ;
#198 = CARTESIAN_POINT ( 'NONE',  ( -4.290211689066465400, 2.158948917834474700, 0.002298360074972521400 ) ) ;
#199 = CARTESIAN_POINT ( 'NONE',  ( -4.290211689066464600, -2.158948917834482700, 0.002298360074978918200 ) ) ;
#200 = CARTESIAN_POINT ( 'NONE',  ( -6.311986465879758000, 6.425598535861982300, -0.9812618271937481000 ) ) ;
#201 = EDGE_CURVE ( 'NONE', #58, #2, #233, .T. ) ;
#202 = CALENDAR_DATE ( 2019, 17, 1 ) ;
#203 = APPROVAL_PERSON_ORGANIZATION ( #145, #150, #227 ) ;
#204 = CC_DESIGN_PERSON_AND_ORGANIZATION_ASSIGNMENT ( #41, #64, ( #123 ) ) ;
#205 = SHAPE_DEFINITION_REPRESENTATION ( #49, #5 ) ;
#206 = SECURITY_CLASSIFICATION ( '', '', #18 ) ;
#207 = APPROVAL_DATE_TIME ( #182, #42 ) ;
#208 = CARTESIAN_POINT ( 'NONE',  ( 7.105427357601000300E-015, 6.349999999999994300, -0.4847898783909911400 ) ) ;
#209 = DIRECTION ( 'NONE',  ( 0.0000000000000000000, 0.0000000000000000000, 1.000000000000000000 ) ) ;
#210 = DIRECTION ( 'NONE',  ( 1.000000000000000000, 0.0000000000000000000, 0.0000000000000000000 ) ) ;
#211 = CALENDAR_DATE ( 2019, 17, 1 ) ;
#212 = ORIENTED_EDGE ( 'NONE', *, *, #173, .T. ) ;
#213 = DIRECTION ( 'NONE',  ( 0.0000000000000000000, 0.0000000000000000000, 1.000000000000000000 ) ) ;
#214 = PRODUCT_DEFINITION ( 'UNKNOWN', '', #123, #121 ) ;
#215 = UNCERTAINTY_MEASURE_WITH_UNIT (LENGTH_MEASURE( 1.000000000000000100E-005 ), #119, 'distance_accuracy_value', 'NONE');
#216 = DATE_AND_TIME ( #112, #19 ) ;
#217 = CC_DESIGN_PERSON_AND_ORGANIZATION_ASSIGNMENT ( #71, #130, ( #206 ) ) ;
#218 = CARTESIAN_POINT ( 'NONE',  ( 7.105427357601000300E-015, 2.158948917834474700, 0.1668103704252255300 ) ) ;
#219 = CIRCLE ( 'NONE', #77, 6.349999999999999600 ) ;
#220 = CARTESIAN_POINT ( 'NONE',  ( -2.148260024735863200, 2.158948917834474700, 0.1668103704252228400 ) ) ;
#221 = ORIENTED_EDGE ( 'NONE', *, *, #201, .T. ) ;
#222 = AXIS2_PLACEMENT_3D ( 'NONE', #232, #137, #88 ) ;
#223 = ORIENTED_EDGE ( 'NONE', *, *, #126, .T. ) ;
#224 = ORIENTED_EDGE ( 'NONE', *, *, #126, .F. ) ;
#225 = PERSON_AND_ORGANIZATION ( #163, #176 ) ;
#226 = APPLICATION_CONTEXT ( 'configuration controlled 3d designs of mechanical parts and assemblies' ) ;
#227 = APPROVAL_ROLE ( '' ) ;
#228 = PERSON_AND_ORGANIZATION_ROLE ( 'design_supplier' ) ;
#229 = CC_DESIGN_DATE_AND_TIME_ASSIGNMENT ( #36, #129, ( #206 ) ) ;
#230 = DIRECTION ( 'NONE',  ( 0.0000000000000000000, 1.000000000000000000, -6.635327663310761200E-016 ) ) ;
#231 = ORIENTED_EDGE ( 'NONE', *, *, #34, .F. ) ;
#232 = CARTESIAN_POINT ( 'NONE',  ( 2.498001805406600200E-016, 1.221245327087670000E-015, 2.499999999999999600 ) ) ;
#233 = LINE ( 'NONE', #45, #109 ) ;
#234 = CARTESIAN_POINT ( 'NONE',  ( -2.114331214910056400, -6.425598535861992900, -0.4964714371501018900 ) ) ;
#235 = CC_DESIGN_APPROVAL ( #42, ( #206 ) ) ;
ENDSEC;
END-ISO-10303-21;
