ISO-10303-21;
HEADER;
FILE_DESCRIPTION (( 'STEP AP203' ),
    '1' );
FILE_NAME ('112-5111E CaF2 pl-cv 12.7 F-75.STEP',
    '2019-01-17T13:57:33',
    ( '' ),
    ( '' ),
    'SwSTEP 2.0',
    'SolidWorks 2017',
    '' );
FILE_SCHEMA (( 'CONFIG_CONTROL_DESIGN' ));
ENDSEC;

DATA;
#1 = PERSON_AND_ORGANIZATION ( #151, #9 ) ;
#2 = FACE_OUTER_BOUND ( 'NONE', #146, .T. ) ;
#3 = CC_DESIGN_PERSON_AND_ORGANIZATION_ASSIGNMENT ( #21, #94, ( #180 ) ) ;
#4 = APPLICATION_CONTEXT ( 'configuration controlled 3d designs of mechanical parts and assemblies' ) ;
#5 = APPROVAL_ROLE ( '' ) ;
#6 = ORIENTED_EDGE ( 'NONE', *, *, #42, .T. ) ;
#7 = APPLICATION_CONTEXT ( 'configuration controlled 3d designs of mechanical parts and assemblies' ) ;
#8 = CALENDAR_DATE ( 2019, 17, 1 ) ;
#9 = ORGANIZATION ( 'UNSPECIFIED', 'UNSPECIFIED', '' ) ;
#10 = CIRCLE ( 'NONE', #56, 6.349999999999999600 ) ;
#11 = ORIENTED_EDGE ( 'NONE', *, *, #60, .T. ) ;
#12 = CIRCLE ( 'NONE', #117, 6.349999999999999600 ) ;
#13 = DIRECTION ( 'NONE',  ( 1.000000000000000000, 0.0000000000000000000, 0.0000000000000000000 ) ) ;
#14 = DIRECTION ( 'NONE',  ( 1.000000000000000000, 0.0000000000000000000, 0.0000000000000000000 ) ) ;
#15 = DIRECTION ( 'NONE',  ( 0.0000000000000000000, 0.0000000000000000000, 1.000000000000000000 ) ) ;
#16 = VERTEX_POINT ( 'NONE', #84 ) ;
#17 = PERSON_AND_ORGANIZATION_ROLE ( 'design_owner' ) ;
#18 = MANIFOLD_SOLID_BREP ( 'Imported1', #47 ) ;
#19 =( NAMED_UNIT ( * ) SI_UNIT ( $, .STERADIAN. ) SOLID_ANGLE_UNIT ( ) );
#20 = CC_DESIGN_PERSON_AND_ORGANIZATION_ASSIGNMENT ( #223, #116, ( #32 ) ) ;
#21 = PERSON_AND_ORGANIZATION ( #151, #9 ) ;
#22 = DIRECTION ( 'NONE',  ( 1.000000000000000000, 0.0000000000000000000, 0.0000000000000000000 ) ) ;
#23 = CARTESIAN_POINT ( 'NONE',  ( -6.349999999999999600, 1.998896044546239400E-015, 2.399999999999999900 ) ) ;
#24 = CARTESIAN_POINT ( 'NONE',  ( 2.498001805406600200E-016, 1.221245327087670000E-015, -0.6494140680878289800 ) ) ;
#25 = EDGE_LOOP ( 'NONE', ( #153, #134, #11, #6, #91 ) ) ;
#26 = CARTESIAN_POINT ( 'NONE',  ( -3.552713678800500100E-015, -6.425122697294037600, -0.6650378875870111000 ) ) ;
#27 = CARTESIAN_POINT ( 'NONE',  ( -1.127570259384924800E-014, -2.172410687959819500, 0.2248572491075888100 ) ) ;
#28 = AXIS2_PLACEMENT_3D ( 'NONE', #142, #89, #45 ) ;
#29 = CARTESIAN_POINT ( 'NONE',  ( -4.315329064409628900, -2.172410687959819100, 0.003444184977225448000 ) ) ;
#30 = CARTESIAN_POINT ( 'NONE',  ( 6.252150968329018200, 6.425122697294034100, -1.308308321154989500 ) ) ;
#31 = DIRECTION ( 'NONE',  ( 0.0000000000000000000, 0.0000000000000000000, 1.000000000000000000 ) ) ;
#32 = SECURITY_CLASSIFICATION ( '', '', #34 ) ;
#33 = EDGE_LOOP ( 'NONE', ( #210, #131, #186 ) ) ;
#34 = SECURITY_CLASSIFICATION_LEVEL ( 'unclassified' ) ;
#35 = DIRECTION ( 'NONE',  ( 1.000000000000000000, 0.0000000000000000000, 0.0000000000000000000 ) ) ;
#36 = DATE_AND_TIME ( #54, #87 ) ;
#37 = PERSON_AND_ORGANIZATION ( #151, #9 ) ;
#38 = EDGE_LOOP ( 'NONE', ( #160, #63 ) ) ;
#39 = PERSON_AND_ORGANIZATION ( #151, #9 ) ;
#40 = DIRECTION ( 'NONE',  ( 1.000000000000000000, 0.0000000000000000000, -0.0000000000000000000 ) ) ;
#41 = VERTEX_POINT ( 'NONE', #23 ) ;
#42 = EDGE_CURVE ( 'NONE', #41, #16, #231, .T. ) ;
#43 = CARTESIAN_POINT ( 'NONE',  ( -1.040834085586084300E-014, -6.425122697294037600, -0.6650378875870096600 ) ) ;
#44 = VERTEX_POINT ( 'NONE', #122 ) ;
#45 = DIRECTION ( 'NONE',  ( 1.000000000000000000, 0.0000000000000000000, 0.0000000000000000000 ) ) ;
#46 = COORDINATED_UNIVERSAL_TIME_OFFSET ( 2, 0, .AHEAD. ) ;
#47 = CLOSED_SHELL ( 'NONE', ( #209, #175, #224, #193, #97 ) ) ;
#48 = DATE_TIME_ROLE ( 'classification_date' ) ;
#49 = AXIS2_PLACEMENT_3D ( 'NONE', #204, #115, #35 ) ;
#50 = CARTESIAN_POINT ( 'NONE',  ( 6.252150968329020000, -6.425122697294037600, -1.308308321154986400 ) ) ;
#51 = FACE_OUTER_BOUND ( 'NONE', #83, .T. ) ;
#52 = PERSON_AND_ORGANIZATION_ROLE ( 'design_supplier' ) ;
#53 = EDGE_CURVE ( 'NONE', #44, #104, #119, .T. ) ;
#54 = CALENDAR_DATE ( 2019, 17, 1 ) ;
#55 = ORIENTED_EDGE ( 'NONE', *, *, #53, .F. ) ;
#56 = AXIS2_PLACEMENT_3D ( 'NONE', #24, #158, #22 ) ;
#57 = CARTESIAN_POINT ( 'NONE',  ( 2.498001805406600200E-016, 1.221245327087670000E-015, -0.6494140680878289800 ) ) ;
#58 = COORDINATED_UNIVERSAL_TIME_OFFSET ( 2, 0, .AHEAD. ) ;
#59 = VERTEX_POINT ( 'NONE', #137 ) ;
#60 = EDGE_CURVE ( 'NONE', #104, #41, #201, .T. ) ;
#61 = CC_DESIGN_PERSON_AND_ORGANIZATION_ASSIGNMENT ( #170, #17, ( #118 ) ) ;
#62 = DIRECTION ( 'NONE',  ( 1.000000000000000000, 0.0000000000000000000, 0.0000000000000000000 ) ) ;
#63 = ORIENTED_EDGE ( 'NONE', *, *, #42, .F. ) ;
#64 = CARTESIAN_POINT ( 'NONE',  ( -3.552713678800500100E-015, 0.0000000000000000000, -31.37000000000000100 ) ) ;
#65 = CARTESIAN_POINT ( 'NONE',  ( 2.498001805406600200E-016, 1.221245327087670000E-015, 2.399999999999999900 ) ) ;
#66 = CARTESIAN_POINT ( 'NONE',  ( -6.433351606852105500, 2.172410687959815500, -0.4370565303898114000 ) ) ;
#67 = COORDINATED_UNIVERSAL_TIME_OFFSET ( 2, 0, .AHEAD. ) ;
#68 = CARTESIAN_POINT ( 'NONE',  ( 4.315329064409624500, 2.172410687959815500, 0.003444184977218834400 ) ) ;
#69 = CC_DESIGN_SECURITY_CLASSIFICATION ( #32, ( #180 ) ) ;
#70 = FACE_OUTER_BOUND ( 'NONE', #38, .T. ) ;
#71 = PERSON_AND_ORGANIZATION_ROLE ( 'creator' ) ;
#72 = AXIS2_PLACEMENT_3D ( 'NONE', #64, #13, #182 ) ;
#73 = APPLICATION_PROTOCOL_DEFINITION ( 'international standard', 'config_control_design', 1994, #7 ) ;
#74 = CC_DESIGN_APPROVAL ( #167, ( #32 ) ) ;
#75 = COORDINATED_UNIVERSAL_TIME_OFFSET ( 2, 0, .AHEAD. ) ;
#76 = EDGE_CURVE ( 'NONE', #140, #59, #99, .T. ) ;
#77 = APPROVAL ( #188, 'UNSPECIFIED' ) ;
#78 = ORIENTED_EDGE ( 'NONE', *, *, #85, .F. ) ;
#79 = CC_DESIGN_DATE_AND_TIME_ASSIGNMENT ( #217, #48, ( #32 ) ) ;
#80 = LOCAL_TIME ( 15, 57, 33.00000000000000000, #46 ) ;
#81 = PLANE ( 'NONE',  #149 ) ;
#82 = APPROVAL_DATE_TIME ( #165, #167 ) ;
#83 = EDGE_LOOP ( 'NONE', ( #55, #114, #78 ) ) ;
#84 = CARTESIAN_POINT ( 'NONE',  ( 6.349999999999999600, 1.221245327087670000E-015, 2.399999999999999900 ) ) ;
#85 = EDGE_CURVE ( 'NONE', #104, #140, #10, .T. ) ;
#86 = DIRECTION ( 'NONE',  ( -0.0000000000000000000, -0.0000000000000000000, -1.000000000000000000 ) ) ;
#87 = LOCAL_TIME ( 15, 57, 33.00000000000000000, #67 ) ;
#88 = CARTESIAN_POINT ( 'NONE',  ( -4.193784272566536400, -6.425122697294036700, -0.8802146706854077100 ) ) ;
#89 = DIRECTION ( 'NONE',  ( 0.0000000000000000000, 0.0000000000000000000, 1.000000000000000000 ) ) ;
#90 = APPROVAL_PERSON_ORGANIZATION ( #39, #77, #168 ) ;
#91 = ORIENTED_EDGE ( 'NONE', *, *, #222, .F. ) ;
#92 = CC_DESIGN_APPROVAL ( #77, ( #169 ) ) ;
#93 = CC_DESIGN_APPROVAL ( #203, ( #180 ) ) ;
#94 = PERSON_AND_ORGANIZATION_ROLE ( 'creator' ) ;
#95 = FACE_OUTER_BOUND ( 'NONE', #33, .T. ) ;
#96 = AXIS2_PLACEMENT_3D ( 'NONE', #197, #110, #141 ) ;
#97 = ADVANCED_FACE ( 'NONE', ( #70 ), #81, .T. ) ;
#98 = COORDINATED_UNIVERSAL_TIME_OFFSET ( 2, 0, .AHEAD. ) ;
#99 = CIRCLE ( 'NONE', #100, 6.349999999999999600 ) ;
#100 = AXIS2_PLACEMENT_3D ( 'NONE', #57, #212, #196 ) ;
#101 = CARTESIAN_POINT ( 'NONE',  ( 2.498001805406600200E-016, 1.221245327087670000E-015, 2.399999999999999900 ) ) ;
#102 = CARTESIAN_POINT ( 'NONE',  ( 0.0000000000000000000, 13.15799999999999900, 2.399999999999999900 ) ) ;
#103 = AXIS2_PLACEMENT_3D ( 'NONE', #235, #15, #14 ) ;
#104 = VERTEX_POINT ( 'NONE', #225 ) ;
#105 =( BOUNDED_SURFACE ( )  B_SPLINE_SURFACE ( 3, 3, ( 
 ( #166, #129, #109, #218 ),
 ( #66, #233, #198, #181 ),
 ( #111, #29, #200, #27 ),
 ( #112, #88, #163, #43 ) ),
 .UNSPECIFIED., .F., .F., .F. ) 
 B_SPLINE_SURFACE_WITH_KNOTS ( ( 4, 4 ),
 ( 4, 4 ),
 ( 0.0000000000000000000, 1.000000000000000000 ),
 ( 0.0000000000000000000, 1.000000000000000000 ),
 .UNSPECIFIED. ) 
 GEOMETRIC_REPRESENTATION_ITEM ( )  RATIONAL_B_SPLINE_SURFACE ( (
 ( 1.000000000000000000, 0.9964991332635425600, 0.9964991332635425600, 1.000000000000000000),
 ( 0.9858667965659969600, 0.9824154082913212300, 0.9824154082913212300, 0.9858667965659969600),
 ( 0.9858667965659969600, 0.9824154082913212300, 0.9824154082913212300, 0.9858667965659969600),
 ( 1.000000000000000000, 0.9964991332635425600, 0.9964991332635425600, 1.000000000000000000) ) ) 
 REPRESENTATION_ITEM ( '' )  SURFACE ( )  );
#106 = CC_DESIGN_PERSON_AND_ORGANIZATION_ASSIGNMENT ( #1, #71, ( #169 ) ) ;
#107 = CARTESIAN_POINT ( 'NONE',  ( -3.552713678800500100E-015, -2.172410687959819100, 0.2248572491075872800 ) ) ;
#108 = LINE ( 'NONE', #161, #156 ) ;
#109 = CARTESIAN_POINT ( 'NONE',  ( -2.102412335341610200, 6.425122697294033200, -0.6650378875870137700 ) ) ;
#110 = DIRECTION ( 'NONE',  ( 0.0000000000000000000, 0.0000000000000000000, 1.000000000000000000 ) ) ;
#111 = CARTESIAN_POINT ( 'NONE',  ( -6.433351606852106400, -2.172410687959819100, -0.4370565303898073500 ) ) ;
#112 = CARTESIAN_POINT ( 'NONE',  ( -6.252150968329019100, -6.425122697294037600, -1.308308321154982200 ) ) ;
#113 = APPROVAL_DATE_TIME ( #136, #77 ) ;
#114 = ORIENTED_EDGE ( 'NONE', *, *, #124, .T. ) ;
#115 = DIRECTION ( 'NONE',  ( 0.0000000000000000000, 0.0000000000000000000, 1.000000000000000000 ) ) ;
#116 = PERSON_AND_ORGANIZATION_ROLE ( 'classification_officer' ) ;
#117 = AXIS2_PLACEMENT_3D ( 'NONE', #65, #86, #216 ) ;
#118 = PRODUCT ( '112-5111E CaF2 pl-cv 12.7 F-75', '112-5111E CaF2 pl-cv 12.7 F-75', '', ( #147 ) ) ;
#119 = CIRCLE ( 'NONE', #191, 6.349999999999999600 ) ;
#120 = CC_DESIGN_DATE_AND_TIME_ASSIGNMENT ( #36, #221, ( #169 ) ) ;
#121 = CYLINDRICAL_SURFACE ( 'NONE', #103, 6.349999999999999600 ) ;
#122 = CARTESIAN_POINT ( 'NONE',  ( -3.552713678800500100E-015, 6.349999999999997900, -0.6494140680878266500 ) ) ;
#123 = CARTESIAN_POINT ( 'NONE',  ( 6.433351606852107300, -2.172410687959819100, -0.4370565303898116800 ) ) ;
#124 = EDGE_CURVE ( 'NONE', #44, #140, #152, .T. ) ;
#125 = CARTESIAN_POINT ( 'NONE',  ( 4.193784272566532900, -6.425122697294036700, -0.8802146706854103700 ) ) ;
#126 = CALENDAR_DATE ( 2019, 17, 1 ) ;
#127 = CARTESIAN_POINT ( 'NONE',  ( 2.102412335341601300, 6.425122697294033200, -0.6650378875870146500 ) ) ;
#128 = DESIGN_CONTEXT ( 'detailed design', #7, 'design' ) ;
#129 = CARTESIAN_POINT ( 'NONE',  ( -4.193784272566536400, 6.425122697294033200, -0.8802146706854111500 ) ) ;
#130 = APPROVAL_STATUS ( 'not_yet_approved' ) ;
#131 = ORIENTED_EDGE ( 'NONE', *, *, #133, .F. ) ;
#132 = PERSON_AND_ORGANIZATION ( #151, #9 ) ;
#133 = EDGE_CURVE ( 'NONE', #59, #44, #176, .T. ) ;
#134 = ORIENTED_EDGE ( 'NONE', *, *, #53, .T. ) ;
#135 = AXIS2_PLACEMENT_3D ( 'NONE', #101, #155, #62 ) ;
#136 = DATE_AND_TIME ( #195, #183 ) ;
#137 = CARTESIAN_POINT ( 'NONE',  ( 6.349999999999999600, 1.221245327087670000E-015, -0.6494140680878289800 ) ) ;
#138 = DIRECTION ( 'NONE',  ( 0.0000000000000000000, 0.0000000000000000000, 1.000000000000000000 ) ) ;
#139 = LOCAL_TIME ( 15, 57, 33.00000000000000000, #58 ) ;
#140 = VERTEX_POINT ( 'NONE', #184 ) ;
#141 = DIRECTION ( 'NONE',  ( 1.000000000000000000, 0.0000000000000000000, 0.0000000000000000000 ) ) ;
#142 = CARTESIAN_POINT ( 'NONE',  ( 2.498001805406600200E-016, 1.221245327087670000E-015, -0.6494140680878289800 ) ) ;
#143 = CARTESIAN_POINT ( 'NONE',  ( 4.193784272566531100, 6.425122697294033200, -0.8802146706854135900 ) ) ;
#144 = CARTESIAN_POINT ( 'NONE',  ( -3.552713678800500100E-015, 6.425122697294034100, -0.6650378875870145400 ) ) ;
#145 = APPROVAL_DATE_TIME ( #173, #203 ) ;
#146 = EDGE_LOOP ( 'NONE', ( #199, #207, #189, #179, #192 ) ) ;
#147 = MECHANICAL_CONTEXT ( 'NONE', #4, 'mechanical' ) ;
#148 = FACE_OUTER_BOUND ( 'NONE', #25, .T. ) ;
#149 = AXIS2_PLACEMENT_3D ( 'NONE', #102, #138, #40 ) ;
#150 = APPROVAL_STATUS ( 'not_yet_approved' ) ;
#151 = PERSON ( 'UNSPECIFIED', 'UNSPECIFIED', 'UNSPECIFIED', ('UNSPECIFIED'), ('UNSPECIFIED'), ('UNSPECIFIED') ) ;
#152 = CIRCLE ( 'NONE', #72, 31.37000000000000100 ) ;
#153 = ORIENTED_EDGE ( 'NONE', *, *, #133, .T. ) ;
#154 = DIRECTION ( 'NONE',  ( 1.000000000000000000, 0.0000000000000000000, 0.0000000000000000000 ) ) ;
#155 = DIRECTION ( 'NONE',  ( -0.0000000000000000000, -0.0000000000000000000, -1.000000000000000000 ) ) ;
#156 = VECTOR ( 'NONE', #31, 1000.000000000000000 ) ;
#157 = DIRECTION ( 'NONE',  ( 0.0000000000000000000, 0.0000000000000000000, 1.000000000000000000 ) ) ;
#158 = DIRECTION ( 'NONE',  ( 0.0000000000000000000, 0.0000000000000000000, 1.000000000000000000 ) ) ;
#159 = CC_DESIGN_PERSON_AND_ORGANIZATION_ASSIGNMENT ( #230, #52, ( #180 ) ) ;
#160 = ORIENTED_EDGE ( 'NONE', *, *, #174, .F. ) ;
#161 = CARTESIAN_POINT ( 'NONE',  ( 6.349999999999999600, 1.221245327087670000E-015, -0.6494140680878289800 ) ) ;
#162 = CARTESIAN_POINT ( 'NONE',  ( 2.102412335341601300, -6.425122697294036700, -0.6650378875870109900 ) ) ;
#163 = CARTESIAN_POINT ( 'NONE',  ( -2.102412335341610600, -6.425122697294036700, -0.6650378875870101000 ) ) ;
#164 = CARTESIAN_POINT ( 'NONE',  ( -3.552713678800500100E-015, 2.172410687959815500, 0.2248572491075833700 ) ) ;
#165 = DATE_AND_TIME ( #177, #139 ) ;
#166 = CARTESIAN_POINT ( 'NONE',  ( -6.252150968329018200, 6.425122697294034100, -1.308308321154985500 ) ) ;
#167 = APPROVAL ( #150, 'UNSPECIFIED' ) ;
#168 = APPROVAL_ROLE ( '' ) ;
#169 = PRODUCT_DEFINITION ( 'UNKNOWN', '', #180, #128 ) ;
#170 = PERSON_AND_ORGANIZATION ( #151, #9 ) ;
#171 = CYLINDRICAL_SURFACE ( 'NONE', #28, 6.349999999999999600 ) ;
#172 =( LENGTH_UNIT ( ) NAMED_UNIT ( * ) SI_UNIT ( .MILLI., .METRE. ) );
#173 = DATE_AND_TIME ( #8, #80 ) ;
#174 = EDGE_CURVE ( 'NONE', #16, #41, #12, .T. ) ;
#175 = ADVANCED_FACE ( 'NONE', ( #148 ), #121, .T. ) ;
#176 = CIRCLE ( 'NONE', #96, 6.349999999999999600 ) ;
#177 = CALENDAR_DATE ( 2019, 17, 1 ) ;
#178 = CARTESIAN_POINT ( 'NONE',  ( -6.349999999999999600, 1.998896044546239400E-015, -0.6494140680878289800 ) ) ;
#179 = ORIENTED_EDGE ( 'NONE', *, *, #222, .T. ) ;
#180 = PRODUCT_DEFINITION_FORMATION_WITH_SPECIFIED_SOURCE ( 'ANY', '', #118, .NOT_KNOWN. ) ;
#181 = CARTESIAN_POINT ( 'NONE',  ( -1.127570259384924800E-014, 2.172410687959815100, 0.2248572491075845900 ) ) ;
#182 = DIRECTION ( 'NONE',  ( 0.0000000000000000000, 1.000000000000000000, 2.211952152982858800E-016 ) ) ;
#183 = LOCAL_TIME ( 15, 57, 33.00000000000000000, #75 ) ;
#184 = CARTESIAN_POINT ( 'NONE',  ( -3.552713678800500100E-015, -6.349999999999996100, -0.6494140680878266500 ) ) ;
#185 = CARTESIAN_POINT ( 'NONE',  ( 2.163344718377855800, 2.172410687959815500, 0.2248572491075833700 ) ) ;
#186 = ORIENTED_EDGE ( 'NONE', *, *, #76, .F. ) ;
#187 = APPROVAL_ROLE ( '' ) ;
#188 = APPROVAL_STATUS ( 'not_yet_approved' ) ;
#189 = ORIENTED_EDGE ( 'NONE', *, *, #76, .T. ) ;
#190 = APPROVAL_PERSON_ORGANIZATION ( #37, #167, #187 ) ;
#191 = AXIS2_PLACEMENT_3D ( 'NONE', #228, #157, #154 ) ;
#192 = ORIENTED_EDGE ( 'NONE', *, *, #174, .T. ) ;
#193 = ADVANCED_FACE ( 'NONE', ( #2 ), #171, .T. ) ;
#194 = DIRECTION ( 'NONE',  ( 0.0000000000000000000, 0.0000000000000000000, 1.000000000000000000 ) ) ;
#195 = CALENDAR_DATE ( 2019, 17, 1 ) ;
#196 = DIRECTION ( 'NONE',  ( 1.000000000000000000, 0.0000000000000000000, 0.0000000000000000000 ) ) ;
#197 = CARTESIAN_POINT ( 'NONE',  ( 2.498001805406600200E-016, 1.221245327087670000E-015, -0.6494140680878289800 ) ) ;
#198 = CARTESIAN_POINT ( 'NONE',  ( -2.163344718377865100, 2.172410687959815100, 0.2248572491075840100 ) ) ;
#199 = ORIENTED_EDGE ( 'NONE', *, *, #60, .F. ) ;
#200 = CARTESIAN_POINT ( 'NONE',  ( -2.163344718377865600, -2.172410687959819500, 0.2248572491075882500 ) ) ;
#201 = LINE ( 'NONE', #178, #220 ) ;
#202 = PRODUCT_RELATED_PRODUCT_CATEGORY ( 'detail', '', ( #118 ) ) ;
#203 = APPROVAL ( #130, 'UNSPECIFIED' ) ;
#204 = CARTESIAN_POINT ( 'NONE',  ( 0.0000000000000000000, 0.0000000000000000000, 0.0000000000000000000 ) ) ;
#205 = APPLICATION_PROTOCOL_DEFINITION ( 'international standard', 'config_control_design', 1994, #4 ) ;
#206 = LOCAL_TIME ( 15, 57, 33.00000000000000000, #98 ) ;
#207 = ORIENTED_EDGE ( 'NONE', *, *, #85, .T. ) ;
#208 = UNCERTAINTY_MEASURE_WITH_UNIT (LENGTH_MEASURE( 1.000000000000000100E-005 ), #172, 'distance_accuracy_value', 'NONE');
#209 = ADVANCED_FACE ( 'NONE', ( #51 ), #105, .F. ) ;
#210 = ORIENTED_EDGE ( 'NONE', *, *, #124, .F. ) ;
#211 = APPROVAL_PERSON_ORGANIZATION ( #132, #203, #5 ) ;
#212 = DIRECTION ( 'NONE',  ( 0.0000000000000000000, 0.0000000000000000000, 1.000000000000000000 ) ) ;
#213 =( BOUNDED_SURFACE ( )  B_SPLINE_SURFACE ( 3, 3, ( 
 ( #144, #127, #143, #30 ),
 ( #164, #185, #68, #214 ),
 ( #107, #232, #215, #123 ),
 ( #26, #162, #125, #50 ) ),
 .UNSPECIFIED., .F., .F., .F. ) 
 B_SPLINE_SURFACE_WITH_KNOTS ( ( 4, 4 ),
 ( 4, 4 ),
 ( 0.0000000000000000000, 1.000000000000000000 ),
 ( 0.0000000000000000000, 1.000000000000000000 ),
 .UNSPECIFIED. ) 
 GEOMETRIC_REPRESENTATION_ITEM ( )  RATIONAL_B_SPLINE_SURFACE ( (
 ( 1.000000000000000000, 0.9964991332635425600, 0.9964991332635425600, 1.000000000000000000),
 ( 0.9858667965659969600, 0.9824154082913212300, 0.9824154082913212300, 0.9858667965659969600),
 ( 0.9858667965659969600, 0.9824154082913212300, 0.9824154082913212300, 0.9858667965659969600),
 ( 1.000000000000000000, 0.9964991332635425600, 0.9964991332635425600, 1.000000000000000000) ) ) 
 REPRESENTATION_ITEM ( '' )  SURFACE ( )  );
#214 = CARTESIAN_POINT ( 'NONE',  ( 6.433351606852106400, 2.172410687959815500, -0.4370565303898155100 ) ) ;
#215 = CARTESIAN_POINT ( 'NONE',  ( 4.315329064409624500, -2.172410687959819100, 0.003444184977222683300 ) ) ;
#216 = DIRECTION ( 'NONE',  ( 1.000000000000000000, 0.0000000000000000000, 0.0000000000000000000 ) ) ;
#217 = DATE_AND_TIME ( #126, #206 ) ;
#218 = CARTESIAN_POINT ( 'NONE',  ( -1.040834085586084300E-014, 6.425122697294034100, -0.6650378875870134300 ) ) ;
#219 =( NAMED_UNIT ( * ) PLANE_ANGLE_UNIT ( ) SI_UNIT ( $, .RADIAN. ) );
#220 = VECTOR ( 'NONE', #194, 1000.000000000000000 ) ;
#221 = DATE_TIME_ROLE ( 'creation_date' ) ;
#222 = EDGE_CURVE ( 'NONE', #59, #16, #108, .T. ) ;
#223 = PERSON_AND_ORGANIZATION ( #151, #9 ) ;
#224 = ADVANCED_FACE ( 'NONE', ( #95 ), #213, .F. ) ;
#225 = CARTESIAN_POINT ( 'NONE',  ( -6.349999999999999600, 1.998896044546239400E-015, -0.6494140680878289800 ) ) ;
#226 = PRODUCT_DEFINITION_SHAPE ( 'NONE', 'NONE',  #169 ) ;
#227 =( GEOMETRIC_REPRESENTATION_CONTEXT ( 3 ) GLOBAL_UNCERTAINTY_ASSIGNED_CONTEXT ( ( #208 ) ) GLOBAL_UNIT_ASSIGNED_CONTEXT ( ( #172, #219, #19 ) ) REPRESENTATION_CONTEXT ( 'NONE', 'WORKASPACE' ) );
#228 = CARTESIAN_POINT ( 'NONE',  ( 2.498001805406600200E-016, 1.221245327087670000E-015, -0.6494140680878289800 ) ) ;
#229 = ADVANCED_BREP_SHAPE_REPRESENTATION ( '112-5111E CaF2 pl-cv 12.7 F-75', ( #18, #49 ), #227 ) ;
#230 = PERSON_AND_ORGANIZATION ( #151, #9 ) ;
#231 = CIRCLE ( 'NONE', #135, 6.349999999999999600 ) ;
#232 = CARTESIAN_POINT ( 'NONE',  ( 2.163344718377856200, -2.172410687959819100, 0.2248572491075872800 ) ) ;
#233 = CARTESIAN_POINT ( 'NONE',  ( -4.315329064409628000, 2.172410687959815500, 0.003444184977221382200 ) ) ;
#234 = SHAPE_DEFINITION_REPRESENTATION ( #226, #229 ) ;
#235 = CARTESIAN_POINT ( 'NONE',  ( 2.498001805406600200E-016, 1.221245327087670000E-015, -0.6494140680878289800 ) ) ;
ENDSEC;
END-ISO-10303-21;
