ISO-10303-21;
HEADER;
FILE_DESCRIPTION (( 'STEP AP203' ),
    '1' );
FILE_NAME ('112-5109E CaF2 pl-cv 12.7 F-50.STEP',
    '2019-01-17T13:47:40',
    ( '' ),
    ( '' ),
    'SwSTEP 2.0',
    'SolidWorks 2017',
    '' );
FILE_SCHEMA (( 'CONFIG_CONTROL_DESIGN' ));
ENDSEC;

DATA;
#1 = EDGE_LOOP ( 'NONE', ( #125, #143 ) ) ;
#2 = APPROVAL ( #208, 'UNSPECIFIED' ) ;
#3 = PERSON ( 'UNSPECIFIED', 'UNSPECIFIED', 'UNSPECIFIED', ('UNSPECIFIED'), ('UNSPECIFIED'), ('UNSPECIFIED') ) ;
#4 = CARTESIAN_POINT ( 'NONE',  ( 6.078018051497202200, 6.423722572524216200, -1.962135083948985300 ) ) ;
#5 = SECURITY_CLASSIFICATION ( '', '', #139 ) ;
#6 = PERSON_AND_ORGANIZATION ( #3, #29 ) ;
#7 = EDGE_CURVE ( 'NONE', #186, #81, #34, .T. ) ;
#8 = CARTESIAN_POINT ( 'NONE',  ( -6.493253180545239400, -2.212570681004446100, -0.6676639147389761300 ) ) ;
#9 = DIRECTION ( 'NONE',  ( 1.000000000000000000, 0.0000000000000000000, 0.0000000000000000000 ) ) ;
#10 = CIRCLE ( 'NONE', #213, 6.349999999999999600 ) ;
#11 = APPROVAL_DATE_TIME ( #60, #50 ) ;
#12 = APPROVAL_ROLE ( '' ) ;
#13 = CARTESIAN_POINT ( 'NONE',  ( -6.349999999999999600, 1.998896044546239400E-015, -0.9875101957611731600 ) ) ;
#14 = DIRECTION ( 'NONE',  ( 0.0000000000000000000, 0.0000000000000000000, 1.000000000000000000 ) ) ;
#15 = ORIENTED_EDGE ( 'NONE', *, *, #49, .F. ) ;
#16 = PRODUCT_DEFINITION ( 'UNKNOWN', '', #27, #200 ) ;
#17 = FACE_OUTER_BOUND ( 'NONE', #77, .T. ) ;
#18 = CIRCLE ( 'NONE', #180, 20.91000000000000000 ) ;
#19 = EDGE_CURVE ( 'NONE', #48, #37, #18, .T. ) ;
#20 = LINE ( 'NONE', #13, #215 ) ;
#21 = LOCAL_TIME ( 15, 47, 40.00000000000000000, #148 ) ;
#22 = CARTESIAN_POINT ( 'NONE',  ( 6.493253180545235800, 2.212570681004452800, -0.6676639147389776800 ) ) ;
#23 = CARTESIAN_POINT ( 'NONE',  ( 2.208447109427924100, -2.212570681004446100, 0.3482809054570889500 ) ) ;
#24 = EDGE_LOOP ( 'NONE', ( #173, #223, #145, #106, #127 ) ) ;
#25 = DATE_TIME_ROLE ( 'classification_date' ) ;
#26 = DIRECTION ( 'NONE',  ( 1.000000000000000000, 0.0000000000000000000, 0.0000000000000000000 ) ) ;
#27 = PRODUCT_DEFINITION_FORMATION_WITH_SPECIFIED_SOURCE ( 'ANY', '', #187, .NOT_KNOWN. ) ;
#28 = CYLINDRICAL_SURFACE ( 'NONE', #66, 6.349999999999999600 ) ;
#29 = ORGANIZATION ( 'UNSPECIFIED', 'UNSPECIFIED', '' ) ;
#30 = CARTESIAN_POINT ( 'NONE',  ( -2.208447109427929900, -2.212570681004446100, 0.3482809054570871800 ) ) ;
#31 = CARTESIAN_POINT ( 'NONE',  ( 2.498001805406600200E-016, 1.221245327087670000E-015, -0.9875101957611731600 ) ) ;
#32 = PERSON_AND_ORGANIZATION ( #3, #29 ) ;
#33 = ORIENTED_EDGE ( 'NONE', *, *, #84, .F. ) ;
#34 = CIRCLE ( 'NONE', #109, 6.349999999999999600 ) ;
#35 = AXIS2_PLACEMENT_3D ( 'NONE', #157, #42, #142 ) ;
#36 = CARTESIAN_POINT ( 'NONE',  ( 2.498001805406600200E-016, 1.221245327087670000E-015, 2.000000000000000000 ) ) ;
#37 = VERTEX_POINT ( 'NONE', #114 ) ;
#38 = COORDINATED_UNIVERSAL_TIME_OFFSET ( 2, 0, .AHEAD. ) ;
#39 = AXIS2_PLACEMENT_3D ( 'NONE', #70, #92, #188 ) ;
#40 = CARTESIAN_POINT ( 'NONE',  ( 2.498001805406600200E-016, 1.221245327087670000E-015, 2.000000000000000000 ) ) ;
#41 = CARTESIAN_POINT ( 'NONE',  ( 0.0000000000000000000, 13.15799999999999900, 2.000000000000000000 ) ) ;
#42 = DIRECTION ( 'NONE',  ( 0.0000000000000000000, 0.0000000000000000000, 1.000000000000000000 ) ) ;
#43 = APPROVAL_ROLE ( '' ) ;
#44 = CC_DESIGN_APPROVAL ( #2, ( #16 ) ) ;
#45 = DIRECTION ( 'NONE',  ( 1.000000000000000000, 0.0000000000000000000, -0.0000000000000000000 ) ) ;
#46 = ORIENTED_EDGE ( 'NONE', *, *, #104, .F. ) ;
#47 = PERSON_AND_ORGANIZATION ( #3, #29 ) ;
#48 = VERTEX_POINT ( 'NONE', #152 ) ;
#49 = EDGE_CURVE ( 'NONE', #86, #48, #183, .T. ) ;
#50 = APPROVAL ( #205, 'UNSPECIFIED' ) ;
#51 = ORIENTED_EDGE ( 'NONE', *, *, #168, .T. ) ;
#52 = COORDINATED_UNIVERSAL_TIME_OFFSET ( 2, 0, .AHEAD. ) ;
#53 = FACE_OUTER_BOUND ( 'NONE', #1, .T. ) ;
#54 = CALENDAR_DATE ( 2019, 17, 1 ) ;
#55 = CARTESIAN_POINT ( 'NONE',  ( 4.109591832567065100, 6.423722572524216200, -1.330711430428911400 ) ) ;
#56 = DIRECTION ( 'NONE',  ( -0.0000000000000000000, -0.0000000000000000000, -1.000000000000000000 ) ) ;
#57 = CARTESIAN_POINT ( 'NONE',  ( -5.204170427930421300E-015, -6.423722572524210900, -1.011158618873236900 ) ) ;
#58 = DIRECTION ( 'NONE',  ( 1.000000000000000000, 0.0000000000000000000, 0.0000000000000000000 ) ) ;
#59 = CARTESIAN_POINT ( 'NONE',  ( 6.349999999999999600, 1.221245327087670000E-015, -0.9875101957611731600 ) ) ;
#60 = DATE_AND_TIME ( #161, #21 ) ;
#61 = CARTESIAN_POINT ( 'NONE',  ( -4.390348961037651600, 2.212570681004451900, 0.006897037820343602900 ) ) ;
#62 = ADVANCED_FACE ( 'NONE', ( #218 ), #137, .F. ) ;
#63 = ADVANCED_FACE ( 'NONE', ( #119 ), #141, .F. ) ;
#64 = AXIS2_PLACEMENT_3D ( 'NONE', #226, #122, #194 ) ;
#65 = CC_DESIGN_PERSON_AND_ORGANIZATION_ASSIGNMENT ( #220, #118, ( #16 ) ) ;
#66 = AXIS2_PLACEMENT_3D ( 'NONE', #31, #126, #178 ) ;
#67 = UNCERTAINTY_MEASURE_WITH_UNIT (LENGTH_MEASURE( 1.000000000000000100E-005 ), #80, 'distance_accuracy_value', 'NONE');
#68 = VECTOR ( 'NONE', #14, 1000.000000000000000 ) ;
#69 = DATE_AND_TIME ( #54, #147 ) ;
#70 = CARTESIAN_POINT ( 'NONE',  ( 2.498001805406600200E-016, 1.221245327087670000E-015, -0.9875101957611731600 ) ) ;
#71 = CARTESIAN_POINT ( 'NONE',  ( 2.208447109427924100, 2.212570681004451900, 0.3482809054570859000 ) ) ;
#72 = AXIS2_PLACEMENT_3D ( 'NONE', #40, #123, #58 ) ;
#73 = CARTESIAN_POINT ( 'NONE',  ( 6.078018051497203100, -6.423722572524210900, -1.962135083948981700 ) ) ;
#74 = ADVANCED_BREP_SHAPE_REPRESENTATION ( '112-5109E CaF2 pl-cv 12.7 F-50', ( #146, #172 ), #235 ) ;
#75 = PRODUCT_RELATED_PRODUCT_CATEGORY ( 'detail', '', ( #187 ) ) ;
#76 = PERSON_AND_ORGANIZATION_ROLE ( 'classification_officer' ) ;
#77 = EDGE_LOOP ( 'NONE', ( #93, #128, #51, #219, #88 ) ) ;
#78 = APPROVAL_ROLE ( '' ) ;
#79 = ADVANCED_FACE ( 'NONE', ( #17 ), #211, .T. ) ;
#80 =( LENGTH_UNIT ( ) NAMED_UNIT ( * ) SI_UNIT ( .MILLI., .METRE. ) );
#81 = VERTEX_POINT ( 'NONE', #121 ) ;
#82 = CARTESIAN_POINT ( 'NONE',  ( -4.109591832567067700, 6.423722572524216200, -1.330711430428912700 ) ) ;
#83 = CARTESIAN_POINT ( 'NONE',  ( 2.498001805406600200E-016, 1.221245327087670000E-015, -0.9875101957611731600 ) ) ;
#84 = EDGE_CURVE ( 'NONE', #37, #86, #162, .T. ) ;
#85 = ADVANCED_FACE ( 'NONE', ( #53 ), #154, .T. ) ;
#86 = VERTEX_POINT ( 'NONE', #59 ) ;
#87 = PERSON_AND_ORGANIZATION ( #3, #29 ) ;
#88 = ORIENTED_EDGE ( 'NONE', *, *, #96, .F. ) ;
#89 = AXIS2_PLACEMENT_3D ( 'NONE', #41, #160, #45 ) ;
#90 = ORIENTED_EDGE ( 'NONE', *, *, #19, .F. ) ;
#91 = APPROVAL_PERSON_ORGANIZATION ( #6, #193, #12 ) ;
#92 = DIRECTION ( 'NONE',  ( 0.0000000000000000000, 0.0000000000000000000, 1.000000000000000000 ) ) ;
#93 = ORIENTED_EDGE ( 'NONE', *, *, #49, .T. ) ;
#94 = DIRECTION ( 'NONE',  ( 1.000000000000000000, 0.0000000000000000000, 0.0000000000000000000 ) ) ;
#95 = CARTESIAN_POINT ( 'NONE',  ( 4.109591832567065100, -6.423722572524210900, -1.330711430428907600 ) ) ;
#96 = EDGE_CURVE ( 'NONE', #86, #186, #164, .T. ) ;
#97 = EDGE_LOOP ( 'NONE', ( #90, #15, #33 ) ) ;
#98 = CARTESIAN_POINT ( 'NONE',  ( -4.336808689942017700E-015, 2.212570681004452800, 0.3482809054570839600 ) ) ;
#99 = PERSON_AND_ORGANIZATION_ROLE ( 'design_supplier' ) ;
#100 = ADVANCED_FACE ( 'NONE', ( #110 ), #28, .T. ) ;
#101 = CARTESIAN_POINT ( 'NONE',  ( 2.498001805406600200E-016, 1.221245327087670000E-015, -0.9875101957611731600 ) ) ;
#102 = CARTESIAN_POINT ( 'NONE',  ( -2.208447109427928100, 2.212570681004451900, 0.3482809054570835100 ) ) ;
#103 = CARTESIAN_POINT ( 'NONE',  ( -6.349999999999999600, 1.998896044546239400E-015, -0.9875101957611731600 ) ) ;
#104 = EDGE_CURVE ( 'NONE', #48, #233, #155, .T. ) ;
#105 = DIRECTION ( 'NONE',  ( 1.000000000000000000, 0.0000000000000000000, 0.0000000000000000000 ) ) ;
#106 = ORIENTED_EDGE ( 'NONE', *, *, #96, .T. ) ;
#107 = COORDINATED_UNIVERSAL_TIME_OFFSET ( 2, 0, .AHEAD. ) ;
#108 = CC_DESIGN_SECURITY_CLASSIFICATION ( #5, ( #27 ) ) ;
#109 = AXIS2_PLACEMENT_3D ( 'NONE', #36, #56, #94 ) ;
#110 = FACE_OUTER_BOUND ( 'NONE', #24, .T. ) ;
#111 = APPROVAL_DATE_TIME ( #202, #2 ) ;
#112 = CIRCLE ( 'NONE', #72, 6.349999999999999600 ) ;
#113 = PERSON_AND_ORGANIZATION ( #3, #29 ) ;
#114 = CARTESIAN_POINT ( 'NONE',  ( 0.0000000000000000000, -6.349999999999995200, -0.9875101957611724900 ) ) ;
#115 = CARTESIAN_POINT ( 'NONE',  ( 0.0000000000000000000, 1.776356839400250100E-015, -20.91000000000000000 ) ) ;
#116 = PERSON_AND_ORGANIZATION ( #3, #29 ) ;
#117 = CC_DESIGN_PERSON_AND_ORGANIZATION_ASSIGNMENT ( #87, #76, ( #5 ) ) ;
#118 = PERSON_AND_ORGANIZATION_ROLE ( 'creator' ) ;
#119 = FACE_OUTER_BOUND ( 'NONE', #181, .T. ) ;
#120 = LOCAL_TIME ( 15, 47, 40.00000000000000000, #107 ) ;
#121 = CARTESIAN_POINT ( 'NONE',  ( -6.349999999999999600, 1.998896044546239400E-015, 2.000000000000000000 ) ) ;
#122 = DIRECTION ( 'NONE',  ( 0.0000000000000000000, 0.0000000000000000000, 1.000000000000000000 ) ) ;
#123 = DIRECTION ( 'NONE',  ( -0.0000000000000000000, -0.0000000000000000000, -1.000000000000000000 ) ) ;
#124 = CC_DESIGN_DATE_AND_TIME_ASSIGNMENT ( #69, #133, ( #16 ) ) ;
#125 = ORIENTED_EDGE ( 'NONE', *, *, #7, .F. ) ;
#126 = DIRECTION ( 'NONE',  ( 0.0000000000000000000, 0.0000000000000000000, 1.000000000000000000 ) ) ;
#127 = ORIENTED_EDGE ( 'NONE', *, *, #7, .T. ) ;
#128 = ORIENTED_EDGE ( 'NONE', *, *, #104, .T. ) ;
#129 = CC_DESIGN_PERSON_AND_ORGANIZATION_ASSIGNMENT ( #116, #99, ( #27 ) ) ;
#130 = ORIENTED_EDGE ( 'NONE', *, *, #217, .F. ) ;
#131 = CC_DESIGN_APPROVAL ( #193, ( #27 ) ) ;
#132 = CARTESIAN_POINT ( 'NONE',  ( 4.390348961037647200, 2.212570681004451900, 0.006897037820345229200 ) ) ;
#133 = DATE_TIME_ROLE ( 'creation_date' ) ;
#134 = CARTESIAN_POINT ( 'NONE',  ( 6.349999999999999600, 1.221245327087670000E-015, 2.000000000000000000 ) ) ;
#135 = DATE_AND_TIME ( #216, #170 ) ;
#136 = PERSON_AND_ORGANIZATION_ROLE ( 'design_owner' ) ;
#137 =( BOUNDED_SURFACE ( )  B_SPLINE_SURFACE ( 3, 3, ( 
 ( #222, #167, #55, #4 ),
 ( #149, #71, #132, #22 ),
 ( #185, #23, #221, #203 ),
 ( #169, #150, #95, #73 ) ),
 .UNSPECIFIED., .F., .F., .F. ) 
 B_SPLINE_SURFACE_WITH_KNOTS ( ( 4, 4 ),
 ( 4, 4 ),
 ( 0.0000000000000000000, 1.000000000000000000 ),
 ( 0.0000000000000000000, 1.000000000000000000 ),
 .UNSPECIFIED. ) 
 GEOMETRIC_REPRESENTATION_ITEM ( )  RATIONAL_B_SPLINE_SURFACE ( (
 ( 1.000000000000000000, 0.9919867501150833000, 0.9919867501150833000, 1.000000000000000000),
 ( 0.9677615616491874700, 0.9600066464266753300, 0.9600066464266753300, 0.9677615616491874700),
 ( 0.9677615616491874700, 0.9600066464266753300, 0.9600066464266753300, 0.9677615616491874700),
 ( 1.000000000000000000, 0.9919867501150833000, 0.9919867501150833000, 1.000000000000000000) ) ) 
 REPRESENTATION_ITEM ( '' )  SURFACE ( )  );
#138 = MECHANICAL_CONTEXT ( 'NONE', #229, 'mechanical' ) ;
#139 = SECURITY_CLASSIFICATION_LEVEL ( 'unclassified' ) ;
#140 = CARTESIAN_POINT ( 'NONE',  ( -6.071532165918825600E-015, -2.212570681004446100, 0.3482809054570878400 ) ) ;
#141 =( BOUNDED_SURFACE ( )  B_SPLINE_SURFACE ( 3, 3, ( 
 ( #195, #82, #228, #210 ),
 ( #230, #61, #102, #98 ),
 ( #8, #197, #30, #140 ),
 ( #198, #225, #206, #57 ) ),
 .UNSPECIFIED., .F., .F., .F. ) 
 B_SPLINE_SURFACE_WITH_KNOTS ( ( 4, 4 ),
 ( 4, 4 ),
 ( 0.0000000000000000000, 1.000000000000000000 ),
 ( 0.0000000000000000000, 1.000000000000000000 ),
 .UNSPECIFIED. ) 
 GEOMETRIC_REPRESENTATION_ITEM ( )  RATIONAL_B_SPLINE_SURFACE ( (
 ( 1.000000000000000000, 0.9919867501150833000, 0.9919867501150833000, 1.000000000000000000),
 ( 0.9677615616491874700, 0.9600066464266753300, 0.9600066464266753300, 0.9677615616491874700),
 ( 0.9677615616491874700, 0.9600066464266753300, 0.9600066464266753300, 0.9677615616491874700),
 ( 1.000000000000000000, 0.9919867501150833000, 0.9919867501150833000, 1.000000000000000000) ) ) 
 REPRESENTATION_ITEM ( '' )  SURFACE ( )  );
#142 = DIRECTION ( 'NONE',  ( 1.000000000000000000, 0.0000000000000000000, 0.0000000000000000000 ) ) ;
#143 = ORIENTED_EDGE ( 'NONE', *, *, #201, .F. ) ;
#144 = PERSON_AND_ORGANIZATION ( #3, #29 ) ;
#145 = ORIENTED_EDGE ( 'NONE', *, *, #84, .T. ) ;
#146 = MANIFOLD_SOLID_BREP ( 'Imported1', #151 ) ;
#147 = LOCAL_TIME ( 15, 47, 40.00000000000000000, #184 ) ;
#148 = COORDINATED_UNIVERSAL_TIME_OFFSET ( 2, 0, .AHEAD. ) ;
#149 = CARTESIAN_POINT ( 'NONE',  ( 0.0000000000000000000, 2.212570681004452800, 0.3482809054570859000 ) ) ;
#150 = CARTESIAN_POINT ( 'NONE',  ( 2.067219777768256600, -6.423722572524210900, -1.011158618873235500 ) ) ;
#151 = CLOSED_SHELL ( 'NONE', ( #63, #79, #62, #100, #85 ) ) ;
#152 = CARTESIAN_POINT ( 'NONE',  ( 0.0000000000000000000, 6.349999999999997900, -0.9875101957611724900 ) ) ;
#153 = APPLICATION_PROTOCOL_DEFINITION ( 'international standard', 'config_control_design', 1994, #196 ) ;
#154 = PLANE ( 'NONE',  #89 ) ;
#155 = CIRCLE ( 'NONE', #163, 6.349999999999999600 ) ;
#156 = APPLICATION_PROTOCOL_DEFINITION ( 'international standard', 'config_control_design', 1994, #229 ) ;
#157 = CARTESIAN_POINT ( 'NONE',  ( 2.498001805406600200E-016, 1.221245327087670000E-015, -0.9875101957611731600 ) ) ;
#158 =( NAMED_UNIT ( * ) PLANE_ANGLE_UNIT ( ) SI_UNIT ( $, .RADIAN. ) );
#159 = DIRECTION ( 'NONE',  ( 0.0000000000000000000, 0.0000000000000000000, 1.000000000000000000 ) ) ;
#160 = DIRECTION ( 'NONE',  ( 0.0000000000000000000, 0.0000000000000000000, 1.000000000000000000 ) ) ;
#161 = CALENDAR_DATE ( 2019, 17, 1 ) ;
#162 = CIRCLE ( 'NONE', #35, 6.349999999999999600 ) ;
#163 = AXIS2_PLACEMENT_3D ( 'NONE', #83, #212, #105 ) ;
#164 = LINE ( 'NONE', #232, #68 ) ;
#165 = CALENDAR_DATE ( 2019, 17, 1 ) ;
#166 = APPROVAL_DATE_TIME ( #135, #193 ) ;
#167 = CARTESIAN_POINT ( 'NONE',  ( 2.067219777768256200, 6.423722572524216200, -1.011158618873238900 ) ) ;
#168 = EDGE_CURVE ( 'NONE', #233, #81, #20, .T. ) ;
#169 = CARTESIAN_POINT ( 'NONE',  ( 0.0000000000000000000, -6.423722572524210900, -1.011158618873235500 ) ) ;
#170 = LOCAL_TIME ( 15, 47, 40.00000000000000000, #52 ) ;
#171 = CARTESIAN_POINT ( 'NONE',  ( 0.0000000000000000000, 0.0000000000000000000, 0.0000000000000000000 ) ) ;
#172 = AXIS2_PLACEMENT_3D ( 'NONE', #171, #175, #9 ) ;
#173 = ORIENTED_EDGE ( 'NONE', *, *, #168, .F. ) ;
#174 = DATE_AND_TIME ( #199, #120 ) ;
#175 = DIRECTION ( 'NONE',  ( 0.0000000000000000000, 0.0000000000000000000, 1.000000000000000000 ) ) ;
#176 = PERSON_AND_ORGANIZATION_ROLE ( 'creator' ) ;
#177 = CC_DESIGN_APPROVAL ( #50, ( #5 ) ) ;
#178 = DIRECTION ( 'NONE',  ( 1.000000000000000000, 0.0000000000000000000, 0.0000000000000000000 ) ) ;
#179 = ORIENTED_EDGE ( 'NONE', *, *, #19, .T. ) ;
#180 = AXIS2_PLACEMENT_3D ( 'NONE', #115, #189, #190 ) ;
#181 = EDGE_LOOP ( 'NONE', ( #46, #179, #130 ) ) ;
#182 = CC_DESIGN_PERSON_AND_ORGANIZATION_ASSIGNMENT ( #144, #136, ( #187 ) ) ;
#183 = CIRCLE ( 'NONE', #39, 6.349999999999999600 ) ;
#184 = COORDINATED_UNIVERSAL_TIME_OFFSET ( 2, 0, .AHEAD. ) ;
#185 = CARTESIAN_POINT ( 'NONE',  ( 0.0000000000000000000, -2.212570681004446100, 0.3482809054570890100 ) ) ;
#186 = VERTEX_POINT ( 'NONE', #134 ) ;
#187 = PRODUCT ( '112-5109E CaF2 pl-cv 12.7 F-50', '112-5109E CaF2 pl-cv 12.7 F-50', '', ( #138 ) ) ;
#188 = DIRECTION ( 'NONE',  ( 1.000000000000000000, 0.0000000000000000000, 0.0000000000000000000 ) ) ;
#189 = DIRECTION ( 'NONE',  ( 1.000000000000000000, 0.0000000000000000000, 0.0000000000000000000 ) ) ;
#190 = DIRECTION ( 'NONE',  ( 0.0000000000000000000, 1.000000000000000000, 0.0000000000000000000 ) ) ;
#191 = APPROVAL_STATUS ( 'not_yet_approved' ) ;
#192 = APPROVAL_PERSON_ORGANIZATION ( #113, #50, #43 ) ;
#193 = APPROVAL ( #191, 'UNSPECIFIED' ) ;
#194 = DIRECTION ( 'NONE',  ( 1.000000000000000000, 0.0000000000000000000, 0.0000000000000000000 ) ) ;
#195 = CARTESIAN_POINT ( 'NONE',  ( -6.078018051497204900, 6.423722572524216200, -1.962135083948986800 ) ) ;
#196 = APPLICATION_CONTEXT ( 'configuration controlled 3d designs of mechanical parts and assemblies' ) ;
#197 = CARTESIAN_POINT ( 'NONE',  ( -4.390348961037653400, -2.212570681004446100, 0.006897037820347179900 ) ) ;
#198 = CARTESIAN_POINT ( 'NONE',  ( -6.078018051497206600, -6.423722572524210900, -1.962135083948983500 ) ) ;
#199 = CALENDAR_DATE ( 2019, 17, 1 ) ;
#200 = DESIGN_CONTEXT ( 'detailed design', #196, 'design' ) ;
#201 = EDGE_CURVE ( 'NONE', #81, #186, #112, .T. ) ;
#202 = DATE_AND_TIME ( #165, #234 ) ;
#203 = CARTESIAN_POINT ( 'NONE',  ( 6.493253180545236700, -2.212570681004446100, -0.6676639147389748000 ) ) ;
#204 = CC_DESIGN_DATE_AND_TIME_ASSIGNMENT ( #174, #25, ( #5 ) ) ;
#205 = APPROVAL_STATUS ( 'not_yet_approved' ) ;
#206 = CARTESIAN_POINT ( 'NONE',  ( -2.067219777768261500, -6.423722572524210900, -1.011158618873237300 ) ) ;
#207 = SHAPE_DEFINITION_REPRESENTATION ( #214, #74 ) ;
#208 = APPROVAL_STATUS ( 'not_yet_approved' ) ;
#209 = CC_DESIGN_PERSON_AND_ORGANIZATION_ASSIGNMENT ( #32, #176, ( #27 ) ) ;
#210 = CARTESIAN_POINT ( 'NONE',  ( -4.336808689942017700E-015, 6.423722572524216200, -1.011158618873240400 ) ) ;
#211 = CYLINDRICAL_SURFACE ( 'NONE', #64, 6.349999999999999600 ) ;
#212 = DIRECTION ( 'NONE',  ( 0.0000000000000000000, 0.0000000000000000000, 1.000000000000000000 ) ) ;
#213 = AXIS2_PLACEMENT_3D ( 'NONE', #101, #231, #26 ) ;
#214 = PRODUCT_DEFINITION_SHAPE ( 'NONE', 'NONE',  #16 ) ;
#215 = VECTOR ( 'NONE', #159, 1000.000000000000000 ) ;
#216 = CALENDAR_DATE ( 2019, 17, 1 ) ;
#217 = EDGE_CURVE ( 'NONE', #233, #37, #10, .T. ) ;
#218 = FACE_OUTER_BOUND ( 'NONE', #97, .T. ) ;
#219 = ORIENTED_EDGE ( 'NONE', *, *, #201, .T. ) ;
#220 = PERSON_AND_ORGANIZATION ( #3, #29 ) ;
#221 = CARTESIAN_POINT ( 'NONE',  ( 4.390348961037647200, -2.212570681004446100, 0.006897037820348264100 ) ) ;
#222 = CARTESIAN_POINT ( 'NONE',  ( 0.0000000000000000000, 6.423722572524216200, -1.011158618873238900 ) ) ;
#223 = ORIENTED_EDGE ( 'NONE', *, *, #217, .T. ) ;
#224 = APPROVAL_PERSON_ORGANIZATION ( #47, #2, #78 ) ;
#225 = CARTESIAN_POINT ( 'NONE',  ( -4.109591832567068600, -6.423722572524210900, -1.330711430428909200 ) ) ;
#226 = CARTESIAN_POINT ( 'NONE',  ( 2.498001805406600200E-016, 1.221245327087670000E-015, -0.9875101957611731600 ) ) ;
#227 =( NAMED_UNIT ( * ) SI_UNIT ( $, .STERADIAN. ) SOLID_ANGLE_UNIT ( ) );
#228 = CARTESIAN_POINT ( 'NONE',  ( -2.067219777768260200, 6.423722572524216200, -1.011158618873240700 ) ) ;
#229 = APPLICATION_CONTEXT ( 'configuration controlled 3d designs of mechanical parts and assemblies' ) ;
#230 = CARTESIAN_POINT ( 'NONE',  ( -6.493253180545238500, 2.212570681004452800, -0.6676639147389794600 ) ) ;
#231 = DIRECTION ( 'NONE',  ( 0.0000000000000000000, 0.0000000000000000000, 1.000000000000000000 ) ) ;
#232 = CARTESIAN_POINT ( 'NONE',  ( 6.349999999999999600, 1.221245327087670000E-015, -0.9875101957611731600 ) ) ;
#233 = VERTEX_POINT ( 'NONE', #103 ) ;
#234 = LOCAL_TIME ( 15, 47, 40.00000000000000000, #38 ) ;
#235 =( GEOMETRIC_REPRESENTATION_CONTEXT ( 3 ) GLOBAL_UNCERTAINTY_ASSIGNED_CONTEXT ( ( #67 ) ) GLOBAL_UNIT_ASSIGNED_CONTEXT ( ( #80, #158, #227 ) ) REPRESENTATION_CONTEXT ( 'NONE', 'WORKASPACE' ) );
ENDSEC;
END-ISO-10303-21;
